  0
SECTION
  2
HEADER
  9
$ACADVER
  1
AC1027
  9
$ACADMAINTVER
 70
   125
  9
$DWGCODEPAGE
  3
ANSI_932
  9
$LASTSAVEDBY
  1
TRE7
  9
$REQUIREDVERSIONS
160
                 0
  9
$INSBASE
 10
0.0
 20
0.0
 30
0.0
  9
$EXTMIN
 10
-20.2469857633987
 20
-70.02001861480505
 30
-0.0000000349181948
  9
$EXTMAX
 10
4027.047023453019
 20
258.0200216696369
 30
0.0000000814935746
  9
$LIMMIN
 10
0.0
 20
0.0
  9
$LIMMAX
 10
297.0
 20
210.0
  9
$ORTHOMODE
 70
     1
  9
$REGENMODE
 70
     1
  9
$FILLMODE
 70
     1
  9
$QTEXTMODE
 70
     0
  9
$MIRRTEXT
 70
     1
  9
$LTSCALE
 40
0.5
  9
$ATTMODE
 70
     1
  9
$TEXTSIZE
 40
2.5
  9
$TRACEWID
 40
1.0
  9
$TEXTSTYLE
  7
masaru
  9
$CLAYER
  8
0
  9
$CELTYPE
  6
Continuous
  9
$CECOLOR
 62
     7
  9
$CELTSCALE
 40
0.5
  9
$DISPSILH
 70
     0
  9
$DIMSCALE
 40
0.0
  9
$DIMASZ
 40
2.5
  9
$DIMEXO
 40
0.5
  9
$DIMDLI
 40
2.0
  9
$DIMRND
 40
0.0
  9
$DIMDLE
 40
0.0
  9
$DIMEXE
 40
1.25
  9
$DIMTP
 40
0.0
  9
$DIMTM
 40
0.0
  9
$DIMTXT
 40
2.5
  9
$DIMCEN
 40
0.0
  9
$DIMTSZ
 40
0.0
  9
$DIMTOL
 70
     0
  9
$DIMLIM
 70
     0
  9
$DIMTIH
 70
     0
  9
$DIMTOH
 70
     0
  9
$DIMSE1
 70
     0
  9
$DIMSE2
 70
     0
  9
$DIMTAD
 70
     1
  9
$DIMZIN
 70
     8
  9
$DIMBLK
  1

  9
$DIMASO
 70
     1
  9
$DIMSHO
 70
     1
  9
$DIMPOST
  1

  9
$DIMAPOST
  1

  9
$DIMALT
 70
     0
  9
$DIMALTD
 70
     3
  9
$DIMALTF
 40
0.03937007874016
  9
$DIMLFAC
 40
1.0
  9
$DIMTOFL
 70
     1
  9
$DIMTVP
 40
0.0
  9
$DIMTIX
 70
     0
  9
$DIMSOXD
 70
     0
  9
$DIMSAH
 70
     0
  9
$DIMBLK1
  1

  9
$DIMBLK2
  1

  9
$DIMSTYLE
  2
1： 1
  9
$DIMCLRD
 70
     0
  9
$DIMCLRE
 70
     0
  9
$DIMCLRT
 70
     0
  9
$DIMTFAC
 40
0.75
  9
$DIMGAP
 40
0.5
  9
$DIMJUST
 70
     0
  9
$DIMSD1
 70
     0
  9
$DIMSD2
 70
     0
  9
$DIMTOLJ
 70
     0
  9
$DIMTZIN
 70
     8
  9
$DIMALTZ
 70
     0
  9
$DIMALTTZ
 70
     0
  9
$DIMUPT
 70
     0
  9
$DIMDEC
 70
     3
  9
$DIMTDEC
 70
     3
  9
$DIMALTU
 70
     2
  9
$DIMALTTD
 70
     3
  9
$DIMTXSTY
  7
masaru
  9
$DIMAUNIT
 70
     0
  9
$DIMADEC
 70
     3
  9
$DIMALTRND
 40
0.0
  9
$DIMAZIN
 70
     2
  9
$DIMDSEP
 70
    46
  9
$DIMATFIT
 70
     3
  9
$DIMFRAC
 70
     0
  9
$DIMLDRBLK
  1

  9
$DIMLUNIT
 70
     2
  9
$DIMLWD
 70
    -2
  9
$DIMLWE
 70
    -2
  9
$DIMTMOVE
 70
     0
  9
$DIMFXL
 40
1.0
  9
$DIMFXLON
 70
     0
  9
$DIMJOGANG
 40
0.7853981633974483
  9
$DIMTFILL
 70
     0
  9
$DIMTFILLCLR
 70
     0
  9
$DIMARCSYM
 70
     0
  9
$DIMLTYPE
  6

  9
$DIMLTEX1
  6

  9
$DIMLTEX2
  6

  9
$DIMTXTDIRECTION
 70
     0
  9
$LUNITS
 70
     2
  9
$LUPREC
 70
     3
  9
$SKETCHINC
 40
1.0
  9
$FILLETRAD
 40
2.0
  9
$AUNITS
 70
     0
  9
$AUPREC
 70
     2
  9
$MENU
  1
.
  9
$ELEVATION
 40
0.0
  9
$PELEVATION
 40
0.0
  9
$THICKNESS
 40
0.0
  9
$LIMCHECK
 70
     0
  9
$CHAMFERA
 40
10.0
  9
$CHAMFERB
 40
10.0
  9
$CHAMFERC
 40
20.0
  9
$CHAMFERD
 40
0.0
  9
$SKPOLY
 70
     0
  9
$TDCREATE
 40
2455945.699016204
  9
$TDUCREATE
 40
2455945.324019456
  9
$TDUPDATE
 40
2460399.396712963
  9
$TDUUPDATE
 40
2460399.021712963
  9
$TDINDWG
 40
1.5483106366
  9
$TDUSRTIMER
 40
1.5483104514
  9
$USRTIMER
 70
     1
  9
$ANGBASE
 50
0.0
  9
$ANGDIR
 70
     0
  9
$PDMODE
 70
     0
  9
$PDSIZE
 40
0.0
  9
$PLINEWID
 40
0.0
  9
$SPLFRAME
 70
     0
  9
$SPLINETYPE
 70
     6
  9
$SPLINESEGS
 70
     8
  9
$HANDSEED
  5
8BB3
  9
$SURFTAB1
 70
     6
  9
$SURFTAB2
 70
     6
  9
$SURFTYPE
 70
     6
  9
$SURFU
 70
     6
  9
$SURFV
 70
     6
  9
$UCSBASE
  2

  9
$UCSNAME
  2

  9
$UCSORG
 10
0.0
 20
0.0
 30
0.0
  9
$UCSXDIR
 10
1.0
 20
0.0
 30
0.0
  9
$UCSYDIR
 10
0.0
 20
1.0
 30
0.0
  9
$UCSORTHOREF
  2

  9
$UCSORTHOVIEW
 70
     0
  9
$UCSORGTOP
 10
0.0
 20
0.0
 30
0.0
  9
$UCSORGBOTTOM
 10
0.0
 20
0.0
 30
0.0
  9
$UCSORGLEFT
 10
0.0
 20
0.0
 30
0.0
  9
$UCSORGRIGHT
 10
0.0
 20
0.0
 30
0.0
  9
$UCSORGFRONT
 10
0.0
 20
0.0
 30
0.0
  9
$UCSORGBACK
 10
0.0
 20
0.0
 30
0.0
  9
$PUCSBASE
  2

  9
$PUCSNAME
  2

  9
$PUCSORG
 10
0.0
 20
0.0
 30
0.0
  9
$PUCSXDIR
 10
1.0
 20
0.0
 30
0.0
  9
$PUCSYDIR
 10
0.0
 20
1.0
 30
0.0
  9
$PUCSORTHOREF
  2

  9
$PUCSORTHOVIEW
 70
     0
  9
$PUCSORGTOP
 10
0.0
 20
0.0
 30
0.0
  9
$PUCSORGBOTTOM
 10
0.0
 20
0.0
 30
0.0
  9
$PUCSORGLEFT
 10
0.0
 20
0.0
 30
0.0
  9
$PUCSORGRIGHT
 10
0.0
 20
0.0
 30
0.0
  9
$PUCSORGFRONT
 10
0.0
 20
0.0
 30
0.0
  9
$PUCSORGBACK
 10
0.0
 20
0.0
 30
0.0
  9
$USERI1
 70
     0
  9
$USERI2
 70
     0
  9
$USERI3
 70
     0
  9
$USERI4
 70
     0
  9
$USERI5
 70
     0
  9
$USERR1
 40
0.0
  9
$USERR2
 40
0.0
  9
$USERR3
 40
0.0
  9
$USERR4
 40
0.0
  9
$USERR5
 40
0.0
  9
$WORLDVIEW
 70
     1
  9
$SHADEDGE
 70
     3
  9
$SHADEDIF
 70
    70
  9
$TILEMODE
 70
     1
  9
$MAXACTVP
 70
    64
  9
$PINSBASE
 10
0.0
 20
0.0
 30
0.0
  9
$PLIMCHECK
 70
     0
  9
$PEXTMIN
 10
1.000000000000000E+20
 20
1.000000000000000E+20
 30
1.000000000000000E+20
  9
$PEXTMAX
 10
-1.000000000000000E+20
 20
-1.000000000000000E+20
 30
-1.000000000000000E+20
  9
$PLIMMIN
 10
-5.873748779296875
 20
-5.873749732971191
  9
$PLIMMAX
 10
291.05224609375
 20
204.0995779037475
  9
$UNITMODE
 70
     0
  9
$VISRETAIN
 70
     1
  9
$PLINEGEN
 70
     0
  9
$PSLTSCALE
 70
     1
  9
$TREEDEPTH
 70
  3020
  9
$CMLSTYLE
  2
Standard
  9
$CMLJUST
 70
     0
  9
$CMLSCALE
 40
20.0
  9
$PROXYGRAPHICS
 70
     1
  9
$MEASUREMENT
 70
     1
  9
$CELWEIGHT
370
    -3
  9
$ENDCAPS
280
     0
  9
$JOINSTYLE
280
     0
  9
$LWDISPLAY
290
     1
  9
$INSUNITS
 70
     4
  9
$HYPERLINKBASE
  1

  9
$STYLESHEET
  1

  9
$XEDIT
290
     1
  9
$CEPSNTYPE
380
     0
  9
$PSTYLEMODE
290
     1
  9
$FINGERPRINTGUID
  2
{47EBBC9A-B4E8-4B54-BDCE-3C6DCD4BBDEA}
  9
$VERSIONGUID
  2
{544CA5D6-6E1D-3A42-BD9B-89C06612C4BF}
  9
$EXTNAMES
290
     1
  9
$PSVPSCALE
 40
1.0
  9
$OLESTARTUP
290
     0
  9
$SORTENTS
280
    96
  9
$INDEXCTL
280
     0
  9
$HIDETEXT
280
     0
  9
$XCLIPFRAME
280
     0
  9
$HALOGAP
280
     0
  9
$OBSCOLOR
 70
   257
  9
$OBSLTYPE
280
     0
  9
$INTERSECTIONDISPLAY
280
     0
  9
$INTERSECTIONCOLOR
 70
   257
  9
$DIMASSOC
280
     1
  9
$PROJECTNAME
  1

  9
$CAMERADISPLAY
290
     0
  9
$LENSLENGTH
 40
50.0
  9
$CAMERAHEIGHT
 40
0.0
  9
$STEPSPERSEC
 40
2.0
  9
$STEPSIZE
 40
6.0
  9
$3DDWFPREC
 40
2.0
  9
$PSOLWIDTH
 40
0.25
  9
$PSOLHEIGHT
 40
4.0
  9
$LOFTANG1
 40
1.570796326794896
  9
$LOFTANG2
 40
1.570796326794896
  9
$LOFTMAG1
 40
0.0
  9
$LOFTMAG2
 40
0.0
  9
$LOFTPARAM
 70
     7
  9
$LOFTNORMALS
280
     1
  9
$LATITUDE
 40
37.795
  9
$LONGITUDE
 40
-122.394
  9
$NORTHDIRECTION
 40
0.0
  9
$TIMEZONE
 70
 -8000
  9
$LIGHTGLYPHDISPLAY
280
     1
  9
$TILEMODELIGHTSYNCH
280
     1
  9
$CMATERIAL
347
1FDF
  9
$SOLIDHIST
280
     0
  9
$SHOWHIST
280
     1
  9
$DWFFRAME
280
     2
  9
$DGNFRAME
280
     0
  9
$REALWORLDSCALE
290
     1
  9
$INTERFERECOLOR
 62
     1
  9
$INTERFEREOBJVS
345
2001
  9
$INTERFEREVPVS
346
1FFE
  9
$CSHADOW
280
     0
  9
$SHADOWPLANELOCATION
 40
0.0
  0
ENDSEC
  0
SECTION
  2
CLASSES
  0
CLASS
  1
ACDBDICTIONARYWDFLT
  2
AcDbDictionaryWithDefault
  3
ObjectDBX Classes
 90
        0
 91
        1
280
     0
281
     0
  0
CLASS
  1
DICTIONARYVAR
  2
AcDbDictionaryVar
  3
ObjectDBX Classes
 90
        0
 91
       12
280
     0
281
     0
  0
CLASS
  1
MATERIAL
  2
AcDbMaterial
  3
ObjectDBX Classes
 90
     1153
 91
        3
280
     0
281
     0
  0
CLASS
  1
VISUALSTYLE
  2
AcDbVisualStyle
  3
ObjectDBX Classes
 90
     4095
 91
       26
280
     0
281
     0
  0
CLASS
  1
TABLESTYLE
  2
AcDbTableStyle
  3
ObjectDBX Classes
 90
     4095
 91
        1
280
     0
281
     0
  0
CLASS
  1
SCALE
  2
AcDbScale
  3
ObjectDBX Classes
 90
     1153
 91
       33
280
     0
281
     0
  0
CLASS
  1
MLEADERSTYLE
  2
AcDbMLeaderStyle
  3
ACDB_MLEADERSTYLE_CLASS
 90
     4095
 91
        2
280
     0
281
     0
  0
CLASS
  1
CELLSTYLEMAP
  2
AcDbCellStyleMap
  3
ObjectDBX Classes
 90
     1152
 91
        1
280
     0
281
     0
  0
CLASS
  1
SORTENTSTABLE
  2
AcDbSortentsTable
  3
ObjectDBX Classes
 90
        0
 91
        1
280
     0
281
     0
  0
CLASS
  1
MULTILEADER
  2
AcDbMLeader
  3
ACDB_MLEADER_CLASS
 90
     1025
 91
        0
280
     0
281
     1
  0
CLASS
  1
LARGE_RADIAL_DIMENSION
  2
AcDbRadialDimensionLarge
  3
ObjectDBX Classes
 90
     1025
 91
        0
280
     0
281
     1
  0
CLASS
  1
ACDBSECTIONVIEWSTYLE
  2
AcDbSectionViewStyle
  3
ObjectDBX Classes
 90
     1025
 91
        1
280
     0
281
     0
  0
CLASS
  1
ACDBDETAILVIEWSTYLE
  2
AcDbDetailViewStyle
  3
ObjectDBX Classes
 90
     1025
 91
        1
280
     0
281
     0
  0
ENDSEC
  0
SECTION
  2
TABLES
  0
TABLE
  2
VPORT
  5
8
102
{ACAD_XDICTIONARY
360
2CF5
102
}
330
0
100
AcDbSymbolTable
 70
     1
1001
ACAD
1000
DbSaveVer
1071
      252
  0
VPORT
  5
1D8F
330
8
100
AcDbSymbolTableRecord
100
AcDbViewportTableRecord
  2
*Active
 70
     0
 10
0.0
 20
0.0
 11
1.0
 21
1.0
 12
2003.400018844811
 22
94.00000152741586
 13
0.0
 23
0.0
 14
10.0
 24
10.0
 15
10.0
 25
10.0
 16
0.0
 26
0.0
 36
1.0
 17
0.0
 27
0.0
 37
0.0
 40
2026.067359059588
 41
2.004848484848484
 42
50.0
 43
0.0
 44
0.0
 50
0.0
 51
0.0
 71
     0
 72
   100
 73
     1
 74
     3
 75
     0
 76
     0
 77
     0
 78
     0
281
     0
 65
     1
110
0.0
120
0.0
130
0.0
111
1.0
121
0.0
131
0.0
112
0.0
122
1.0
132
0.0
 79
     0
146
0.0
348
1FFD
 60
     3
 61
     5
292
     1
282
     1
141
0.0
142
0.0
 63
   250
421
  3355443
1001
ACAD_NAV_VCDISPLAY
1070
     3
  0
ENDTAB
  0
TABLE
  2
LTYPE
  5
5
330
0
100
AcDbSymbolTable
 70
     3
  0
LTYPE
  5
14
330
5
100
AcDbSymbolTableRecord
100
AcDbLinetypeTableRecord
  2
ByBlock
 70
     0
  3

 72
    65
 73
     0
 40
0.0
  0
LTYPE
  5
15
330
5
100
AcDbSymbolTableRecord
100
AcDbLinetypeTableRecord
  2
ByLayer
 70
     0
  3

 72
    65
 73
     0
 40
0.0
  0
LTYPE
  5
16
330
5
100
AcDbSymbolTableRecord
100
AcDbLinetypeTableRecord
  2
Continuous
 70
     0
  3
Solid line
 72
    65
 73
     0
 40
0.0
  0
LTYPE
  5
9B4
330
5
100
AcDbSymbolTableRecord
100
AcDbLinetypeTableRecord
  2
CENTER2
 70
     0
  3
Center (.5x) ___ _ ___ _ ___ _ ___ _ ___ _ ___
 72
    65
 73
     4
 40
28.575
 49
19.05
 74
     0
 49
-3.174999999999999
 74
     0
 49
3.174999999999999
 74
     0
 49
-3.174999999999999
 74
     0
  0
ENDTAB
  0
TABLE
  2
LAYER
  5
2
102
{ACAD_XDICTIONARY
360
2044
102
}
330
0
100
AcDbSymbolTable
 70
     8
  0
LAYER
  5
10
102
{ACAD_XDICTIONARY
360
20BE
102
}
330
2
100
AcDbSymbolTableRecord
100
AcDbLayerTableRecord
  2
0
 70
     0
 62
     7
  6
Continuous
370
    -3
390
F
347
1FEF
348
0
  0
LAYER
  5
1C9
330
2
100
AcDbSymbolTableRecord
100
AcDbLayerTableRecord
  2
Defpoints
 70
     0
 62
   255
  6
Continuous
290
     0
370
    -3
390
F
347
1FEF
348
0
  0
ENDTAB
  0
TABLE
  2
STYLE
  5
3
330
0
100
AcDbSymbolTable
 70
     3
  0
STYLE
  5
11
330
3
100
AcDbSymbolTableRecord
100
AcDbTextStyleTableRecord
  2
Standard
 70
     0
 40
0.0
 41
1.0
 50
0.0
 71
     0
 42
2.5
  3
romans.shx
  4
extfont2.shx
  0
STYLE
  5
DE0
330
3
100
AcDbSymbolTableRecord
100
AcDbTextStyleTableRecord
  2
masaru
 70
     0
 40
0.0
 41
1.0
 50
0.0
 71
     0
 42
2.5
  3
romans.shx
  4
extfont2.shx
  0
ENDTAB
  0
TABLE
  2
VIEW
  5
6
330
0
100
AcDbSymbolTable
 70
     2
  0
ENDTAB
  0
TABLE
  2
UCS
  5
7
330
0
100
AcDbSymbolTable
 70
     0
  0
ENDTAB
  0
TABLE
  2
APPID
  5
9
330
0
100
AcDbSymbolTable
 70
    12
  0
APPID
  5
12
330
9
100
AcDbSymbolTableRecord
100
AcDbRegAppTableRecord
  2
ACAD
 70
     0
  0
APPID
  5
202F
330
9
100
AcDbSymbolTableRecord
100
AcDbRegAppTableRecord
  2
ACAD_MLEADERVER
 70
     0
  0
APPID
  5
203F
330
9
100
AcDbSymbolTableRecord
100
AcDbRegAppTableRecord
  2
ACAD_PSEXT
 70
     0
  0
APPID
  5
21B5
330
9
100
AcDbSymbolTableRecord
100
AcDbRegAppTableRecord
  2
AcAecLayerStandard
 70
     0
  0
APPID
  5
23D0
330
9
100
AcDbSymbolTableRecord
100
AcDbRegAppTableRecord
  2
ACAD_EXEMPT_FROM_CAD_STANDARDS
 70
     0
  0
APPID
  5
2461
330
9
100
AcDbSymbolTableRecord
100
AcDbRegAppTableRecord
  2
ACAD_DSTYLE_DIMJAG
 70
     0
  0
APPID
  5
2462
330
9
100
AcDbSymbolTableRecord
100
AcDbRegAppTableRecord
  2
ACAD_DSTYLE_DIMBREAK
 70
     0
  0
APPID
  5
2463
330
9
100
AcDbSymbolTableRecord
100
AcDbRegAppTableRecord
  2
ACAD_DSTYLE_DIMTALN
 70
     0
  0
APPID
  5
2464
330
9
100
AcDbSymbolTableRecord
100
AcDbRegAppTableRecord
  2
AcadAnnotative
 70
     0
  0
APPID
  5
2D1F
330
9
100
AcDbSymbolTableRecord
100
AcDbRegAppTableRecord
  2
AcDbAttr
 70
     0
  0
APPID
  5
3BF2
330
9
100
AcDbSymbolTableRecord
100
AcDbRegAppTableRecord
  2
ACAD_DSTYLE_DIMRADIAL_EXTENSION
 70
     0
  0
APPID
  5
7991
330
9
100
AcDbSymbolTableRecord
100
AcDbRegAppTableRecord
  2
ACAD_NAV_VCDISPLAY
 70
     0
  0
ENDTAB
  0
TABLE
  2
DIMSTYLE
  5
A
330
0
100
AcDbSymbolTable
 70
     5
100
AcDbDimStyleTable
 71
     1
340
E06
  0
DIMSTYLE
105
E06
330
A
100
AcDbSymbolTableRecord
100
AcDbDimStyleTableRecord
  2
1： 1
 70
     0
 40
0.0
 41
2.5
 42
0.5
 43
2.0
 44
1.25
 73
     0
 74
     0
 77
     1
 78
     8
 79
     2
140
2.5
141
0.0
143
0.03937007874016
146
0.75
147
0.5
171
     3
172
     1
179
     3
271
     3
272
     3
274
     3
283
     0
284
     8
340
DE0
  0
ENDTAB
  0
TABLE
  2
BLOCK_RECORD
  5
1
330
0
100
AcDbSymbolTable
 70
     2
  0
BLOCK_RECORD
  5
1F
102
{ACAD_XDICTIONARY
360
286E
102
}
330
1
100
AcDbSymbolTableRecord
100
AcDbBlockTableRecord
  2
*Model_Space
340
22
 70
     0
280
     1
281
     0
  0
BLOCK_RECORD
  5
275D
330
1
100
AcDbSymbolTableRecord
100
AcDbBlockTableRecord
  2
*Paper_Space
340
275E
 70
     0
280
     1
281
     0
  0
ENDTAB
  0
ENDSEC
  0
SECTION
  2
BLOCKS
  0
BLOCK
  5
20
330
1F
100
AcDbEntity
  8
0
100
AcDbBlockBegin
  2
*Model_Space
 70
     0
 10
0.0
 20
0.0
 30
0.0
  3
*Model_Space
  1

  0
ENDBLK
  5
21
330
1F
100
AcDbEntity
  8
0
100
AcDbBlockEnd
  0
BLOCK
  5
275F
330
275D
100
AcDbEntity
 67
     1
  8
0
 48
0.5
100
AcDbBlockBegin
  2
*Paper_Space
 70
     0
 10
0.0
 20
0.0
 30
0.0
  3
*Paper_Space
  1

  0
ENDBLK
  5
2760
330
275D
100
AcDbEntity
 67
     1
  8
0
 48
0.5
100
AcDbBlockEnd
  0
ENDSEC
  0
SECTION
  2
ENTITIES
  0
MTEXT
  5
287B
330
1F
100
AcDbEntity
  8
0
  6
Continuous
 62
     1
 48
0.5
370
    -3
100
AcDbMText
 10
-0.0000000000000013
 20
-5.0
 30
0.0
 40
2.5
 41
32.05805302350382
 46
0.0
 71
     2
 72
     5
  1
0号
 73
     1
 44
1.0
1001
ACAD
1000
ACAD_MTEXT_COLUMN_INFO_BEGIN
1070
    75
1070
     2
1070
    79
1070
     0
1070
    76
1070
     1
1070
    78
1070
     0
1070
    48
1040
32.05805302350382
1070
    49
1040
12.5
1070
    50
1070
     1
1040
0.0
1000
ACAD_MTEXT_COLUMN_INFO_END
  0
MTEXT
  5
287C
330
1F
100
AcDbEntity
  8
0
  6
Continuous
 62
     1
 48
0.5
370
    -3
100
AcDbMText
 10
-0.0000000000000013
 20
-13.0
 30
0.0
 40
2.5
 41
32.05805302350382
 46
0.0
 71
     2
 72
     5
  1
KMDE0□
 73
     1
 44
1.0
1001
ACAD
1000
ACAD_MTEXT_COLUMN_INFO_BEGIN
1070
    75
1070
     2
1070
    79
1070
     0
1070
    76
1070
     1
1070
    78
1070
     0
1070
    48
1040
32.05805302350382
1070
    49
1040
12.5
1070
    50
1070
     1
1040
0.0
1000
ACAD_MTEXT_COLUMN_INFO_END
  0
MTEXT
  5
4168
330
1F
100
AcDbEntity
  8
0
  6
Continuous
 62
     1
 48
0.5
370
    -3
100
AcDbMText
 10
2002.999999999854
 20
-34.99999999999972
 30
0.0
 40
5.0
 41
274.1193536229421
 46
0.0
 71
     2
 72
     5
  1
エムケーダクト
 73
     1
 44
1.0
1001
ACAD
1000
ACAD_MTEXT_COLUMN_INFO_BEGIN
1070
    75
1070
     2
1070
    79
1070
     0
1070
    76
1070
     1
1070
    78
1070
     0
1070
    48
1040
274.1193536229421
1070
    49
1040
12.5
1070
    50
1070
     1
1040
0.0
1000
ACAD_MTEXT_COLUMN_INFO_END
  0
MTEXT
  5
428F
330
1F
100
AcDbEntity
  8
0
  6
Continuous
 62
     1
 48
0.5
370
    -3
100
AcDbMText
 10
2002.999999999854
 20
-56.99999999999971
 30
0.0
 40
5.0
 41
274.1193536229421
 46
0.0
 71
     2
 72
     5
  1
エムケーダクト フリーコンセントシリーズ\Pエンド
 73
     1
 44
1.0
1001
ACAD
1000
ACAD_MTEXT_COLUMN_INFO_BEGIN
1070
    75
1070
     2
1070
    79
1070
     0
1070
    76
1070
     1
1070
    78
1070
     0
1070
    48
1040
274.1193536229421
1070
    49
1040
12.5
1070
    50
1070
     1
1040
0.0
1000
ACAD_MTEXT_COLUMN_INFO_END
  0
LINE
  5
634B
330
1F
100
AcDbEntity
  8
0
  6
CENTER2
 62
     2
 48
0.5
370
    -3
100
AcDbLine
 10
-0.0000000000000126
 20
55.50000000000035
 30
0.0
 11
-0.0000000000000087
 21
30.00000000000035
 31
0.0
  0
LINE
  5
6353
330
1F
100
AcDbEntity
  8
0
  6
Continuous
 62
     7
 48
0.5
370
    -3
100
AcDbLine
 10
9.999999999999992
 20
42.50000000000035
 30
0.0
 11
9.999999999999992
 21
35.50000000000036
 31
0.0
  0
LINE
  5
6354
330
1F
100
AcDbEntity
  8
0
  6
Continuous
 62
     7
 48
0.5
370
    -3
100
AcDbLine
 10
17.99999999999999
 20
37.50000000000035
 30
0.0
 11
17.99999999999999
 21
52.50000000000035
 31
0.0
  0
LINE
  5
6355
330
1F
100
AcDbEntity
  8
0
  6
Continuous
 62
     7
 48
0.5
370
    -3
100
AcDbLine
 10
19.49118586529822
 20
38.10000000000038
 30
0.0
 11
19.49118586529823
 21
51.90000000000033
 31
0.0
  0
ARC
  5
6356
330
1F
100
AcDbEntity
  8
0
  6
Continuous
 62
     7
 48
0.5
370
    -3
100
AcDbCircle
 10
18.8911858652982
 20
38.10000000000038
 30
0.0
 40
0.6
100
AcDbArc
 50
270.0
 51
0.0
  0
LINE
  5
6357
330
1F
100
AcDbEntity
  8
0
  6
Continuous
 62
     7
 48
0.5
370
    -3
100
AcDbLine
 10
6.499999999999993
 20
51.90000000000044
 30
0.0
 11
6.499999999999992
 21
43.50000000000036
 31
0.0
  0
LINE
  5
6358
330
1F
100
AcDbEntity
  8
0
  6
Continuous
 62
     7
 48
0.5
370
    -3
100
AcDbLine
 10
7.100000000000016
 20
52.50000000000035
 30
0.0
 11
18.8911858652982
 21
52.50000000000035
 31
0.0
  0
ARC
  5
6359
330
1F
100
AcDbEntity
  8
0
  6
Continuous
 62
     7
 48
0.5
370
    -3
100
AcDbCircle
 10
18.8911858652982
 20
51.90000000000033
 30
0.0
 40
0.6
100
AcDbArc
 50
0.0
 51
89.99999999999998
  0
ARC
  5
635A
330
1F
100
AcDbEntity
  8
0
  6
Continuous
 62
     7
 48
0.5
370
    -3
100
AcDbCircle
 10
7.100000000000016
 20
51.90000000000044
 30
0.0
 40
0.6
100
AcDbArc
 50
89.99999999999998
 51
180.0
  0
LINE
  5
635B
330
1F
100
AcDbEntity
  8
0
  6
Continuous
 62
     7
 48
0.5
370
    -3
100
AcDbLine
 10
-9.000000000000007
 20
43.50000000000036
 30
0.0
 11
8.999999999999992
 21
43.50000000000036
 31
0.0
  0
ARC
  5
635C
330
1F
100
AcDbEntity
  8
0
  6
Continuous
 62
     7
 48
0.5
370
    -3
100
AcDbCircle
 10
8.999999999999992
 20
42.50000000000035
 30
0.0
 40
1.0
100
AcDbArc
 50
0.0
 51
89.99999999999998
  0
LINE
  5
635D
330
1F
100
AcDbEntity
  8
0
  6
Continuous
 62
     7
 48
0.5
370
    -3
100
AcDbLine
 10
-20.00000000000001
 20
35.50000000000036
 30
0.0
 11
19.99999999999999
 21
35.50000000000036
 31
0.0
  0
LINE
  5
635E
330
1F
100
AcDbEntity
  8
0
  6
Continuous
 62
     7
 48
0.5
370
    -3
100
AcDbLine
 10
-19.00000000000001
 20
33.00000000000036
 30
0.0
 11
18.99999999999999
 21
33.00000000000036
 31
0.0
  0
ARC
  5
635F
330
1F
100
AcDbEntity
  8
0
  6
Continuous
 62
     7
 48
0.5
370
    -3
100
AcDbCircle
 10
18.99999999999999
 20
34.00000000000036
 30
0.0
 40
1.0
100
AcDbArc
 50
270.0
 51
0.0
  0
LINE
  5
6360
330
1F
100
AcDbEntity
  8
0
  6
Continuous
 62
     7
 48
0.5
370
    -3
100
AcDbLine
 10
16.71699056339519
 20
37.50000000000035
 30
0.0
 11
18.8911858652982
 21
37.50000000000035
 31
0.0
  0
LINE
  5
6361
330
1F
100
AcDbEntity
  8
0
  6
Continuous
 62
     7
 48
0.5
370
    -3
100
AcDbLine
 10
19.99999999999999
 20
35.50000000000036
 30
0.0
 11
19.99999999999999
 21
34.00000000000036
 31
0.0
  0
LINE
  5
6362
330
1F
100
AcDbEntity
  8
0
  6
Continuous
 62
     7
 48
0.5
370
    -3
100
AcDbLine
 10
16.71699056339519
 20
37.50000000000035
 30
0.0
 11
16.71699056339519
 21
35.50000000000036
 31
0.0
  0
LINE
  5
6363
330
1F
100
AcDbEntity
  8
0
  6
Continuous
 62
     7
 48
0.5
370
    -3
100
AcDbLine
 10
17.60000000000001
 20
37.50000000000035
 30
0.0
 11
17.60000000000001
 21
35.50000000000036
 31
0.0
  0
LINE
  5
636D
330
1F
100
AcDbEntity
  8
0
  6
Continuous
 62
     7
 48
0.5
370
    -3
100
AcDbLine
 10
18.49999999999999
 20
35.50000000000036
 30
0.0
 11
18.49999999999999
 21
34.00000000000036
 31
0.0
  0
ARC
  5
636E
330
1F
100
AcDbEntity
  8
0
  6
Continuous
 62
     7
 48
0.5
370
    -3
100
AcDbCircle
 10
17.49999999999999
 20
34.00000000000036
 30
0.0
 40
1.0
100
AcDbArc
 50
270.0
 51
0.0
  0
LINE
  5
6377
330
1F
100
AcDbEntity
  8
0
  6
Continuous
 62
     7
 48
0.5
370
    -3
100
AcDbLine
 10
-10.0
 20
42.50000000000035
 30
0.0
 11
-10.0
 21
35.50000000000036
 31
0.0
  0
LINE
  5
6378
330
1F
100
AcDbEntity
  8
0
  6
Continuous
 62
     7
 48
0.5
370
    -3
100
AcDbLine
 10
-18.00000000000001
 20
37.50000000000035
 30
0.0
 11
-18.0
 21
52.50000000000035
 31
0.0
  0
LINE
  5
6379
330
1F
100
AcDbEntity
  8
0
  6
Continuous
 62
     7
 48
0.5
370
    -3
100
AcDbLine
 10
-19.49118586529824
 20
38.10000000000038
 30
0.0
 11
-19.49118586529824
 21
51.90000000000033
 31
0.0
  0
ARC
  5
637A
330
1F
100
AcDbEntity
  8
0
  6
Continuous
 62
     7
 48
0.5
370
    -3
100
AcDbCircle
 10
-18.89118586529822
 20
38.10000000000038
 30
0.0
 40
0.6
100
AcDbArc
 50
180.0
 51
270.0
  0
LINE
  5
637B
330
1F
100
AcDbEntity
  8
0
  6
Continuous
 62
     7
 48
0.5
370
    -3
100
AcDbLine
 10
-6.500000000000006
 20
51.90000000000044
 30
0.0
 11
-6.500000000000007
 21
43.50000000000036
 31
0.0
  0
LINE
  5
637C
330
1F
100
AcDbEntity
  8
0
  6
Continuous
 62
     7
 48
0.5
370
    -3
100
AcDbLine
 10
-7.100000000000028
 20
52.50000000000035
 30
0.0
 11
-18.89118586529822
 21
52.50000000000035
 31
0.0
  0
ARC
  5
637D
330
1F
100
AcDbEntity
  8
0
  6
Continuous
 62
     7
 48
0.5
370
    -3
100
AcDbCircle
 10
-18.89118586529822
 20
51.90000000000033
 30
0.0
 40
0.6
100
AcDbArc
 50
89.99999999999998
 51
180.0
  0
ARC
  5
637E
330
1F
100
AcDbEntity
  8
0
  6
Continuous
 62
     7
 48
0.5
370
    -3
100
AcDbCircle
 10
-7.100000000000028
 20
51.90000000000044
 30
0.0
 40
0.6
100
AcDbArc
 50
0.0
 51
89.99999999999998
  0
ARC
  5
637F
330
1F
100
AcDbEntity
  8
0
  6
Continuous
 62
     7
 48
0.5
370
    -3
100
AcDbCircle
 10
-9.000000000000007
 20
42.50000000000035
 30
0.0
 40
1.0
100
AcDbArc
 50
89.99999999999998
 51
180.0
  0
ARC
  5
6380
330
1F
100
AcDbEntity
  8
0
  6
Continuous
 62
     7
 48
0.5
370
    -3
100
AcDbCircle
 10
-19.00000000000001
 20
34.00000000000036
 30
0.0
 40
1.0
100
AcDbArc
 50
180.0
 51
270.0
  0
LINE
  5
6381
330
1F
100
AcDbEntity
  8
0
  6
Continuous
 62
     7
 48
0.5
370
    -3
100
AcDbLine
 10
-16.71699056339521
 20
37.50000000000035
 30
0.0
 11
-18.89118586529822
 21
37.50000000000035
 31
0.0
  0
LINE
  5
6382
330
1F
100
AcDbEntity
  8
0
  6
Continuous
 62
     7
 48
0.5
370
    -3
100
AcDbLine
 10
-20.00000000000001
 20
35.50000000000036
 30
0.0
 11
-20.00000000000001
 21
34.00000000000036
 31
0.0
  0
LINE
  5
6383
330
1F
100
AcDbEntity
  8
0
  6
Continuous
 62
     7
 48
0.5
370
    -3
100
AcDbLine
 10
-16.71699056339521
 20
37.50000000000035
 30
0.0
 11
-16.71699056339521
 21
35.50000000000036
 31
0.0
  0
LINE
  5
6384
330
1F
100
AcDbEntity
  8
0
  6
Continuous
 62
     7
 48
0.5
370
    -3
100
AcDbLine
 10
-17.60000000000003
 20
37.50000000000035
 30
0.0
 11
-17.60000000000003
 21
35.50000000000036
 31
0.0
  0
LINE
  5
638E
330
1F
100
AcDbEntity
  8
0
  6
Continuous
 62
     7
 48
0.5
370
    -3
100
AcDbLine
 10
-18.50000000000001
 20
35.50000000000036
 30
0.0
 11
-18.50000000000001
 21
34.00000000000036
 31
0.0
  0
ARC
  5
638F
330
1F
100
AcDbEntity
  8
0
  6
Continuous
 62
     7
 48
0.5
370
    -3
100
AcDbCircle
 10
-17.50000000000001
 20
34.00000000000036
 30
0.0
 40
1.0
100
AcDbArc
 50
180.0
 51
270.0
  0
LINE
  5
63CB
330
1F
100
AcDbEntity
  8
0
  6
CENTER2
 62
     2
 48
0.5
370
    -3
100
AcDbLine
 10
69.99999999999999
 20
0.000000000000334
 30
0.0
 11
69.99999999999999
 21
36.00000000000033
 31
0.0
  0
LINE
  5
63CC
330
1F
100
AcDbEntity
  8
0
  6
CENTER2
 62
     2
 48
0.5
370
    -3
100
AcDbLine
 10
69.99999999999997
 20
66.50000000000034
 30
0.0
 11
69.99999999999997
 21
40.00000000000033
 31
0.0
  0
LINE
  5
63CD
330
1F
100
AcDbEntity
  8
0
  6
Continuous
 62
     7
 48
0.5
370
    -3
100
AcDbLine
 10
87.0
 20
3.000000000000333
 30
0.0
 11
52.99999999999998
 21
3.000000000000333
 31
0.0
  0
LINE
  5
63CE
330
1F
100
AcDbEntity
  8
0
  6
Continuous
 62
     7
 48
0.5
370
    -3
100
AcDbLine
 10
88.50000000000003
 20
33.00000000000034
 30
0.0
 11
51.49999999999998
 21
33.00000000000034
 31
0.0
  0
LINE
  5
63CF
330
1F
100
AcDbEntity
  8
0
  6
Continuous
 62
     7
 48
0.5
370
    -3
100
AcDbLine
 10
49.99999999999999
 20
6.000000000000333
 30
0.0
 11
49.99999999999999
 21
32.20000000000027
 31
0.0
  0
ARC
  5
63D0
330
1F
100
AcDbEntity
  8
0
  6
Continuous
 62
     7
 48
0.5
370
    -3
100
AcDbCircle
 10
52.99999999999998
 20
6.000000000000333
 30
0.0
 40
3.0
100
AcDbArc
 50
180.0
 51
270.0
  0
LINE
  5
63D1
330
1F
100
AcDbEntity
  8
0
  6
Continuous
 62
     7
 48
0.5
370
    -3
100
AcDbLine
 10
49.99999999999999
 20
32.20000000000027
 30
0.0
 11
51.49999999999998
 21
33.00000000000034
 31
0.0
  0
LINE
  5
63D2
330
1F
100
AcDbEntity
  8
0
  6
Continuous
 62
     7
 48
0.5
370
    -3
100
AcDbLine
 10
79.99999999999997
 20
52.50000000000034
 30
0.0
 11
79.99999999999997
 21
45.50000000000034
 31
0.0
  0
LINE
  5
63D3
330
1F
100
AcDbEntity
  8
0
  6
Continuous
 62
     7
 48
0.5
370
    -3
100
AcDbLine
 10
60.99999999999997
 20
53.50000000000034
 30
0.0
 11
78.99999999999997
 21
53.50000000000034
 31
0.0
  0
ARC
  5
63D4
330
1F
100
AcDbEntity
  8
0
  6
Continuous
 62
     7
 48
0.5
370
    -3
100
AcDbCircle
 10
78.99999999999997
 20
52.50000000000034
 30
0.0
 40
1.0
100
AcDbArc
 50
0.0
 51
90.0
  0
LINE
  5
63D5
330
1F
100
AcDbEntity
  8
0
  6
Continuous
 62
     7
 48
0.5
370
    -3
100
AcDbLine
 10
49.99999999999996
 20
45.50000000000032
 30
0.0
 11
89.99999999999998
 21
45.50000000000034
 31
0.0
  0
LINE
  5
63D6
330
1F
100
AcDbEntity
  8
0
  6
Continuous
 62
     7
 48
0.5
370
    -3
100
AcDbLine
 10
50.99999999999996
 20
43.00000000000034
 30
0.0
 11
88.99999999999996
 21
43.00000000000034
 31
0.0
  0
ARC
  5
63D7
330
1F
100
AcDbEntity
  8
0
  6
Continuous
 62
     7
 48
0.5
370
    -3
100
AcDbCircle
 10
88.99999999999996
 20
44.00000000000034
 30
0.0
 40
1.0
100
AcDbArc
 50
270.0
 51
0.0
  0
LINE
  5
63D8
330
1F
100
AcDbEntity
  8
0
  6
Continuous
 62
     7
 48
0.5
370
    -3
100
AcDbLine
 10
89.99999999999998
 20
45.50000000000034
 30
0.0
 11
89.99999999999998
 21
44.00000000000034
 31
0.0
  0
LINE
  5
63E2
330
1F
100
AcDbEntity
  8
0
  6
Continuous
 62
     7
 48
0.5
370
    -3
100
AcDbLine
 10
88.19999999999996
 20
48.50000000000034
 30
0.0
 11
88.19999999999998
 21
63.50000000000034
 31
0.0
  0
LINE
  5
63E3
330
1F
100
AcDbEntity
  8
0
  6
Continuous
 62
     7
 48
0.5
370
    -3
100
AcDbLine
 10
89.69500353940512
 20
49.10000000000036
 30
0.0
 11
89.69500353940512
 21
62.90000000000032
 31
0.0
  0
ARC
  5
63E4
330
1F
100
AcDbEntity
  8
0
  6
Continuous
 62
     7
 48
0.5
370
    -3
100
AcDbCircle
 10
89.09500353940515
 20
49.10000000000036
 30
0.0
 40
0.6
100
AcDbArc
 50
269.9999999999968
 51
0.0
  0
LINE
  5
63E5
330
1F
100
AcDbEntity
  8
0
  6
Continuous
 62
     7
 48
0.5
370
    -3
100
AcDbLine
 10
75.49999999999991
 20
62.90000000000032
 30
0.0
 11
75.49999999999991
 21
53.50000000000034
 31
0.0
  0
LINE
  5
63E6
330
1F
100
AcDbEntity
  8
0
  6
Continuous
 62
     7
 48
0.5
370
    -3
100
AcDbLine
 10
76.09999999999994
 20
63.50000000000034
 30
0.0
 11
89.09500353940511
 21
63.50000000000034
 31
0.0
  0
ARC
  5
63E7
330
1F
100
AcDbEntity
  8
0
  6
Continuous
 62
     7
 48
0.5
370
    -3
100
AcDbCircle
 10
89.0950035394051
 20
62.90000000000032
 30
0.0
 40
0.6
100
AcDbArc
 50
0.0
 51
90.0
  0
ARC
  5
63E8
330
1F
100
AcDbEntity
  8
0
  6
Continuous
 62
     7
 48
0.5
370
    -3
100
AcDbCircle
 10
76.09999999999994
 20
62.90000000000032
 30
0.0
 40
0.6
100
AcDbArc
 50
90.0
 51
180.0
  0
LINE
  5
63E9
330
1F
100
AcDbEntity
  8
0
  6
Continuous
 62
     7
 48
0.5
370
    -3
100
AcDbLine
 10
87.37593003273108
 20
48.50000000000034
 30
0.0
 11
89.0950035394051
 21
48.50000000000034
 31
0.0
  0
LINE
  5
63EA
330
1F
100
AcDbEntity
  8
0
  6
Continuous
 62
     7
 48
0.5
370
    -3
100
AcDbLine
 10
88.49999999999992
 20
48.50000000000034
 30
0.0
 11
88.49999999999992
 21
45.50000000000034
 31
0.0
  0
LINE
  5
63EB
330
1F
100
AcDbEntity
  8
0
  6
Continuous
 62
     7
 48
0.5
370
    -3
100
AcDbLine
 10
87.37593003273108
 20
48.50000000000034
 30
0.0
 11
87.37593003273108
 21
45.50000000000034
 31
0.0
  0
LINE
  5
63EC
330
1F
100
AcDbEntity
  8
0
  6
Continuous
 62
     7
 48
0.5
370
    -3
100
AcDbLine
 10
88.49999999999997
 20
45.50000000000034
 30
0.0
 11
88.49999999999997
 21
44.00000000000034
 31
0.0
  0
ARC
  5
63ED
330
1F
100
AcDbEntity
  8
0
  6
Continuous
 62
     7
 48
0.5
370
    -3
100
AcDbCircle
 10
87.49999999999998
 20
44.00000000000034
 30
0.0
 40
1.0
100
AcDbArc
 50
270.0
 51
0.0
  0
LINE
  5
63F3
330
1F
100
AcDbEntity
  8
0
  6
Continuous
 62
     7
 48
0.5
370
    -3
100
AcDbLine
 10
90.0
 20
6.000000000000333
 30
0.0
 11
90.0
 21
32.20000000000027
 31
0.0
  0
ARC
  5
63F4
330
1F
100
AcDbEntity
  8
0
  6
Continuous
 62
     7
 48
0.5
370
    -3
100
AcDbCircle
 10
87.0
 20
6.000000000000333
 30
0.0
 40
3.0
100
AcDbArc
 50
270.0
 51
0.0
  0
LINE
  5
63F5
330
1F
100
AcDbEntity
  8
0
  6
Continuous
 62
     7
 48
0.5
370
    -3
100
AcDbLine
 10
90.0
 20
32.20000000000027
 30
0.0
 11
88.49999999999999
 21
33.00000000000034
 31
0.0
  0
LINE
  5
63F6
330
1F
100
AcDbEntity
  8
0
  6
Continuous
 62
     7
 48
0.5
370
    -3
100
AcDbLine
 10
59.99999999999997
 20
52.50000000000034
 30
0.0
 11
59.99999999999997
 21
45.50000000000034
 31
0.0
  0
ARC
  5
63F7
330
1F
100
AcDbEntity
  8
0
  6
Continuous
 62
     7
 48
0.5
370
    -3
100
AcDbCircle
 10
60.99999999999997
 20
52.50000000000034
 30
0.0
 40
1.0
100
AcDbArc
 50
90.0
 51
180.0
  0
ARC
  5
63F8
330
1F
100
AcDbEntity
  8
0
  6
Continuous
 62
     7
 48
0.5
370
    -3
100
AcDbCircle
 10
50.99999999999996
 20
44.00000000000034
 30
0.0
 40
1.0
100
AcDbArc
 50
180.0
 51
270.0
  0
LINE
  5
63F9
330
1F
100
AcDbEntity
  8
0
  6
Continuous
 62
     7
 48
0.5
370
    -3
100
AcDbLine
 10
49.99999999999996
 20
45.50000000000034
 30
0.0
 11
49.99999999999996
 21
44.00000000000034
 31
0.0
  0
LINE
  5
6403
330
1F
100
AcDbEntity
  8
0
  6
Continuous
 62
     7
 48
0.5
370
    -3
100
AcDbLine
 10
51.79999999999998
 20
48.50000000000034
 30
0.0
 11
51.79999999999998
 21
63.50000000000034
 31
0.0
  0
LINE
  5
6404
330
1F
100
AcDbEntity
  8
0
  6
Continuous
 62
     7
 48
0.5
370
    -3
100
AcDbLine
 10
50.30499646059482
 20
49.10000000000036
 30
0.0
 11
50.30499646059482
 21
62.90000000000032
 31
0.0
  0
ARC
  5
6405
330
1F
100
AcDbEntity
  8
0
  6
Continuous
 62
     7
 48
0.5
370
    -3
100
AcDbCircle
 10
50.90499646059479
 20
49.10000000000036
 30
0.0
 40
0.6
100
AcDbArc
 50
180.0
 51
270.0000000000033
  0
LINE
  5
6406
330
1F
100
AcDbEntity
  8
0
  6
Continuous
 62
     7
 48
0.5
370
    -3
100
AcDbLine
 10
64.50000000000002
 20
62.90000000000032
 30
0.0
 11
64.50000000000002
 21
53.50000000000034
 31
0.0
  0
LINE
  5
6407
330
1F
100
AcDbEntity
  8
0
  6
Continuous
 62
     7
 48
0.5
370
    -3
100
AcDbLine
 10
63.90000000000001
 20
63.50000000000034
 30
0.0
 11
50.90499646059484
 21
63.50000000000034
 31
0.0
  0
ARC
  5
6408
330
1F
100
AcDbEntity
  8
0
  6
Continuous
 62
     7
 48
0.5
370
    -3
100
AcDbCircle
 10
50.90499646059484
 20
62.90000000000032
 30
0.0
 40
0.6
100
AcDbArc
 50
90.0
 51
180.0
  0
ARC
  5
6409
330
1F
100
AcDbEntity
  8
0
  6
Continuous
 62
     7
 48
0.5
370
    -3
100
AcDbCircle
 10
63.90000000000001
 20
62.90000000000032
 30
0.0
 40
0.6
100
AcDbArc
 50
0.0
 51
90.0
  0
LINE
  5
640A
330
1F
100
AcDbEntity
  8
0
  6
Continuous
 62
     7
 48
0.5
370
    -3
100
AcDbLine
 10
52.62406996726887
 20
48.50000000000034
 30
0.0
 11
50.90499646059484
 21
48.50000000000034
 31
0.0
  0
LINE
  5
640B
330
1F
100
AcDbEntity
  8
0
  6
Continuous
 62
     7
 48
0.5
370
    -3
100
AcDbLine
 10
51.50000000000003
 20
48.50000000000034
 30
0.0
 11
51.50000000000002
 21
45.50000000000034
 31
0.0
  0
LINE
  5
640C
330
1F
100
AcDbEntity
  8
0
  6
Continuous
 62
     7
 48
0.5
370
    -3
100
AcDbLine
 10
52.62406996726887
 20
48.50000000000034
 30
0.0
 11
52.62406996726885
 21
45.50000000000034
 31
0.0
  0
LINE
  5
640D
330
1F
100
AcDbEntity
  8
0
  6
Continuous
 62
     7
 48
0.5
370
    -3
100
AcDbLine
 10
51.49999999999995
 20
45.50000000000034
 30
0.0
 11
51.49999999999995
 21
44.00000000000034
 31
0.0
  0
ARC
  5
640E
330
1F
100
AcDbEntity
  8
0
  6
Continuous
 62
     7
 48
0.5
370
    -3
100
AcDbCircle
 10
52.49999999999996
 20
44.00000000000034
 30
0.0
 40
1.0
100
AcDbArc
 50
180.0
 51
270.0
  0
LINE
  5
6487
330
1F
100
AcDbEntity
  8
0
  6
CENTER2
 62
     2
 48
0.5
370
    -3
100
AcDbLine
 10
150.0
 20
0.0000000000003348
 30
0.0
 11
150.0
 21
46.00000000000033
 31
0.0
  0
LINE
  5
6488
330
1F
100
AcDbEntity
  8
0
  6
Continuous
 62
     7
 48
0.5
370
    -3
100
AcDbLine
 10
120.0
 20
7.000000000000334
 30
0.0
 11
120.0
 21
42.00000000000033
 31
0.0
  0
LINE
  5
6489
330
1F
100
AcDbEntity
  8
0
  6
Continuous
 62
     7
 48
0.5
370
    -3
100
AcDbLine
 10
176.0000000000001
 20
3.000000000000334
 30
0.0
 11
124.0
 21
3.000000000000334
 31
0.0
  0
ARC
  5
648A
330
1F
100
AcDbEntity
  8
0
  6
Continuous
 62
     7
 48
0.5
370
    -3
100
AcDbCircle
 10
124.0
 20
7.000000000000334
 30
0.0
 40
4.0
100
AcDbArc
 50
180.0
 51
270.0
  0
LINE
  5
648B
330
1F
100
AcDbEntity
  8
0
  6
Continuous
 62
     7
 48
0.5
370
    -3
100
AcDbLine
 10
178.0000000000001
 20
43.00000000000033
 30
0.0
 11
122.0
 21
43.00000000000033
 31
0.0
  0
LINE
  5
648E
330
1F
100
AcDbEntity
  8
0
  6
Continuous
 62
     7
 48
0.5
370
    -3
100
AcDbLine
 10
120.0
 20
42.00000000000033
 30
0.0
 11
122.0
 21
43.00000000000033
 31
0.0
  0
LINE
  5
6498
330
1F
100
AcDbEntity
  8
0
  6
CENTER2
 62
     2
 48
0.5
370
    -3
100
AcDbLine
 10
150.0
 20
76.50000000000045
 30
0.0
 11
150.0
 21
50.00000000000045
 31
0.0
  0
LINE
  5
6499
330
1F
100
AcDbEntity
  8
0
  6
Continuous
 62
     7
 48
0.5
370
    -3
100
AcDbLine
 10
164.0
 20
63.50000000000044
 30
0.0
 11
135.9999999999999
 21
63.50000000000044
 31
0.0
  0
LINE
  5
649A
330
1F
100
AcDbEntity
  8
0
  6
Continuous
 62
     7
 48
0.5
370
    -3
100
AcDbLine
 10
119.9999999999999
 20
55.50000000000045
 30
0.0
 11
180.0
 21
55.50000000000045
 31
0.0
  0
LINE
  5
649B
330
1F
100
AcDbEntity
  8
0
  6
Continuous
 62
     7
 48
0.5
370
    -3
100
AcDbLine
 10
120.9999999999999
 20
53.00000000000045
 30
0.0
 11
179.0
 21
53.00000000000045
 31
0.0
  0
ARC
  5
649C
330
1F
100
AcDbEntity
  8
0
  6
Continuous
 62
     7
 48
0.5
370
    -3
100
AcDbCircle
 10
179.0
 20
54.00000000000044
 30
0.0
 40
1.0
100
AcDbArc
 50
270.0
 51
0.0
  0
LINE
  5
649D
330
1F
100
AcDbEntity
  8
0
  6
Continuous
 62
     7
 48
0.5
370
    -3
100
AcDbLine
 10
178.0
 20
54.00000000000044
 30
0.0
 11
178.0
 21
55.50000000000045
 31
0.0
  0
LINE
  5
649E
330
1F
100
AcDbEntity
  8
0
  6
Continuous
 62
     7
 48
0.5
370
    -3
100
AcDbLine
 10
180.0
 20
55.50000000000045
 30
0.0
 11
180.0
 21
54.00000000000044
 31
0.0
  0
LINE
  5
649F
330
1F
100
AcDbEntity
  8
0
  6
Continuous
 62
     7
 48
0.5
370
    -3
100
AcDbLine
 10
165.0
 20
55.50000000000045
 30
0.0
 11
165.0
 21
62.50000000000045
 31
0.0
  0
ARC
  5
64A0
330
1F
100
AcDbEntity
  8
0
  6
Continuous
 62
     7
 48
0.5
370
    -3
100
AcDbCircle
 10
164.0
 20
62.50000000000045
 30
0.0
 40
1.0
100
AcDbArc
 50
0.0
 51
90.0
  0
ARC
  5
64A1
330
1F
100
AcDbEntity
  8
0
  6
Continuous
 62
     7
 48
0.5
370
    -3
100
AcDbCircle
 10
177.0
 20
54.00000000000044
 30
0.0
 40
1.0
100
AcDbArc
 50
270.0
 51
0.0
  0
LINE
  5
64A2
330
1F
100
AcDbEntity
  8
0
  6
Continuous
 62
     7
 48
0.5
370
    -3
100
AcDbLine
 10
173.4954031575305
 20
58.50000000000044
 30
0.0
 11
178.2444622270616
 21
58.50000000000044
 31
0.0
  0
LINE
  5
64A3
330
1F
100
AcDbEntity
  8
0
  6
Continuous
 62
     7
 48
0.5
370
    -3
100
AcDbLine
 10
162.2499999999999
 20
73.50000000000068
 30
0.0
 11
178.2444622270616
 21
73.50000000000045
 31
0.0
  0
ARC
  5
64A4
330
1F
100
AcDbEntity
  8
0
  6
Continuous
 62
     7
 48
0.5
370
    -3
100
AcDbCircle
 10
162.2499999999999
 20
72.75000000000045
 30
0.0
 40
0.7499999999999997
100
AcDbArc
 50
90.0
 51
180.0
  0
LINE
  5
64A5
330
1F
100
AcDbEntity
  8
0
  6
Continuous
 62
     7
 48
0.5
370
    -3
100
AcDbLine
 10
178.9944622270616
 20
72.75000000000045
 30
0.0
 11
178.9944622270616
 21
59.25000000000045
 31
0.0
  0
ARC
  5
64A6
330
1F
100
AcDbEntity
  8
0
  6
Continuous
 62
     7
 48
0.5
370
    -3
100
AcDbCircle
 10
178.2444622270616
 20
59.25000000000045
 30
0.0
 40
0.7499999999999997
100
AcDbArc
 50
270.0
 51
0.0
  0
ARC
  5
64A7
330
1F
100
AcDbEntity
  8
0
  6
Continuous
 62
     7
 48
0.5
370
    -3
100
AcDbCircle
 10
178.2444622270616
 20
72.75000000000045
 30
0.0
 40
0.7499999999999997
100
AcDbArc
 50
0.0
 51
90.0
  0
LINE
  5
64A8
330
1F
100
AcDbEntity
  8
0
  6
Continuous
 62
     7
 48
0.5
370
    -3
100
AcDbLine
 10
177.2499999999999
 20
73.50000000000045
 30
0.0
 11
177.2499999999998
 21
58.50000000000044
 31
0.0
  0
LINE
  5
64A9
330
1F
100
AcDbEntity
  8
0
  6
Continuous
 62
     7
 48
0.5
370
    -3
100
AcDbLine
 10
175.9999999999999
 20
58.50000000000044
 30
0.0
 11
175.9999999999999
 21
55.50000000000045
 31
0.0
  0
LINE
  5
64AA
330
1F
100
AcDbEntity
  8
0
  6
Continuous
 62
     7
 48
0.5
370
    -3
100
AcDbLine
 10
173.4954031575305
 20
58.50000000000044
 30
0.0
 11
173.4954031575305
 21
55.50000000000045
 31
0.0
  0
LINE
  5
64AB
330
1F
100
AcDbEntity
  8
0
  6
Continuous
 62
     7
 48
0.5
370
    -3
100
AcDbLine
 10
161.4999999999999
 20
72.75000000000045
 30
0.0
 11
161.4999999999999
 21
63.50000000000044
 31
0.0
  0
LINE
  5
64B0
330
1F
100
AcDbEntity
  8
0
  6
Continuous
 62
     7
 48
0.5
370
    -3
100
AcDbLine
 10
180.0000000000001
 20
7.000000000000334
 30
0.0
 11
180.0000000000001
 21
42.00000000000033
 31
0.0
  0
ARC
  5
64B1
330
1F
100
AcDbEntity
  8
0
  6
Continuous
 62
     7
 48
0.5
370
    -3
100
AcDbCircle
 10
176.0000000000001
 20
7.000000000000334
 30
0.0
 40
4.0
100
AcDbArc
 50
270.0
 51
0.0
  0
LINE
  5
64B2
330
1F
100
AcDbEntity
  8
0
  6
Continuous
 62
     7
 48
0.5
370
    -3
100
AcDbLine
 10
180.0000000000001
 20
42.00000000000033
 30
0.0
 11
178.0000000000001
 21
43.00000000000033
 31
0.0
  0
ARC
  5
64BC
330
1F
100
AcDbEntity
  8
0
  6
Continuous
 62
     7
 48
0.5
370
    -3
100
AcDbCircle
 10
120.9999999999999
 20
54.00000000000044
 30
0.0
 40
1.0
100
AcDbArc
 50
180.0
 51
270.0
  0
LINE
  5
64BD
330
1F
100
AcDbEntity
  8
0
  6
Continuous
 62
     7
 48
0.5
370
    -3
100
AcDbLine
 10
121.9999999999999
 20
54.00000000000044
 30
0.0
 11
121.9999999999999
 21
55.50000000000045
 31
0.0
  0
LINE
  5
64BE
330
1F
100
AcDbEntity
  8
0
  6
Continuous
 62
     7
 48
0.5
370
    -3
100
AcDbLine
 10
119.9999999999999
 20
55.50000000000045
 30
0.0
 11
119.9999999999999
 21
54.00000000000044
 31
0.0
  0
LINE
  5
64BF
330
1F
100
AcDbEntity
  8
0
  6
Continuous
 62
     7
 48
0.5
370
    -3
100
AcDbLine
 10
134.9999999999999
 20
55.50000000000045
 30
0.0
 11
134.9999999999999
 21
62.50000000000045
 31
0.0
  0
ARC
  5
64C0
330
1F
100
AcDbEntity
  8
0
  6
Continuous
 62
     7
 48
0.5
370
    -3
100
AcDbCircle
 10
135.9999999999999
 20
62.50000000000045
 30
0.0
 40
1.0
100
AcDbArc
 50
90.0
 51
180.0
  0
ARC
  5
64C1
330
1F
100
AcDbEntity
  8
0
  6
Continuous
 62
     7
 48
0.5
370
    -3
100
AcDbCircle
 10
122.9999999999999
 20
54.00000000000044
 30
0.0
 40
1.0
100
AcDbArc
 50
180.0
 51
270.0
  0
LINE
  5
64C2
330
1F
100
AcDbEntity
  8
0
  6
Continuous
 62
     7
 48
0.5
370
    -3
100
AcDbLine
 10
126.5045968424695
 20
58.50000000000044
 30
0.0
 11
121.7555377729384
 21
58.50000000000044
 31
0.0
  0
LINE
  5
64C3
330
1F
100
AcDbEntity
  8
0
  6
Continuous
 62
     7
 48
0.5
370
    -3
100
AcDbLine
 10
137.7500000000001
 20
73.50000000000068
 30
0.0
 11
121.7555377729383
 21
73.50000000000045
 31
0.0
  0
ARC
  5
64C4
330
1F
100
AcDbEntity
  8
0
  6
Continuous
 62
     7
 48
0.5
370
    -3
100
AcDbCircle
 10
137.7500000000001
 20
72.75000000000045
 30
0.0
 40
0.7499999999999997
100
AcDbArc
 50
0.0
 51
90.0
  0
LINE
  5
64C5
330
1F
100
AcDbEntity
  8
0
  6
Continuous
 62
     7
 48
0.5
370
    -3
100
AcDbLine
 10
121.0055377729383
 20
72.75000000000045
 30
0.0
 11
121.0055377729384
 21
59.25000000000045
 31
0.0
  0
ARC
  5
64C6
330
1F
100
AcDbEntity
  8
0
  6
Continuous
 62
     7
 48
0.5
370
    -3
100
AcDbCircle
 10
121.7555377729384
 20
59.25000000000045
 30
0.0
 40
0.7499999999999997
100
AcDbArc
 50
180.0
 51
270.0
  0
ARC
  5
64C7
330
1F
100
AcDbEntity
  8
0
  6
Continuous
 62
     7
 48
0.5
370
    -3
100
AcDbCircle
 10
121.7555377729383
 20
72.75000000000045
 30
0.0
 40
0.7499999999999997
100
AcDbArc
 50
90.0
 51
180.0
  0
LINE
  5
64C8
330
1F
100
AcDbEntity
  8
0
  6
Continuous
 62
     7
 48
0.5
370
    -3
100
AcDbLine
 10
122.7500000000001
 20
73.50000000000045
 30
0.0
 11
122.7500000000002
 21
58.50000000000044
 31
0.0
  0
LINE
  5
64C9
330
1F
100
AcDbEntity
  8
0
  6
Continuous
 62
     7
 48
0.5
370
    -3
100
AcDbLine
 10
124.0000000000001
 20
58.50000000000044
 30
0.0
 11
124.0000000000001
 21
55.50000000000045
 31
0.0
  0
LINE
  5
64CA
330
1F
100
AcDbEntity
  8
0
  6
Continuous
 62
     7
 48
0.5
370
    -3
100
AcDbLine
 10
126.5045968424695
 20
58.50000000000044
 30
0.0
 11
126.5045968424695
 21
55.50000000000045
 31
0.0
  0
LINE
  5
64CB
330
1F
100
AcDbEntity
  8
0
  6
Continuous
 62
     7
 48
0.5
370
    -3
100
AcDbLine
 10
138.5000000000001
 20
72.75000000000045
 30
0.0
 11
138.5000000000001
 21
63.50000000000044
 31
0.0
  0
MTEXT
  5
64CF
330
1F
100
AcDbEntity
  8
0
  6
Continuous
 62
     1
 48
0.5
370
    -3
100
AcDbMText
 10
70.0
 20
-5.000000000000007
 30
0.0
 40
2.5
 41
32.05805302350382
 46
0.0
 71
     2
 72
     5
  1
1号
 73
     1
 44
1.0
1001
ACAD
1000
ACAD_MTEXT_COLUMN_INFO_BEGIN
1070
    75
1070
     2
1070
    79
1070
     0
1070
    76
1070
     1
1070
    78
1070
     0
1070
    48
1040
32.05805302350382
1070
    49
1040
12.5
1070
    50
1070
     1
1040
0.0
1000
ACAD_MTEXT_COLUMN_INFO_END
  0
MTEXT
  5
64D0
330
1F
100
AcDbEntity
  8
0
  6
Continuous
 62
     1
 48
0.5
370
    -3
100
AcDbMText
 10
70.0
 20
-13.0
 30
0.0
 40
2.5
 41
32.05805302350382
 46
0.0
 71
     2
 72
     5
  1
KMDE1□
 73
     1
 44
1.0
1001
ACAD
1000
ACAD_MTEXT_COLUMN_INFO_BEGIN
1070
    75
1070
     2
1070
    79
1070
     0
1070
    76
1070
     1
1070
    78
1070
     0
1070
    48
1040
32.05805302350382
1070
    49
1040
12.5
1070
    50
1070
     1
1040
0.0
1000
ACAD_MTEXT_COLUMN_INFO_END
  0
MTEXT
  5
64D1
330
1F
100
AcDbEntity
  8
0
  6
Continuous
 62
     1
 48
0.5
370
    -3
100
AcDbMText
 10
150.0
 20
-5.000000000000006
 30
0.0
 40
2.5
 41
32.05805302350382
 46
0.0
 71
     2
 72
     5
  1
2号
 73
     1
 44
1.0
1001
ACAD
1000
ACAD_MTEXT_COLUMN_INFO_BEGIN
1070
    75
1070
     2
1070
    79
1070
     0
1070
    76
1070
     1
1070
    78
1070
     0
1070
    48
1040
32.05805302350382
1070
    49
1040
12.5
1070
    50
1070
     1
1040
0.0
1000
ACAD_MTEXT_COLUMN_INFO_END
  0
MTEXT
  5
64D2
330
1F
100
AcDbEntity
  8
0
  6
Continuous
 62
     1
 48
0.5
370
    -3
100
AcDbMText
 10
150.0
 20
-13.0
 30
0.0
 40
2.5
 41
32.05805302350382
 46
0.0
 71
     2
 72
     5
  1
KMDE2□
 73
     1
 44
1.0
1001
ACAD
1000
ACAD_MTEXT_COLUMN_INFO_BEGIN
1070
    75
1070
     2
1070
    79
1070
     0
1070
    76
1070
     1
1070
    78
1070
     0
1070
    48
1040
32.05805302350382
1070
    49
1040
12.5
1070
    50
1070
     1
1040
0.0
1000
ACAD_MTEXT_COLUMN_INFO_END
  0
LINE
  5
650D
330
1F
100
AcDbEntity
  8
0
  6
Continuous
 62
     7
 48
0.5
370
    -3
100
AcDbLine
 10
285.0000000000001
 20
63.00000000000039
 30
0.0
 11
215.0000000000002
 21
63.00000000000038
 31
0.0
  0
LINE
  5
650F
330
1F
100
AcDbEntity
  8
0
  6
Continuous
 62
     7
 48
0.5
370
    -3
100
AcDbLine
 10
210.0000000000002
 20
61.60000000000029
 30
0.0
 11
210.0000000000002
 21
8.800000000000281
 31
0.0
  0
LINE
  5
6510
330
1F
100
AcDbEntity
  8
0
  6
Continuous
 62
     7
 48
0.5
370
    -3
100
AcDbLine
 10
215.8000000000001
 20
3.000000000000326
 30
0.0
 11
284.2000000000002
 21
3.000000000000326
 31
0.0
  0
ARC
  5
6511
330
1F
100
AcDbEntity
  8
0
  6
Continuous
 62
     7
 48
0.5
370
    -3
100
AcDbCircle
 10
215.8000000000001
 20
8.800000000000281
 30
0.0
 40
5.799999999999999
100
AcDbArc
 50
180.0
 51
270.0
  0
LINE
  5
6512
330
1F
100
AcDbEntity
  8
0
  6
Continuous
 62
     7
 48
0.5
370
    -3
100
AcDbLine
 10
215.0000000000002
 20
63.00000000000038
 30
0.0
 11
210.0000000000002
 21
61.60000000000029
 31
0.0
  0
LINE
  5
6513
330
1F
100
AcDbEntity
  8
0
  6
CENTER2
 62
     2
 48
0.5
370
    -3
100
AcDbLine
 10
250.0000000000002
 20
66.0000000000004
 30
0.0
 11
250.0000000000002
 21
0.0000000000003268
 31
0.0
  0
LINE
  5
651D
330
1F
100
AcDbEntity
  8
0
  6
Continuous
 62
     7
 48
0.5
370
    -3
100
AcDbLine
 10
290.0000000000002
 20
76.00000000000036
 30
0.0
 11
290.0000000000002
 21
74.50000000000037
 31
0.0
  0
ARC
  5
651E
330
1F
100
AcDbEntity
  8
0
  6
Continuous
 62
     7
 48
0.5
370
    -3
100
AcDbCircle
 10
288.5000000000001
 20
74.50000000000037
 30
0.0
 40
1.5
100
AcDbArc
 50
270.0
 51
0.0
  0
LINE
  5
651F
330
1F
100
AcDbEntity
  8
0
  6
Continuous
 62
     7
 48
0.5
370
    -3
100
AcDbLine
 10
285.0000000000002
 20
76.00000000000036
 30
0.0
 11
285.0000000000002
 21
74.50000000000037
 31
0.0
  0
ARC
  5
6520
330
1F
100
AcDbEntity
  8
0
  6
Continuous
 62
     7
 48
0.5
370
    -3
100
AcDbCircle
 10
283.5000000000002
 20
74.50000000000037
 30
0.0
 40
1.5
100
AcDbArc
 50
270.0
 51
0.0
  0
LINE
  5
6521
330
1F
100
AcDbEntity
  8
0
  6
Continuous
 62
     7
 48
0.5
370
    -3
100
AcDbLine
 10
288.5000000000001
 20
73.00000000000037
 30
0.0
 11
211.5000000000001
 21
73.00000000000039
 31
0.0
  0
LINE
  5
6522
330
1F
100
AcDbEntity
  8
0
  6
Continuous
 62
     7
 48
0.5
370
    -3
100
AcDbLine
 10
288.9459654803319
 20
101.0000000000004
 30
0.0
 11
263.9000000000002
 21
101.0000000000004
 31
0.0
  0
ARC
  5
6523
330
1F
100
AcDbEntity
  8
0
  6
Continuous
 62
     7
 48
0.5
370
    -3
100
AcDbCircle
 10
288.9459654803319
 20
100.1000000000002
 30
0.0
 40
0.9
100
AcDbArc
 50
0.0
 51
90.0
  0
LINE
  5
6524
330
1F
100
AcDbEntity
  8
0
  6
Continuous
 62
     7
 48
0.5
370
    -3
100
AcDbLine
 10
290.0000000000002
 20
76.00000000000036
 30
0.0
 11
210.0000000000002
 21
76.0000000000004
 31
0.0
  0
LINE
  5
6525
330
1F
100
AcDbEntity
  8
0
  6
Continuous
 62
     7
 48
0.5
370
    -3
100
AcDbLine
 10
266.0000000000002
 20
78.50000000000038
 30
0.0
 11
234.0000000000002
 21
78.50000000000038
 31
0.0
  0
ARC
  5
6526
330
1F
100
AcDbEntity
  8
0
  6
Continuous
 62
     7
 48
0.5
370
    -3
100
AcDbCircle
 10
266.0000000000002
 20
77.50000000000037
 30
0.0
 40
1.0
100
AcDbArc
 50
0.0
 51
90.0
  0
LINE
  5
6527
330
1F
100
AcDbEntity
  8
0
  6
Continuous
 62
     7
 48
0.5
370
    -3
100
AcDbLine
 10
288.9459654803319
 20
81.00000000000036
 30
0.0
 11
283.3445428606426
 21
81.00000000000036
 31
0.0
  0
LINE
  5
6528
330
1F
100
AcDbEntity
  8
0
  6
Continuous
 62
     7
 48
0.5
370
    -3
100
AcDbLine
 10
283.3445428606426
 20
81.00000000000036
 30
0.0
 11
283.3445428606426
 21
76.00000000000036
 31
0.0
  0
LINE
  5
6529
330
1F
100
AcDbEntity
  8
0
  6
Continuous
 62
     7
 48
0.5
370
    -3
100
AcDbLine
 10
286.5874764314185
 20
81.00000000000036
 30
0.0
 11
286.5874764314185
 21
76.00000000000036
 31
0.0
  0
LINE
  5
652A
330
1F
100
AcDbEntity
  8
0
  6
Continuous
 62
     7
 48
0.5
370
    -3
100
AcDbLine
 10
289.845965480332
 20
100.1000000000002
 30
0.0
 11
289.845965480332
 21
81.90000000000024
 31
0.0
  0
ARC
  5
652B
330
1F
100
AcDbEntity
  8
0
  6
Continuous
 62
     7
 48
0.5
370
    -3
100
AcDbCircle
 10
288.9459654803319
 20
81.90000000000024
 30
0.0
 40
0.9
100
AcDbArc
 50
270.0
 51
0.0
  0
LINE
  5
652C
330
1F
100
AcDbEntity
  8
0
  6
Continuous
 62
     7
 48
0.5
370
    -3
100
AcDbLine
 10
287.2000000000002
 20
101.0000000000004
 30
0.0
 11
287.2000000000002
 21
81.00000000000036
 31
0.0
  0
LINE
  5
652D
330
1F
100
AcDbEntity
  8
0
  6
Continuous
 62
     7
 48
0.5
370
    -3
100
AcDbLine
 10
263.0000000000002
 20
100.1000000000003
 30
0.0
 11
263.0000000000002
 21
78.5000000000004
 31
0.0
  0
ARC
  5
652E
330
1F
100
AcDbEntity
  8
0
  6
Continuous
 62
     7
 48
0.5
370
    -3
100
AcDbCircle
 10
263.9000000000002
 20
100.1000000000003
 30
0.0
 40
0.9
100
AcDbArc
 50
90.0
 51
180.0
  0
LINE
  5
652F
330
1F
100
AcDbEntity
  8
0
  6
CENTER2
 62
     2
 48
0.5
370
    -3
100
AcDbLine
 10
250.0000000000002
 20
70.00000000000039
 30
0.0
 11
250.0000000000002
 21
104.0000000000004
 31
0.0
  0
LINE
  5
6530
330
1F
100
AcDbEntity
  8
0
  6
Continuous
 62
     7
 48
0.5
370
    -3
100
AcDbLine
 10
267.0000000000002
 20
76.00000000000036
 30
0.0
 11
267.0000000000002
 21
77.50000000000037
 31
0.0
  0
LINE
  5
6544
330
1F
100
AcDbEntity
  8
0
  6
Continuous
 62
     7
 48
0.5
370
    -3
100
AcDbLine
 10
290.0000000000002
 20
61.60000000000029
 30
0.0
 11
290.0000000000002
 21
8.800000000000281
 31
0.0
  0
ARC
  5
6545
330
1F
100
AcDbEntity
  8
0
  6
Continuous
 62
     7
 48
0.5
370
    -3
100
AcDbCircle
 10
284.2000000000002
 20
8.800000000000281
 30
0.0
 40
5.799999999999999
100
AcDbArc
 50
270.0
 51
0.0
  0
LINE
  5
6546
330
1F
100
AcDbEntity
  8
0
  6
Continuous
 62
     7
 48
0.5
370
    -3
100
AcDbLine
 10
285.0000000000002
 20
63.00000000000038
 30
0.0
 11
290.0000000000002
 21
61.60000000000029
 31
0.0
  0
LINE
  5
6550
330
1F
100
AcDbEntity
  8
0
  6
Continuous
 62
     7
 48
0.5
370
    -3
100
AcDbLine
 10
210.0000000000002
 20
76.0000000000004
 30
0.0
 11
210.0000000000002
 21
74.5000000000004
 31
0.0
  0
ARC
  5
6551
330
1F
100
AcDbEntity
  8
0
  6
Continuous
 62
     7
 48
0.5
370
    -3
100
AcDbCircle
 10
211.5000000000001
 20
74.5000000000004
 30
0.0
 40
1.5
100
AcDbArc
 50
180.0
 51
270.0
  0
LINE
  5
6552
330
1F
100
AcDbEntity
  8
0
  6
Continuous
 62
     7
 48
0.5
370
    -3
100
AcDbLine
 10
215.0000000000002
 20
76.0000000000004
 30
0.0
 11
215.0000000000002
 21
74.5000000000004
 31
0.0
  0
ARC
  5
6553
330
1F
100
AcDbEntity
  8
0
  6
Continuous
 62
     7
 48
0.5
370
    -3
100
AcDbCircle
 10
216.5000000000002
 20
74.5000000000004
 30
0.0
 40
1.5
100
AcDbArc
 50
180.0
 51
270.0
  0
LINE
  5
6554
330
1F
100
AcDbEntity
  8
0
  6
Continuous
 62
     7
 48
0.5
370
    -3
100
AcDbLine
 10
211.0540345196684
 20
101.0000000000004
 30
0.0
 11
236.1000000000001
 21
101.0000000000004
 31
0.0
  0
ARC
  5
6555
330
1F
100
AcDbEntity
  8
0
  6
Continuous
 62
     7
 48
0.5
370
    -3
100
AcDbCircle
 10
211.0540345196684
 20
100.1000000000003
 30
0.0
 40
0.9
100
AcDbArc
 50
90.0
 51
180.0
  0
ARC
  5
6556
330
1F
100
AcDbEntity
  8
0
  6
Continuous
 62
     7
 48
0.5
370
    -3
100
AcDbCircle
 10
234.0000000000002
 20
77.50000000000039
 30
0.0
 40
1.0
100
AcDbArc
 50
90.0
 51
180.0
  0
LINE
  5
6557
330
1F
100
AcDbEntity
  8
0
  6
Continuous
 62
     7
 48
0.5
370
    -3
100
AcDbLine
 10
211.0540345196684
 20
81.0000000000004
 30
0.0
 11
216.6554571393578
 21
81.0000000000004
 31
0.0
  0
LINE
  5
6558
330
1F
100
AcDbEntity
  8
0
  6
Continuous
 62
     7
 48
0.5
370
    -3
100
AcDbLine
 10
216.6554571393578
 20
81.0000000000004
 30
0.0
 11
216.6554571393578
 21
76.0000000000004
 31
0.0
  0
LINE
  5
6559
330
1F
100
AcDbEntity
  8
0
  6
Continuous
 62
     7
 48
0.5
370
    -3
100
AcDbLine
 10
213.4125235685819
 20
81.0000000000004
 30
0.0
 11
213.4125235685819
 21
76.0000000000004
 31
0.0
  0
LINE
  5
655A
330
1F
100
AcDbEntity
  8
0
  6
Continuous
 62
     7
 48
0.5
370
    -3
100
AcDbLine
 10
210.1540345196683
 20
100.1000000000003
 30
0.0
 11
210.1540345196683
 21
81.90000000000026
 31
0.0
  0
ARC
  5
655B
330
1F
100
AcDbEntity
  8
0
  6
Continuous
 62
     7
 48
0.5
370
    -3
100
AcDbCircle
 10
211.0540345196684
 20
81.90000000000026
 30
0.0
 40
0.9
100
AcDbArc
 50
180.0
 51
270.0
  0
LINE
  5
655C
330
1F
100
AcDbEntity
  8
0
  6
Continuous
 62
     7
 48
0.5
370
    -3
100
AcDbLine
 10
212.8000000000001
 20
101.0000000000004
 30
0.0
 11
212.8000000000001
 21
81.0000000000004
 31
0.0
  0
LINE
  5
655D
330
1F
100
AcDbEntity
  8
0
  6
Continuous
 62
     7
 48
0.5
370
    -3
100
AcDbLine
 10
237.0000000000002
 20
100.1000000000003
 30
0.0
 11
237.0000000000002
 21
78.5000000000004
 31
0.0
  0
ARC
  5
655E
330
1F
100
AcDbEntity
  8
0
  6
Continuous
 62
     7
 48
0.5
370
    -3
100
AcDbCircle
 10
236.1000000000001
 20
100.1000000000003
 30
0.0
 40
0.9
100
AcDbArc
 50
0.0
 51
90.0
  0
LINE
  5
655F
330
1F
100
AcDbEntity
  8
0
  6
Continuous
 62
     7
 48
0.5
370
    -3
100
AcDbLine
 10
233.0000000000002
 20
76.0000000000004
 30
0.0
 11
233.0000000000002
 21
77.50000000000039
 31
0.0
  0
MTEXT
  5
6563
330
1F
100
AcDbEntity
  8
0
  6
Continuous
 62
     1
 48
0.5
370
    -3
100
AcDbMText
 10
250.0000000000002
 20
-5.000000000000014
 30
0.0
 40
2.5
 41
32.05805302350382
 46
0.0
 71
     2
 72
     5
  1
3号
 73
     1
 44
1.0
1001
ACAD
1000
ACAD_MTEXT_COLUMN_INFO_BEGIN
1070
    75
1070
     2
1070
    79
1070
     0
1070
    76
1070
     1
1070
    78
1070
     0
1070
    48
1040
32.05805302350382
1070
    49
1040
12.5
1070
    50
1070
     1
1040
0.0
1000
ACAD_MTEXT_COLUMN_INFO_END
  0
MTEXT
  5
6564
330
1F
100
AcDbEntity
  8
0
  6
Continuous
 62
     1
 48
0.5
370
    -3
100
AcDbMText
 10
250.0000000000002
 20
-13.00000000000001
 30
0.0
 40
2.5
 41
32.05805302350382
 46
0.0
 71
     2
 72
     5
  1
KMDE3□
 73
     1
 44
1.0
1001
ACAD
1000
ACAD_MTEXT_COLUMN_INFO_BEGIN
1070
    75
1070
     2
1070
    79
1070
     0
1070
    76
1070
     1
1070
    78
1070
     0
1070
    48
1040
32.05805302350382
1070
    49
1040
12.5
1070
    50
1070
     1
1040
0.0
1000
ACAD_MTEXT_COLUMN_INFO_END
  0
MTEXT
  5
65F6
330
1F
100
AcDbEntity
  8
0
  6
Continuous
 62
     1
 48
0.5
370
    -3
100
AcDbMText
 10
360.0000000000002
 20
-5.000000000000007
 30
0.0
 40
2.5
 41
32.05805302350382
 46
0.0
 71
     2
 72
     5
  1
3号40型
 73
     1
 44
1.0
1001
ACAD
1000
ACAD_MTEXT_COLUMN_INFO_BEGIN
1070
    75
1070
     2
1070
    79
1070
     0
1070
    76
1070
     1
1070
    78
1070
     0
1070
    48
1040
32.05805302350382
1070
    49
1040
12.5
1070
    50
1070
     1
1040
0.0
1000
ACAD_MTEXT_COLUMN_INFO_END
  0
MTEXT
  5
65F7
330
1F
100
AcDbEntity
  8
0
  6
Continuous
 62
     1
 48
0.5
370
    -3
100
AcDbMText
 10
360.0000000000002
 20
-13.0
 30
0.0
 40
2.5
 41
32.05805302350382
 46
0.0
 71
     2
 72
     5
  1
KMDE340□
 73
     1
 44
1.0
1001
ACAD
1000
ACAD_MTEXT_COLUMN_INFO_BEGIN
1070
    75
1070
     2
1070
    79
1070
     0
1070
    76
1070
     1
1070
    78
1070
     0
1070
    48
1040
32.05805302350382
1070
    49
1040
12.5
1070
    50
1070
     1
1040
0.0
1000
ACAD_MTEXT_COLUMN_INFO_END
  0
LINE
  5
66C6
330
1F
100
AcDbEntity
  8
0
  6
CENTER2
 62
     2
 48
0.5
370
    -3
100
AcDbLine
 10
480.0000000000001
 20
0.000000000000334
 30
0.0
 11
480.0000000000001
 21
86.00000000000035
 31
0.0
  0
LINE
  5
66CA
330
1F
100
AcDbEntity
  8
0
  6
Continuous
 62
     7
 48
0.5
370
    -3
100
AcDbLine
 10
430.0000000000001
 20
9.000000000000333
 30
0.0
 11
430.0000000000001
 21
81.60000000000037
 31
0.0
  0
LINE
  5
66CB
330
1F
100
AcDbEntity
  8
0
  6
Continuous
 62
     7
 48
0.5
370
    -3
100
AcDbLine
 10
524.0000000000001
 20
3.000000000000333
 30
0.0
 11
436.0000000000002
 21
3.000000000000333
 31
0.0
  0
ARC
  5
66CC
330
1F
100
AcDbEntity
  8
0
  6
Continuous
 62
     7
 48
0.5
370
    -3
100
AcDbCircle
 10
436.0000000000002
 20
9.000000000000333
 30
0.0
 40
6.0
100
AcDbArc
 50
180.0
 51
270.0
  0
LINE
  5
66CD
330
1F
100
AcDbEntity
  8
0
  6
Continuous
 62
     7
 48
0.5
370
    -3
100
AcDbLine
 10
525.0000000000002
 20
83.00000000000034
 30
0.0
 11
435.0000000000001
 21
83.00000000000034
 31
0.0
  0
LINE
  5
66CE
330
1F
100
AcDbEntity
  8
0
  6
Continuous
 62
     7
 48
0.5
370
    -3
100
AcDbLine
 10
430.0000000000001
 20
81.60000000000037
 30
0.0
 11
435.0000000000001
 21
83.00000000000034
 31
0.0
  0
LINE
  5
66DA
330
1F
100
AcDbEntity
  8
0
  6
CENTER2
 62
     2
 48
0.5
370
    -3
100
AcDbLine
 10
480.0000000000001
 20
129.0000000000003
 30
0.0
 11
480.0000000000001
 21
90.00000000000033
 31
0.0
  0
LINE
  5
66DB
330
1F
100
AcDbEntity
  8
0
  6
Continuous
 62
     7
 48
0.5
370
    -3
100
AcDbLine
 10
525.0000000000002
 20
96.00000000000031
 30
0.0
 11
525.0000000000002
 21
94.50000000000031
 31
0.0
  0
ARC
  5
66DC
330
1F
100
AcDbEntity
  8
0
  6
Continuous
 62
     7
 48
0.5
370
    -3
100
AcDbCircle
 10
528.5000000000002
 20
94.50000000000031
 30
0.0
 40
1.5
100
AcDbArc
 50
270.0
 51
0.0
  0
LINE
  5
66DD
330
1F
100
AcDbEntity
  8
0
  6
Continuous
 62
     7
 48
0.5
370
    -3
100
AcDbLine
 10
430.0000000000001
 20
96.00000000000035
 30
0.0
 11
530.0000000000002
 21
96.00000000000031
 31
0.0
  0
LINE
  5
66DE
330
1F
100
AcDbEntity
  8
0
  6
Continuous
 62
     7
 48
0.5
370
    -3
100
AcDbLine
 10
501.5000000000001
 20
126.0000000000003
 30
0.0
 11
528.4968975219016
 21
126.0000000000003
 31
0.0
  0
ARC
  5
66DF
330
1F
100
AcDbEntity
  8
0
  6
Continuous
 62
     7
 48
0.5
370
    -3
100
AcDbCircle
 10
501.5000000000001
 20
125.0000000000003
 30
0.0
 40
1.0
100
AcDbArc
 50
90.0
 51
180.0
  0
ARC
  5
66E0
330
1F
100
AcDbEntity
  8
0
  6
Continuous
 62
     7
 48
0.5
370
    -3
100
AcDbCircle
 10
528.4968975219016
 20
125.0000000000003
 30
0.0
 40
1.0
100
AcDbArc
 50
0.0
 51
90.0
  0
LINE
  5
66E1
330
1F
100
AcDbEntity
  8
0
  6
Continuous
 62
     7
 48
0.5
370
    -3
100
AcDbLine
 10
523.3414830119068
 20
101.0000000000003
 30
0.0
 11
528.4968975219016
 21
101.0000000000003
 31
0.0
  0
LINE
  5
66E2
330
1F
100
AcDbEntity
  8
0
  6
Continuous
 62
     7
 48
0.5
370
    -3
100
AcDbLine
 10
456.0000000000001
 20
106.0000000000003
 30
0.0
 11
504.0000000000001
 21
106.0000000000003
 31
0.0
  0
LINE
  5
66E3
330
1F
100
AcDbEntity
  8
0
  6
Continuous
 62
     7
 48
0.5
370
    -3
100
AcDbLine
 10
505.0000000000001
 20
105.0000000000003
 30
0.0
 11
505.0000000000001
 21
96.00000000000031
 31
0.0
  0
ARC
  5
66E4
330
1F
100
AcDbEntity
  8
0
  6
Continuous
 62
     7
 48
0.5
370
    -3
100
AcDbCircle
 10
504.0000000000001
 20
105.0000000000003
 30
0.0
 40
1.0
100
AcDbArc
 50
0.0
 51
90.0
  0
LINE
  5
66E5
330
1F
100
AcDbEntity
  8
0
  6
Continuous
 62
     7
 48
0.5
370
    -3
100
AcDbLine
 10
530.0000000000002
 20
94.50000000000031
 30
0.0
 11
530.0000000000002
 21
96.00000000000031
 31
0.0
  0
LINE
  5
66E6
330
1F
100
AcDbEntity
  8
0
  6
Continuous
 62
     7
 48
0.5
370
    -3
100
AcDbLine
 10
431.5000000000002
 20
93.00000000000034
 30
0.0
 11
528.5000000000002
 21
93.0000000000003
 31
0.0
  0
ARC
  5
66E7
330
1F
100
AcDbEntity
  8
0
  6
Continuous
 62
     7
 48
0.5
370
    -3
100
AcDbCircle
 10
523.5000000000002
 20
94.50000000000031
 30
0.0
 40
1.499999999999999
100
AcDbArc
 50
270.0
 51
0.0
  0
LINE
  5
66E8
330
1F
100
AcDbEntity
  8
0
  6
Continuous
 62
     7
 48
0.5
370
    -3
100
AcDbLine
 10
529.4968975219017
 20
125.0000000000003
 30
0.0
 11
529.4968975219017
 21
102.0000000000003
 31
0.0
  0
ARC
  5
66E9
330
1F
100
AcDbEntity
  8
0
  6
Continuous
 62
     7
 48
0.5
370
    -3
100
AcDbCircle
 10
528.4968975219016
 20
102.0000000000003
 30
0.0
 40
1.0
100
AcDbArc
 50
270.0
 51
0.0
  0
LINE
  5
66EA
330
1F
100
AcDbEntity
  8
0
  6
Continuous
 62
     7
 48
0.5
370
    -3
100
AcDbLine
 10
526.9000000000001
 20
126.0000000000003
 30
0.0
 11
526.9000000000001
 21
101.0000000000003
 31
0.0
  0
LINE
  5
66EB
330
1F
100
AcDbEntity
  8
0
  6
Continuous
 62
     7
 48
0.5
370
    -3
100
AcDbLine
 10
526.0852578855758
 20
101.0000000000003
 30
0.0
 11
526.0852578855758
 21
96.00000000000031
 31
0.0
  0
LINE
  5
66EC
330
1F
100
AcDbEntity
  8
0
  6
Continuous
 62
     7
 48
0.5
370
    -3
100
AcDbLine
 10
523.3414830119068
 20
101.0000000000003
 30
0.0
 11
523.3414830119068
 21
96.00000000000031
 31
0.0
  0
LINE
  5
66ED
330
1F
100
AcDbEntity
  8
0
  6
Continuous
 62
     7
 48
0.5
370
    -3
100
AcDbLine
 10
500.5000000000001
 20
125.0000000000003
 30
0.0
 11
500.5000000000001
 21
106.0000000000003
 31
0.0
  0
LINE
  5
6737
330
1F
100
AcDbEntity
  8
0
  6
Continuous
 62
     7
 48
0.5
370
    -3
100
AcDbLine
 10
530.0000000000002
 20
9.000000000000333
 30
0.0
 11
530.0000000000002
 21
81.60000000000037
 31
0.0
  0
ARC
  5
6738
330
1F
100
AcDbEntity
  8
0
  6
Continuous
 62
     7
 48
0.5
370
    -3
100
AcDbCircle
 10
524.0000000000001
 20
9.000000000000333
 30
0.0
 40
6.0
100
AcDbArc
 50
270.0
 51
0.0
  0
LINE
  5
6739
330
1F
100
AcDbEntity
  8
0
  6
Continuous
 62
     7
 48
0.5
370
    -3
100
AcDbLine
 10
530.0000000000002
 20
81.60000000000037
 30
0.0
 11
525.0000000000002
 21
83.00000000000034
 31
0.0
  0
LINE
  5
6743
330
1F
100
AcDbEntity
  8
0
  6
Continuous
 62
     7
 48
0.5
370
    -3
100
AcDbLine
 10
435.0000000000001
 20
96.00000000000035
 30
0.0
 11
435.0000000000001
 21
94.50000000000034
 31
0.0
  0
ARC
  5
6744
330
1F
100
AcDbEntity
  8
0
  6
Continuous
 62
     7
 48
0.5
370
    -3
100
AcDbCircle
 10
431.5000000000002
 20
94.50000000000034
 30
0.0
 40
1.5
100
AcDbArc
 50
180.0
 51
270.0
  0
LINE
  5
6745
330
1F
100
AcDbEntity
  8
0
  6
Continuous
 62
     7
 48
0.5
370
    -3
100
AcDbLine
 10
458.5000000000001
 20
126.0000000000003
 30
0.0
 11
431.5031024780987
 21
126.0000000000003
 31
0.0
  0
ARC
  5
6746
330
1F
100
AcDbEntity
  8
0
  6
Continuous
 62
     7
 48
0.5
370
    -3
100
AcDbCircle
 10
458.5000000000001
 20
125.0000000000003
 30
0.0
 40
1.0
100
AcDbArc
 50
0.0
 51
90.0
  0
ARC
  5
6747
330
1F
100
AcDbEntity
  8
0
  6
Continuous
 62
     7
 48
0.5
370
    -3
100
AcDbCircle
 10
431.5031024780987
 20
125.0000000000003
 30
0.0
 40
1.0
100
AcDbArc
 50
90.0
 51
180.0
  0
LINE
  5
6748
330
1F
100
AcDbEntity
  8
0
  6
Continuous
 62
     7
 48
0.5
370
    -3
100
AcDbLine
 10
436.6585169880934
 20
101.0000000000003
 30
0.0
 11
431.5031024780987
 21
101.0000000000003
 31
0.0
  0
LINE
  5
6749
330
1F
100
AcDbEntity
  8
0
  6
Continuous
 62
     7
 48
0.5
370
    -3
100
AcDbLine
 10
455.0000000000001
 20
105.0000000000003
 30
0.0
 11
455.0000000000001
 21
96.00000000000031
 31
0.0
  0
ARC
  5
674A
330
1F
100
AcDbEntity
  8
0
  6
Continuous
 62
     7
 48
0.5
370
    -3
100
AcDbCircle
 10
456.0000000000001
 20
105.0000000000003
 30
0.0
 40
1.0
100
AcDbArc
 50
90.0
 51
180.0
  0
LINE
  5
674B
330
1F
100
AcDbEntity
  8
0
  6
Continuous
 62
     7
 48
0.5
370
    -3
100
AcDbLine
 10
430.0000000000001
 20
94.50000000000034
 30
0.0
 11
430.0000000000001
 21
96.00000000000035
 31
0.0
  0
ARC
  5
674C
330
1F
100
AcDbEntity
  8
0
  6
Continuous
 62
     7
 48
0.5
370
    -3
100
AcDbCircle
 10
436.5000000000001
 20
94.50000000000034
 30
0.0
 40
1.499999999999999
100
AcDbArc
 50
180.0
 51
270.0
  0
LINE
  5
674D
330
1F
100
AcDbEntity
  8
0
  6
Continuous
 62
     7
 48
0.5
370
    -3
100
AcDbLine
 10
430.5031024780986
 20
125.0000000000003
 30
0.0
 11
430.5031024780986
 21
102.0000000000003
 31
0.0
  0
ARC
  5
674E
330
1F
100
AcDbEntity
  8
0
  6
Continuous
 62
     7
 48
0.5
370
    -3
100
AcDbCircle
 10
431.5031024780987
 20
102.0000000000003
 30
0.0
 40
1.0
100
AcDbArc
 50
180.0
 51
270.0
  0
LINE
  5
674F
330
1F
100
AcDbEntity
  8
0
  6
Continuous
 62
     7
 48
0.5
370
    -3
100
AcDbLine
 10
433.1000000000002
 20
126.0000000000003
 30
0.0
 11
433.1000000000002
 21
101.0000000000003
 31
0.0
  0
LINE
  5
6750
330
1F
100
AcDbEntity
  8
0
  6
Continuous
 62
     7
 48
0.5
370
    -3
100
AcDbLine
 10
433.9147421144244
 20
101.0000000000003
 30
0.0
 11
433.9147421144244
 21
96.00000000000035
 31
0.0
  0
LINE
  5
6751
330
1F
100
AcDbEntity
  8
0
  6
Continuous
 62
     7
 48
0.5
370
    -3
100
AcDbLine
 10
436.6585169880934
 20
101.0000000000003
 30
0.0
 11
436.6585169880934
 21
96.00000000000035
 31
0.0
  0
LINE
  5
6752
330
1F
100
AcDbEntity
  8
0
  6
Continuous
 62
     7
 48
0.5
370
    -3
100
AcDbLine
 10
459.5000000000001
 20
125.0000000000003
 30
0.0
 11
459.5000000000001
 21
106.0000000000003
 31
0.0
  0
MTEXT
  5
6753
330
1F
100
AcDbEntity
  8
0
  6
Continuous
 62
     1
 48
0.5
370
    -3
100
AcDbMText
 10
480.0000000000001
 20
-5.0
 30
0.0
 40
2.5
 41
32.05805302350382
 46
0.0
 71
     2
 72
     5
  1
4号
 73
     1
 44
1.0
1001
ACAD
1000
ACAD_MTEXT_COLUMN_INFO_BEGIN
1070
    75
1070
     2
1070
    79
1070
     0
1070
    76
1070
     1
1070
    78
1070
     0
1070
    48
1040
32.05805302350382
1070
    49
1040
12.5
1070
    50
1070
     1
1040
0.0
1000
ACAD_MTEXT_COLUMN_INFO_END
  0
MTEXT
  5
6754
330
1F
100
AcDbEntity
  8
0
  6
Continuous
 62
     1
 48
0.5
370
    -3
100
AcDbMText
 10
480.0000000000001
 20
-13.0
 30
0.0
 40
2.5
 41
32.05805302350382
 46
0.0
 71
     2
 72
     5
  1
KMDE4□
 73
     1
 44
1.0
1001
ACAD
1000
ACAD_MTEXT_COLUMN_INFO_BEGIN
1070
    75
1070
     2
1070
    79
1070
     0
1070
    76
1070
     1
1070
    78
1070
     0
1070
    48
1040
32.05805302350382
1070
    49
1040
12.5
1070
    50
1070
     1
1040
0.0
1000
ACAD_MTEXT_COLUMN_INFO_END
  0
LINE
  5
6755
330
1F
100
AcDbEntity
  8
0
  6
CENTER2
 62
     2
 48
0.5
370
    -3
100
AcDbLine
 10
610.0000000000002
 20
0.000000000000334
 30
0.0
 11
610.0000000000002
 21
106.0000000000003
 31
0.0
  0
LINE
  5
6759
330
1F
100
AcDbEntity
  8
0
  6
Continuous
 62
     7
 48
0.5
370
    -3
100
AcDbLine
 10
560.0000000000002
 20
9.000000000000333
 30
0.0
 11
560.0000000000002
 21
101.6000000000003
 31
0.0
  0
LINE
  5
675A
330
1F
100
AcDbEntity
  8
0
  6
Continuous
 62
     7
 48
0.5
370
    -3
100
AcDbLine
 10
654.0000000000002
 20
3.000000000000333
 30
0.0
 11
566.0000000000002
 21
3.000000000000333
 31
0.0
  0
ARC
  5
675B
330
1F
100
AcDbEntity
  8
0
  6
Continuous
 62
     7
 48
0.5
370
    -3
100
AcDbCircle
 10
566.0000000000002
 20
9.000000000000333
 30
0.0
 40
6.0
100
AcDbArc
 50
180.0
 51
270.0
  0
LINE
  5
675C
330
1F
100
AcDbEntity
  8
0
  6
Continuous
 62
     7
 48
0.5
370
    -3
100
AcDbLine
 10
655.0000000000002
 20
103.0000000000003
 30
0.0
 11
565.0000000000002
 21
103.0000000000003
 31
0.0
  0
LINE
  5
675D
330
1F
100
AcDbEntity
  8
0
  6
Continuous
 62
     7
 48
0.5
370
    -3
100
AcDbLine
 10
560.0000000000002
 20
101.6000000000003
 30
0.0
 11
565.0000000000002
 21
103.0000000000003
 31
0.0
  0
LINE
  5
6769
330
1F
100
AcDbEntity
  8
0
  6
CENTER2
 62
     2
 48
0.5
370
    -3
100
AcDbLine
 10
610.0000000000002
 20
149.0000000000003
 30
0.0
 11
610.0000000000002
 21
110.0000000000003
 31
0.0
  0
LINE
  5
676A
330
1F
100
AcDbEntity
  8
0
  6
Continuous
 62
     7
 48
0.5
370
    -3
100
AcDbLine
 10
655.0000000000002
 20
116.0000000000003
 30
0.0
 11
655.0000000000002
 21
114.5000000000003
 31
0.0
  0
ARC
  5
676B
330
1F
100
AcDbEntity
  8
0
  6
Continuous
 62
     7
 48
0.5
370
    -3
100
AcDbCircle
 10
658.5000000000002
 20
114.5000000000003
 30
0.0
 40
1.5
100
AcDbArc
 50
270.0
 51
0.0
  0
LINE
  5
676C
330
1F
100
AcDbEntity
  8
0
  6
Continuous
 62
     7
 48
0.5
370
    -3
100
AcDbLine
 10
560.0000000000001
 20
116.0000000000003
 30
0.0
 11
660.0000000000002
 21
116.0000000000003
 31
0.0
  0
LINE
  5
676D
330
1F
100
AcDbEntity
  8
0
  6
Continuous
 62
     7
 48
0.5
370
    -3
100
AcDbLine
 10
631.5000000000002
 20
146.0000000000003
 30
0.0
 11
658.4968975219017
 21
146.0000000000003
 31
0.0
  0
ARC
  5
676E
330
1F
100
AcDbEntity
  8
0
  6
Continuous
 62
     7
 48
0.5
370
    -3
100
AcDbCircle
 10
631.5000000000002
 20
145.0000000000003
 30
0.0
 40
1.0
100
AcDbArc
 50
90.0
 51
180.0
  0
ARC
  5
676F
330
1F
100
AcDbEntity
  8
0
  6
Continuous
 62
     7
 48
0.5
370
    -3
100
AcDbCircle
 10
658.4968975219017
 20
145.0000000000003
 30
0.0
 40
1.0
100
AcDbArc
 50
0.0
 51
90.0
  0
LINE
  5
6770
330
1F
100
AcDbEntity
  8
0
  6
Continuous
 62
     7
 48
0.5
370
    -3
100
AcDbLine
 10
653.3414830119068
 20
121.0000000000003
 30
0.0
 11
658.4968975219017
 21
121.0000000000003
 31
0.0
  0
LINE
  5
6771
330
1F
100
AcDbEntity
  8
0
  6
Continuous
 62
     7
 48
0.5
370
    -3
100
AcDbLine
 10
586.0000000000001
 20
126.0000000000003
 30
0.0
 11
634.0000000000002
 21
126.0000000000003
 31
0.0
  0
LINE
  5
6772
330
1F
100
AcDbEntity
  8
0
  6
Continuous
 62
     7
 48
0.5
370
    -3
100
AcDbLine
 10
635.0000000000002
 20
125.0000000000003
 30
0.0
 11
635.0000000000002
 21
116.0000000000003
 31
0.0
  0
ARC
  5
6773
330
1F
100
AcDbEntity
  8
0
  6
Continuous
 62
     7
 48
0.5
370
    -3
100
AcDbCircle
 10
634.0000000000002
 20
125.0000000000003
 30
0.0
 40
1.0
100
AcDbArc
 50
0.0
 51
90.0
  0
LINE
  5
6774
330
1F
100
AcDbEntity
  8
0
  6
Continuous
 62
     7
 48
0.5
370
    -3
100
AcDbLine
 10
660.0000000000002
 20
114.5000000000003
 30
0.0
 11
660.0000000000002
 21
116.0000000000003
 31
0.0
  0
LINE
  5
6775
330
1F
100
AcDbEntity
  8
0
  6
Continuous
 62
     7
 48
0.5
370
    -3
100
AcDbLine
 10
561.5000000000001
 20
113.0000000000003
 30
0.0
 11
658.5000000000002
 21
113.0000000000003
 31
0.0
  0
ARC
  5
6776
330
1F
100
AcDbEntity
  8
0
  6
Continuous
 62
     7
 48
0.5
370
    -3
100
AcDbCircle
 10
653.5000000000002
 20
114.5000000000003
 30
0.0
 40
1.499999999999999
100
AcDbArc
 50
270.0
 51
0.0
  0
LINE
  5
6777
330
1F
100
AcDbEntity
  8
0
  6
Continuous
 62
     7
 48
0.5
370
    -3
100
AcDbLine
 10
659.4968975219017
 20
145.0000000000003
 30
0.0
 11
659.4968975219017
 21
122.0000000000003
 31
0.0
  0
ARC
  5
6778
330
1F
100
AcDbEntity
  8
0
  6
Continuous
 62
     7
 48
0.5
370
    -3
100
AcDbCircle
 10
658.4968975219017
 20
122.0000000000003
 30
0.0
 40
1.0
100
AcDbArc
 50
270.0
 51
0.0
  0
LINE
  5
6779
330
1F
100
AcDbEntity
  8
0
  6
Continuous
 62
     7
 48
0.5
370
    -3
100
AcDbLine
 10
656.9
 20
146.0000000000003
 30
0.0
 11
656.9
 21
121.0000000000003
 31
0.0
  0
LINE
  5
677A
330
1F
100
AcDbEntity
  8
0
  6
Continuous
 62
     7
 48
0.5
370
    -3
100
AcDbLine
 10
656.0852578855758
 20
121.0000000000003
 30
0.0
 11
656.0852578855758
 21
116.0000000000003
 31
0.0
  0
LINE
  5
677B
330
1F
100
AcDbEntity
  8
0
  6
Continuous
 62
     7
 48
0.5
370
    -3
100
AcDbLine
 10
653.3414830119068
 20
121.0000000000003
 30
0.0
 11
653.3414830119068
 21
116.0000000000003
 31
0.0
  0
LINE
  5
677C
330
1F
100
AcDbEntity
  8
0
  6
Continuous
 62
     7
 48
0.5
370
    -3
100
AcDbLine
 10
630.5000000000002
 20
145.0000000000003
 30
0.0
 11
630.5000000000002
 21
126.0000000000003
 31
0.0
  0
LINE
  5
6780
330
1F
100
AcDbEntity
  8
0
  6
Continuous
 62
     7
 48
0.5
370
    -3
100
AcDbLine
 10
660.0000000000002
 20
9.000000000000333
 30
0.0
 11
660.0000000000002
 21
101.6000000000003
 31
0.0
  0
ARC
  5
6781
330
1F
100
AcDbEntity
  8
0
  6
Continuous
 62
     7
 48
0.5
370
    -3
100
AcDbCircle
 10
654.0000000000002
 20
9.000000000000333
 30
0.0
 40
6.0
100
AcDbArc
 50
270.0
 51
0.0
  0
LINE
  5
6782
330
1F
100
AcDbEntity
  8
0
  6
Continuous
 62
     7
 48
0.5
370
    -3
100
AcDbLine
 10
660.0000000000002
 20
101.6000000000003
 30
0.0
 11
655.0000000000002
 21
103.0000000000003
 31
0.0
  0
LINE
  5
678C
330
1F
100
AcDbEntity
  8
0
  6
Continuous
 62
     7
 48
0.5
370
    -3
100
AcDbLine
 10
565.0000000000001
 20
116.0000000000003
 30
0.0
 11
565.0000000000001
 21
114.5000000000003
 31
0.0
  0
ARC
  5
678D
330
1F
100
AcDbEntity
  8
0
  6
Continuous
 62
     7
 48
0.5
370
    -3
100
AcDbCircle
 10
561.5000000000001
 20
114.5000000000003
 30
0.0
 40
1.5
100
AcDbArc
 50
180.0
 51
270.0
  0
LINE
  5
678E
330
1F
100
AcDbEntity
  8
0
  6
Continuous
 62
     7
 48
0.5
370
    -3
100
AcDbLine
 10
588.5000000000002
 20
146.0000000000003
 30
0.0
 11
561.5031024780986
 21
146.0000000000003
 31
0.0
  0
ARC
  5
678F
330
1F
100
AcDbEntity
  8
0
  6
Continuous
 62
     7
 48
0.5
370
    -3
100
AcDbCircle
 10
588.5000000000002
 20
145.0000000000003
 30
0.0
 40
1.0
100
AcDbArc
 50
0.0
 51
90.0
  0
ARC
  5
6790
330
1F
100
AcDbEntity
  8
0
  6
Continuous
 62
     7
 48
0.5
370
    -3
100
AcDbCircle
 10
561.5031024780986
 20
145.0000000000003
 30
0.0
 40
1.0
100
AcDbArc
 50
90.0
 51
180.0
  0
LINE
  5
6791
330
1F
100
AcDbEntity
  8
0
  6
Continuous
 62
     7
 48
0.5
370
    -3
100
AcDbLine
 10
566.6585169880935
 20
121.0000000000003
 30
0.0
 11
561.5031024780986
 21
121.0000000000003
 31
0.0
  0
LINE
  5
6792
330
1F
100
AcDbEntity
  8
0
  6
Continuous
 62
     7
 48
0.5
370
    -3
100
AcDbLine
 10
585.0000000000001
 20
125.0000000000003
 30
0.0
 11
585.0000000000001
 21
116.0000000000003
 31
0.0
  0
ARC
  5
6793
330
1F
100
AcDbEntity
  8
0
  6
Continuous
 62
     7
 48
0.5
370
    -3
100
AcDbCircle
 10
586.0000000000001
 20
125.0000000000003
 30
0.0
 40
1.0
100
AcDbArc
 50
90.0
 51
180.0
  0
LINE
  5
6794
330
1F
100
AcDbEntity
  8
0
  6
Continuous
 62
     7
 48
0.5
370
    -3
100
AcDbLine
 10
560.0000000000001
 20
114.5000000000003
 30
0.0
 11
560.0000000000001
 21
116.0000000000003
 31
0.0
  0
ARC
  5
6795
330
1F
100
AcDbEntity
  8
0
  6
Continuous
 62
     7
 48
0.5
370
    -3
100
AcDbCircle
 10
566.5
 20
114.5000000000003
 30
0.0
 40
1.499999999999999
100
AcDbArc
 50
180.0
 51
270.0
  0
LINE
  5
6796
330
1F
100
AcDbEntity
  8
0
  6
Continuous
 62
     7
 48
0.5
370
    -3
100
AcDbLine
 10
560.5031024780986
 20
145.0000000000003
 30
0.0
 11
560.5031024780986
 21
122.0000000000003
 31
0.0
  0
ARC
  5
6797
330
1F
100
AcDbEntity
  8
0
  6
Continuous
 62
     7
 48
0.5
370
    -3
100
AcDbCircle
 10
561.5031024780986
 20
122.0000000000003
 30
0.0
 40
1.0
100
AcDbArc
 50
180.0
 51
270.0
  0
LINE
  5
6798
330
1F
100
AcDbEntity
  8
0
  6
Continuous
 62
     7
 48
0.5
370
    -3
100
AcDbLine
 10
563.1000000000002
 20
146.0000000000003
 30
0.0
 11
563.1000000000002
 21
121.0000000000003
 31
0.0
  0
LINE
  5
6799
330
1F
100
AcDbEntity
  8
0
  6
Continuous
 62
     7
 48
0.5
370
    -3
100
AcDbLine
 10
563.9147421144245
 20
121.0000000000003
 30
0.0
 11
563.9147421144245
 21
116.0000000000003
 31
0.0
  0
LINE
  5
679A
330
1F
100
AcDbEntity
  8
0
  6
Continuous
 62
     7
 48
0.5
370
    -3
100
AcDbLine
 10
566.6585169880935
 20
121.0000000000003
 30
0.0
 11
566.6585169880935
 21
116.0000000000003
 31
0.0
  0
LINE
  5
679B
330
1F
100
AcDbEntity
  8
0
  6
Continuous
 62
     7
 48
0.5
370
    -3
100
AcDbLine
 10
589.5000000000002
 20
145.0000000000003
 30
0.0
 11
589.5000000000002
 21
126.0000000000003
 31
0.0
  0
MTEXT
  5
679C
330
1F
100
AcDbEntity
  8
0
  6
Continuous
 62
     1
 48
0.5
370
    -3
100
AcDbMText
 10
610.0000000000002
 20
-5.0
 30
0.0
 40
2.5
 41
32.05805302350382
 46
0.0
 71
     2
 72
     5
  1
4号100型
 73
     1
 44
1.0
1001
ACAD
1000
ACAD_MTEXT_COLUMN_INFO_BEGIN
1070
    75
1070
     2
1070
    79
1070
     0
1070
    76
1070
     1
1070
    78
1070
     0
1070
    48
1040
32.05805302350382
1070
    49
1040
12.5
1070
    50
1070
     1
1040
0.0
1000
ACAD_MTEXT_COLUMN_INFO_END
  0
MTEXT
  5
679D
330
1F
100
AcDbEntity
  8
0
  6
Continuous
 62
     1
 48
0.5
370
    -3
100
AcDbMText
 10
610.0000000000002
 20
-13.0
 30
0.0
 40
2.5
 41
32.05805302350382
 46
0.0
 71
     2
 72
     5
  1
KMDE410□
 73
     1
 44
1.0
1001
ACAD
1000
ACAD_MTEXT_COLUMN_INFO_BEGIN
1070
    75
1070
     2
1070
    79
1070
     0
1070
    76
1070
     1
1070
    78
1070
     0
1070
    48
1040
32.05805302350382
1070
    49
1040
12.5
1070
    50
1070
     1
1040
0.0
1000
ACAD_MTEXT_COLUMN_INFO_END
  0
LINE
  5
67BD
330
1F
100
AcDbEntity
  8
0
  6
Continuous
 62
     7
 48
0.5
370
    -3
100
AcDbLine
 10
807.9999999996092
 20
33.00000000000031
 30
0.0
 11
692.0000000000002
 21
33.00000000000033
 31
0.0
  0
ARC
  5
67BE
330
1F
100
AcDbEntity
  8
0
  6
Continuous
 62
     7
 48
0.5
370
    -3
100
AcDbCircle
 10
692.0000000000002
 20
31.00000000000033
 30
0.0
 40
2.0
100
AcDbArc
 50
90.0
 51
180.0
  0
LINE
  5
67C0
330
1F
100
AcDbEntity
  8
0
  6
Continuous
 62
     7
 48
0.5
370
    -3
100
AcDbLine
 10
692.0000000000002
 20
3.000000000000326
 30
0.0
 11
807.9999999996092
 21
3.000000000000326
 31
0.0
  0
ARC
  5
67C1
330
1F
100
AcDbEntity
  8
0
  6
Continuous
 62
     7
 48
0.5
370
    -3
100
AcDbCircle
 10
692.0000000000002
 20
5.000000000000326
 30
0.0
 40
2.0
100
AcDbArc
 50
180.0
 51
270.0
  0
LINE
  5
67C2
330
1F
100
AcDbEntity
  8
0
  6
Continuous
 62
     7
 48
0.5
370
    -3
100
AcDbLine
 10
690.0000000000002
 20
31.00000000000033
 30
0.0
 11
690.0000000000002
 21
5.000000000000326
 31
0.0
  0
LINE
  5
67C3
330
1F
100
AcDbEntity
  8
0
  6
CENTER2
 62
     2
 48
0.5
370
    -3
100
AcDbLine
 10
749.9999999998039
 20
0.0000000000003837
 30
0.0
 11
749.9999999998039
 21
36.00000000000033
 31
0.0
  0
LINE
  5
67C5
330
1F
100
AcDbEntity
  8
0
  6
Continuous
 62
     7
 48
0.5
370
    -3
100
AcDbLine
 10
809.9999999996091
 20
46.99999999999968
 30
0.0
 11
690.0000000000016
 21
47.00000000000049
 31
0.0
  0
LINE
  5
67C6
330
1F
100
AcDbEntity
  8
0
  6
Continuous
 62
     7
 48
0.5
370
    -3
100
AcDbLine
 10
799.4999999998049
 20
58.99999999999974
 30
0.0
 11
700.4999999998046
 21
59.00000000000043
 31
0.0
  0
LINE
  5
67C7
330
1F
100
AcDbEntity
  8
0
  6
Continuous
 62
     7
 48
0.5
370
    -3
100
AcDbLine
 10
809.9999999996091
 20
42.99999999999967
 30
0.0
 11
690.0000000000016
 21
43.00000000000049
 31
0.0
  0
LINE
  5
67C8
330
1F
100
AcDbEntity
  8
0
  6
Continuous
 62
     7
 48
0.5
370
    -3
100
AcDbLine
 10
809.9999999996089
 20
46.99999999999962
 30
0.0
 11
809.9999999996089
 21
42.99999999999967
 31
0.0
  0
LINE
  5
67C9
330
1F
100
AcDbEntity
  8
0
  6
Continuous
 62
     7
 48
0.5
370
    -3
100
AcDbLine
 10
799.4999999998049
 20
58.99999999999974
 30
0.0
 11
799.4999999998049
 21
46.99999999999974
 31
0.0
  0
LINE
  5
67CA
330
1F
100
AcDbEntity
  8
0
  6
CENTER2
 62
     2
 48
0.5
370
    -3
100
AcDbLine
 10
749.9999999998046
 20
62.00000000000003
 30
0.0
 11
749.9999999998045
 21
40.00000000000003
 31
0.0
  0
ARC
  5
67D2
330
1F
100
AcDbEntity
  8
0
  6
Continuous
 62
     7
 48
0.5
370
    -3
100
AcDbCircle
 10
807.9999999996092
 20
31.00000000000033
 30
0.0
 40
2.0
100
AcDbArc
 50
0.0
 51
90.0
  0
ARC
  5
67D3
330
1F
100
AcDbEntity
  8
0
  6
Continuous
 62
     7
 48
0.5
370
    -3
100
AcDbCircle
 10
807.9999999996092
 20
5.000000000000326
 30
0.0
 40
2.0
100
AcDbArc
 50
270.0
 51
0.0
  0
LINE
  5
67D4
330
1F
100
AcDbEntity
  8
0
  6
Continuous
 62
     7
 48
0.5
370
    -3
100
AcDbLine
 10
809.9999999996091
 20
31.00000000000033
 30
0.0
 11
809.9999999996091
 21
5.000000000000326
 31
0.0
  0
LINE
  5
67D6
330
1F
100
AcDbEntity
  8
0
  6
Continuous
 62
     7
 48
0.5
370
    -3
100
AcDbLine
 10
690.0
 20
46.99999999999964
 30
0.0
 11
690.0
 21
42.9999999999997
 31
0.0
  0
LINE
  5
67D7
330
1F
100
AcDbEntity
  8
0
  6
Continuous
 62
     7
 48
0.5
370
    -3
100
AcDbLine
 10
700.499999999804
 20
58.99999999999975
 30
0.0
 11
700.499999999804
 21
46.99999999999975
 31
0.0
  0
MTEXT
  5
68B2
330
1F
100
AcDbEntity
  8
0
  6
Continuous
 62
     1
 48
0.5
370
    -3
100
AcDbMText
 10
749.9999999998039
 20
-4.99999999999995
 30
0.0
 40
2.5
 41
32.05805302350382
 46
0.0
 71
     2
 72
     5
  1
120型
 73
     1
 44
1.0
1001
ACAD
1000
ACAD_MTEXT_COLUMN_INFO_BEGIN
1070
    75
1070
     2
1070
    79
1070
     0
1070
    76
1070
     1
1070
    78
1070
     0
1070
    48
1040
32.05805302350382
1070
    49
1040
12.5
1070
    50
1070
     1
1040
0.0
1000
ACAD_MTEXT_COLUMN_INFO_END
  0
MTEXT
  5
68B3
330
1F
100
AcDbEntity
  8
0
  6
Continuous
 62
     1
 48
0.5
370
    -3
100
AcDbMText
 10
749.9999999998039
 20
-12.99999999999995
 30
0.0
 40
2.5
 41
32.05805302350382
 46
0.0
 71
     2
 72
     5
  1
KMDE120□
 73
     1
 44
1.0
1001
ACAD
1000
ACAD_MTEXT_COLUMN_INFO_BEGIN
1070
    75
1070
     2
1070
    79
1070
     0
1070
    76
1070
     1
1070
    78
1070
     0
1070
    48
1040
32.05805302350382
1070
    49
1040
12.5
1070
    50
1070
     1
1040
0.0
1000
ACAD_MTEXT_COLUMN_INFO_END
  0
MTEXT
  5
68B4
330
1F
100
AcDbEntity
  8
0
  6
Continuous
 62
     1
 48
0.5
370
    -3
100
AcDbMText
 10
904.9999999996101
 20
-5.00000000000001
 30
0.0
 40
2.5
 41
32.05805302350382
 46
0.0
 71
     2
 72
     5
  1
130×60型
 73
     1
 44
1.0
1001
ACAD
1000
ACAD_MTEXT_COLUMN_INFO_BEGIN
1070
    75
1070
     2
1070
    79
1070
     0
1070
    76
1070
     1
1070
    78
1070
     0
1070
    48
1040
32.05805302350382
1070
    49
1040
12.5
1070
    50
1070
     1
1040
0.0
1000
ACAD_MTEXT_COLUMN_INFO_END
  0
MTEXT
  5
68B5
330
1F
100
AcDbEntity
  8
0
  6
Continuous
 62
     1
 48
0.5
370
    -3
100
AcDbMText
 10
904.9999999996101
 20
-13.00000000000001
 30
0.0
 40
2.5
 41
32.05805302350382
 46
0.0
 71
     2
 72
     5
  1
KMDE136□
 73
     1
 44
1.0
1001
ACAD
1000
ACAD_MTEXT_COLUMN_INFO_BEGIN
1070
    75
1070
     2
1070
    79
1070
     0
1070
    76
1070
     1
1070
    78
1070
     0
1070
    48
1040
32.05805302350382
1070
    49
1040
12.5
1070
    50
1070
     1
1040
0.0
1000
ACAD_MTEXT_COLUMN_INFO_END
  0
MTEXT
  5
6A59
330
1F
100
AcDbEntity
  8
0
  6
Continuous
 62
     1
 48
0.5
370
    -3
100
AcDbMText
 10
1075.799999999612
 20
-5.000000000000021
 30
0.0
 40
2.5
 41
32.05805302350382
 46
0.0
 71
     2
 72
     5
  1
5号
 73
     1
 44
1.0
1001
ACAD
1000
ACAD_MTEXT_COLUMN_INFO_BEGIN
1070
    75
1070
     2
1070
    79
1070
     0
1070
    76
1070
     1
1070
    78
1070
     0
1070
    48
1040
32.05805302350382
1070
    49
1040
12.5
1070
    50
1070
     1
1040
0.0
1000
ACAD_MTEXT_COLUMN_INFO_END
  0
MTEXT
  5
6A5A
330
1F
100
AcDbEntity
  8
0
  6
Continuous
 62
     1
 48
0.5
370
    -3
100
AcDbMText
 10
1075.799999999612
 20
-13.00000000000002
 30
0.0
 40
2.5
 41
32.05805302350382
 46
0.0
 71
     2
 72
     5
  1
KMDE5□
 73
     1
 44
1.0
1001
ACAD
1000
ACAD_MTEXT_COLUMN_INFO_BEGIN
1070
    75
1070
     2
1070
    79
1070
     0
1070
    76
1070
     1
1070
    78
1070
     0
1070
    48
1040
32.05805302350382
1070
    49
1040
12.5
1070
    50
1070
     1
1040
0.0
1000
ACAD_MTEXT_COLUMN_INFO_END
  0
MTEXT
  5
6AD7
330
1F
100
AcDbEntity
  8
0
  6
Continuous
 62
     1
 48
0.5
370
    -3
100
AcDbMText
 10
1256.599999999612
 20
-5.000000000000021
 30
0.0
 40
2.5
 41
32.05805302350382
 46
0.0
 71
     2
 72
     5
  1
5号70型
 73
     1
 44
1.0
1001
ACAD
1000
ACAD_MTEXT_COLUMN_INFO_BEGIN
1070
    75
1070
     2
1070
    79
1070
     0
1070
    76
1070
     1
1070
    78
1070
     0
1070
    48
1040
32.05805302350382
1070
    49
1040
12.5
1070
    50
1070
     1
1040
0.0
1000
ACAD_MTEXT_COLUMN_INFO_END
  0
MTEXT
  5
6AD8
330
1F
100
AcDbEntity
  8
0
  6
Continuous
 62
     1
 48
0.5
370
    -3
100
AcDbMText
 10
1256.599999999612
 20
-13.00000000000002
 30
0.0
 40
2.5
 41
32.05805302350382
 46
0.0
 71
     2
 72
     5
  1
KMDE570□
 73
     1
 44
1.0
1001
ACAD
1000
ACAD_MTEXT_COLUMN_INFO_BEGIN
1070
    75
1070
     2
1070
    79
1070
     0
1070
    76
1070
     1
1070
    78
1070
     0
1070
    48
1040
32.05805302350382
1070
    49
1040
12.5
1070
    50
1070
     1
1040
0.0
1000
ACAD_MTEXT_COLUMN_INFO_END
  0
MTEXT
  5
6B9C
330
1F
100
AcDbEntity
  8
0
  6
Continuous
 62
     1
 48
0.5
370
    -3
100
AcDbMText
 10
1437.399999999612
 20
-5.000000000000028
 30
0.0
 40
2.5
 41
32.05805302350382
 46
0.0
 71
     2
 72
     5
  1
5号150型
 73
     1
 44
1.0
1001
ACAD
1000
ACAD_MTEXT_COLUMN_INFO_BEGIN
1070
    75
1070
     2
1070
    79
1070
     0
1070
    76
1070
     1
1070
    78
1070
     0
1070
    48
1040
32.05805302350382
1070
    49
1040
12.5
1070
    50
1070
     1
1040
0.0
1000
ACAD_MTEXT_COLUMN_INFO_END
  0
MTEXT
  5
6B9D
330
1F
100
AcDbEntity
  8
0
  6
Continuous
 62
     1
 48
0.5
370
    -3
100
AcDbMText
 10
1437.399999999612
 20
-13.00000000000003
 30
0.0
 40
2.5
 41
32.05805302350382
 46
0.0
 71
     2
 72
     5
  1
KMDE515□
 73
     1
 44
1.0
1001
ACAD
1000
ACAD_MTEXT_COLUMN_INFO_BEGIN
1070
    75
1070
     2
1070
    79
1070
     0
1070
    76
1070
     1
1070
    78
1070
     0
1070
    48
1040
32.05805302350382
1070
    49
1040
12.5
1070
    50
1070
     1
1040
0.0
1000
ACAD_MTEXT_COLUMN_INFO_END
  0
MTEXT
  5
6CEA
330
1F
100
AcDbEntity
  8
0
  6
Continuous
 62
     1
 48
0.5
370
    -3
100
AcDbMText
 10
1643.199999999621
 20
-5.000000000000049
 30
0.0
 40
2.5
 41
32.05805302350382
 46
0.0
 71
     2
 72
     5
  1
6号
 73
     1
 44
1.0
1001
ACAD
1000
ACAD_MTEXT_COLUMN_INFO_BEGIN
1070
    75
1070
     2
1070
    79
1070
     0
1070
    76
1070
     1
1070
    78
1070
     0
1070
    48
1040
32.05805302350382
1070
    49
1040
12.5
1070
    50
1070
     1
1040
0.0
1000
ACAD_MTEXT_COLUMN_INFO_END
  0
MTEXT
  5
6CEB
330
1F
100
AcDbEntity
  8
0
  6
Continuous
 62
     1
 48
0.5
370
    -3
100
AcDbMText
 10
1643.199999999621
 20
-13.00000000000005
 30
0.0
 40
2.5
 41
32.05805302350382
 46
0.0
 71
     2
 72
     5
  1
KMDE6□
 73
     1
 44
1.0
1001
ACAD
1000
ACAD_MTEXT_COLUMN_INFO_BEGIN
1070
    75
1070
     2
1070
    79
1070
     0
1070
    76
1070
     1
1070
    78
1070
     0
1070
    48
1040
32.05805302350382
1070
    49
1040
12.5
1070
    50
1070
     1
1040
0.0
1000
ACAD_MTEXT_COLUMN_INFO_END
  0
LINE
  5
6D43
330
1F
100
AcDbEntity
  8
0
  6
Continuous
 62
     7
 48
0.5
370
    -3
100
AcDbLine
 10
1974.599999999639
 20
205.0000000000002
 30
0.0
 11
1938.899999999636
 21
205.0000000000003
 31
0.0
  0
LINE
  5
6D44
330
1F
100
AcDbEntity
  8
0
  6
Continuous
 62
     7
 48
0.5
370
    -3
100
AcDbLine
 10
1974.799999999638
 20
163.0000000000002
 30
0.0
 11
1774.79999999963
 21
163.0000000000003
 31
0.0
  0
LINE
  5
6D45
330
1F
100
AcDbEntity
  8
0
  6
Continuous
 62
     7
 48
0.5
370
    -3
100
AcDbLine
 10
1974.799999999638
 20
167.0000000000002
 30
0.0
 11
1774.79999999963
 21
167.0000000000003
 31
0.0
  0
LINE
  5
6D46
330
1F
100
AcDbEntity
  8
0
  6
Continuous
 62
     7
 48
0.5
370
    -3
100
AcDbLine
 10
1971.499999999635
 20
170.0000000000003
 30
0.0
 11
1938.399999999637
 21
170.0000000000002
 31
0.0
  0
LINE
  5
6D47
330
1F
100
AcDbEntity
  8
0
  6
Continuous
 62
     7
 48
0.5
370
    -3
100
AcDbLine
 10
1975.599999999639
 20
175.0000000000002
 30
0.0
 11
1967.16113317324
 21
175.0000000000002
 31
0.0
  0
LINE
  5
6D48
330
1F
100
AcDbEntity
  8
0
  6
Continuous
 62
     7
 48
0.5
370
    -3
100
AcDbLine
 10
1924.799999999633
 20
192.0000000000003
 30
0.0
 11
1824.799999999636
 21
192.0000000000003
 31
0.0
  0
LINE
  5
6D49
330
1F
100
AcDbEntity
  8
0
  6
CENTER2
 62
     2
 48
0.5
370
    -3
100
AcDbLine
 10
1874.799999999634
 20
160.0000000000003
 30
0.0
 11
1874.799999999633
 21
208.0000000000003
 31
0.0
  0
LINE
  5
6D4A
330
1F
100
AcDbEntity
  8
0
  6
Continuous
 62
     7
 48
0.5
370
    -3
100
AcDbLine
 10
1924.799999999633
 20
167.0000000000002
 30
0.0
 11
1924.799999999632
 21
192.0000000000003
 31
0.0
  0
LINE
  5
6D4B
330
1F
100
AcDbEntity
  8
0
  6
Continuous
 62
     7
 48
0.5
370
    -3
100
AcDbLine
 10
1937.899999999637
 20
167.0000000000003
 30
0.0
 11
1937.899999999636
 21
204.0000000000003
 31
0.0
  0
ARC
  5
6D4C
330
1F
100
AcDbEntity
  8
0
  6
Continuous
 62
     7
 48
0.5
370
    -3
100
AcDbCircle
 10
1938.899999999636
 20
204.0000000000003
 30
0.0
 40
1.0
100
AcDbArc
 50
90.0
 51
180.0000000000032
  0
LINE
  5
6D4D
330
1F
100
AcDbEntity
  8
0
  6
Continuous
 62
     7
 48
0.5
370
    -3
100
AcDbLine
 10
1974.799999999638
 20
167.0000000000002
 30
0.0
 11
1974.799999999638
 21
163.0000000000003
 31
0.0
  0
LINE
  5
6D4E
330
1F
100
AcDbEntity
  8
0
  6
Continuous
 62
     7
 48
0.5
370
    -3
100
AcDbLine
 10
1965.399999999635
 20
169.5000000000002
 30
0.0
 11
1965.399999999635
 21
167.0000000000002
 31
0.0
  0
ARC
  5
6D4F
330
1F
100
AcDbEntity
  8
0
  6
Continuous
 62
     7
 48
0.5
370
    -3
100
AcDbCircle
 10
1964.899999999635
 20
169.5000000000002
 30
0.0
 40
0.5
100
AcDbArc
 50
359.9999999999968
 51
90.0
  0
LINE
  5
6D50
330
1F
100
AcDbEntity
  8
0
  6
Continuous
 62
     7
 48
0.5
370
    -3
100
AcDbLine
 10
1971.999999999635
 20
169.5000000000002
 30
0.0
 11
1971.999999999635
 21
167.0000000000002
 31
0.0
  0
ARC
  5
6D51
330
1F
100
AcDbEntity
  8
0
  6
Continuous
 62
     7
 48
0.5
370
    -3
100
AcDbCircle
 10
1971.499999999635
 20
169.5000000000002
 30
0.0
 40
0.5
100
AcDbArc
 50
0.0
 51
90.0
  0
LINE
  5
6D52
330
1F
100
AcDbEntity
  8
0
  6
Continuous
 62
     7
 48
0.5
370
    -3
100
AcDbLine
 10
1967.16113317324
 20
175.0000000000002
 30
0.0
 11
1967.16113317324
 21
170.0000000000002
 31
0.0
  0
LINE
  5
6D53
330
1F
100
AcDbEntity
  8
0
  6
Continuous
 62
     7
 48
0.5
370
    -3
100
AcDbLine
 10
1975.599999999639
 20
204.0000000000003
 30
0.0
 11
1975.599999999639
 21
175.0000000000002
 31
0.0
  0
ARC
  5
6D54
330
1F
100
AcDbEntity
  8
0
  6
Continuous
 62
     7
 48
0.5
370
    -3
100
AcDbCircle
 10
1974.599999999639
 20
204.0000000000003
 30
0.0
 40
1.0
100
AcDbArc
 50
0.0
 51
90.0
  0
LINE
  5
6D55
330
1F
100
AcDbEntity
  8
0
  6
Continuous
 62
     7
 48
0.5
370
    -3
100
AcDbLine
 10
1972.59999999964
 20
205.0000000000003
 30
0.0
 11
1972.59999999964
 21
175.0000000000002
 31
0.0
  0
LINE
  5
6D56
330
1F
100
AcDbEntity
  8
0
  6
Continuous
 62
     7
 48
0.5
370
    -3
100
AcDbLine
 10
1970.500879135396
 20
175.0000000000002
 30
0.0
 11
1970.500879135396
 21
170.0000000000002
 31
0.0
  0
ARC
  5
6D57
330
1F
100
AcDbEntity
  8
0
  6
Continuous
 62
     7
 48
0.5
370
    -3
100
AcDbCircle
 10
1938.399999999637
 20
169.5000000000002
 30
0.0
 40
0.5
100
AcDbArc
 50
90.0
 51
180.0000000000032
  0
LINE
  5
6D58
330
1F
100
AcDbEntity
  8
0
  6
Continuous
 62
     7
 48
0.5
370
    -3
100
AcDbLine
 10
1774.999999999629
 20
205.0000000000002
 30
0.0
 11
1810.699999999632
 21
205.0000000000003
 31
0.0
  0
LINE
  5
6D59
330
1F
100
AcDbEntity
  8
0
  6
Continuous
 62
     7
 48
0.5
370
    -3
100
AcDbLine
 10
1778.099999999633
 20
170.0000000000003
 30
0.0
 11
1811.199999999631
 21
170.0000000000002
 31
0.0
  0
LINE
  5
6D5A
330
1F
100
AcDbEntity
  8
0
  6
Continuous
 62
     7
 48
0.5
370
    -3
100
AcDbLine
 10
1773.999999999629
 20
175.0000000000002
 30
0.0
 11
1782.438866826028
 21
175.0000000000002
 31
0.0
  0
LINE
  5
6D5B
330
1F
100
AcDbEntity
  8
0
  6
Continuous
 62
     7
 48
0.5
370
    -3
100
AcDbLine
 10
1824.799999999636
 20
167.0000000000002
 30
0.0
 11
1824.799999999636
 21
192.0000000000003
 31
0.0
  0
LINE
  5
6D5C
330
1F
100
AcDbEntity
  8
0
  6
Continuous
 62
     7
 48
0.5
370
    -3
100
AcDbLine
 10
1811.699999999631
 20
167.0000000000003
 30
0.0
 11
1811.699999999632
 21
204.0000000000003
 31
0.0
  0
ARC
  5
6D5D
330
1F
100
AcDbEntity
  8
0
  6
Continuous
 62
     7
 48
0.5
370
    -3
100
AcDbCircle
 10
1810.699999999632
 20
204.0000000000003
 30
0.0
 40
1.0
100
AcDbArc
 50
359.9999999999968
 51
90.0
  0
LINE
  5
6D5E
330
1F
100
AcDbEntity
  8
0
  6
Continuous
 62
     7
 48
0.5
370
    -3
100
AcDbLine
 10
1774.79999999963
 20
167.0000000000002
 30
0.0
 11
1774.79999999963
 21
163.0000000000003
 31
0.0
  0
LINE
  5
6D5F
330
1F
100
AcDbEntity
  8
0
  6
Continuous
 62
     7
 48
0.5
370
    -3
100
AcDbLine
 10
1784.199999999633
 20
169.5000000000002
 30
0.0
 11
1784.199999999634
 21
167.0000000000002
 31
0.0
  0
ARC
  5
6D60
330
1F
100
AcDbEntity
  8
0
  6
Continuous
 62
     7
 48
0.5
370
    -3
100
AcDbCircle
 10
1784.699999999633
 20
169.5000000000002
 30
0.0
 40
0.5
100
AcDbArc
 50
90.0
 51
180.0000000000032
  0
LINE
  5
6D61
330
1F
100
AcDbEntity
  8
0
  6
Continuous
 62
     7
 48
0.5
370
    -3
100
AcDbLine
 10
1777.599999999633
 20
169.5000000000002
 30
0.0
 11
1777.599999999633
 21
167.0000000000002
 31
0.0
  0
ARC
  5
6D62
330
1F
100
AcDbEntity
  8
0
  6
Continuous
 62
     7
 48
0.5
370
    -3
100
AcDbCircle
 10
1778.099999999633
 20
169.5000000000002
 30
0.0
 40
0.5
100
AcDbArc
 50
90.0
 51
180.0
  0
LINE
  5
6D63
330
1F
100
AcDbEntity
  8
0
  6
Continuous
 62
     7
 48
0.5
370
    -3
100
AcDbLine
 10
1782.438866826028
 20
175.0000000000002
 30
0.0
 11
1782.438866826028
 21
170.0000000000002
 31
0.0
  0
LINE
  5
6D64
330
1F
100
AcDbEntity
  8
0
  6
Continuous
 62
     7
 48
0.5
370
    -3
100
AcDbLine
 10
1773.999999999629
 20
204.0000000000003
 30
0.0
 11
1773.999999999629
 21
175.0000000000002
 31
0.0
  0
ARC
  5
6D65
330
1F
100
AcDbEntity
  8
0
  6
Continuous
 62
     7
 48
0.5
370
    -3
100
AcDbCircle
 10
1774.999999999629
 20
204.0000000000003
 30
0.0
 40
1.0
100
AcDbArc
 50
90.0
 51
180.0
  0
LINE
  5
6D66
330
1F
100
AcDbEntity
  8
0
  6
Continuous
 62
     7
 48
0.5
370
    -3
100
AcDbLine
 10
1776.999999999629
 20
205.0000000000003
 30
0.0
 11
1776.999999999629
 21
175.0000000000002
 31
0.0
  0
LINE
  5
6D67
330
1F
100
AcDbEntity
  8
0
  6
Continuous
 62
     7
 48
0.5
370
    -3
100
AcDbLine
 10
1779.099120863872
 20
175.0000000000002
 30
0.0
 11
1779.099120863872
 21
170.0000000000002
 31
0.0
  0
ARC
  5
6D68
330
1F
100
AcDbEntity
  8
0
  6
Continuous
 62
     7
 48
0.5
370
    -3
100
AcDbCircle
 10
1811.199999999631
 20
169.5000000000002
 30
0.0
 40
0.5
100
AcDbArc
 50
359.9999999999968
 51
90.0
  0
MTEXT
  5
6D69
330
1F
100
AcDbEntity
  8
0
  6
Continuous
 62
     1
 48
0.5
370
    -3
100
AcDbMText
 10
1874.799999999632
 20
-5.000000000000056
 30
0.0
 40
2.5
 41
32.05805302350382
 46
0.0
 71
     2
 72
     5
  1
6号150型
 73
     1
 44
1.0
1001
ACAD
1000
ACAD_MTEXT_COLUMN_INFO_BEGIN
1070
    75
1070
     2
1070
    79
1070
     0
1070
    76
1070
     1
1070
    78
1070
     0
1070
    48
1040
32.05805302350382
1070
    49
1040
12.5
1070
    50
1070
     1
1040
0.0
1000
ACAD_MTEXT_COLUMN_INFO_END
  0
MTEXT
  5
6D6A
330
1F
100
AcDbEntity
  8
0
  6
Continuous
 62
     1
 48
0.5
370
    -3
100
AcDbMText
 10
1874.799999999632
 20
-13.00000000000006
 30
0.0
 40
2.5
 41
32.05805302350382
 46
0.0
 71
     2
 72
     5
  1
KMDE615□
 73
     1
 44
1.0
1001
ACAD
1000
ACAD_MTEXT_COLUMN_INFO_BEGIN
1070
    75
1070
     2
1070
    79
1070
     0
1070
    76
1070
     1
1070
    78
1070
     0
1070
    48
1040
32.05805302350382
1070
    49
1040
12.5
1070
    50
1070
     1
1040
0.0
1000
ACAD_MTEXT_COLUMN_INFO_END
  0
LINE
  5
6DC3
330
1F
100
AcDbEntity
  8
0
  6
Continuous
 62
     7
 48
0.5
370
    -3
100
AcDbLine
 10
2206.19999999965
 20
255.0000000000002
 30
0.0
 11
2170.499999999647
 21
255.0000000000003
 31
0.0
  0
LINE
  5
6DC4
330
1F
100
AcDbEntity
  8
0
  6
Continuous
 62
     7
 48
0.5
370
    -3
100
AcDbLine
 10
2206.399999999649
 20
213.0000000000002
 30
0.0
 11
2006.399999999641
 21
213.0000000000003
 31
0.0
  0
LINE
  5
6DC5
330
1F
100
AcDbEntity
  8
0
  6
Continuous
 62
     7
 48
0.5
370
    -3
100
AcDbLine
 10
2206.399999999649
 20
217.0000000000003
 30
0.0
 11
2006.399999999641
 21
217.0000000000003
 31
0.0
  0
LINE
  5
6DC6
330
1F
100
AcDbEntity
  8
0
  6
Continuous
 62
     7
 48
0.5
370
    -3
100
AcDbLine
 10
2203.099999999646
 20
220.0000000000003
 30
0.0
 11
2169.999999999648
 21
220.0000000000003
 31
0.0
  0
LINE
  5
6DC7
330
1F
100
AcDbEntity
  8
0
  6
Continuous
 62
     7
 48
0.5
370
    -3
100
AcDbLine
 10
2207.19999999965
 20
225.0000000000003
 30
0.0
 11
2198.761133173251
 21
225.0000000000003
 31
0.0
  0
LINE
  5
6DC8
330
1F
100
AcDbEntity
  8
0
  6
Continuous
 62
     7
 48
0.5
370
    -3
100
AcDbLine
 10
2156.399999999643
 20
242.0000000000003
 30
0.0
 11
2056.399999999647
 21
242.0000000000003
 31
0.0
  0
LINE
  5
6DC9
330
1F
100
AcDbEntity
  8
0
  6
CENTER2
 62
     2
 48
0.5
370
    -3
100
AcDbLine
 10
2106.399999999645
 20
210.0000000000004
 30
0.0
 11
2106.399999999644
 21
258.0000000000004
 31
0.0
  0
LINE
  5
6DCA
330
1F
100
AcDbEntity
  8
0
  6
Continuous
 62
     7
 48
0.5
370
    -3
100
AcDbLine
 10
2156.399999999643
 20
217.0000000000003
 30
0.0
 11
2156.399999999643
 21
242.0000000000003
 31
0.0
  0
LINE
  5
6DCB
330
1F
100
AcDbEntity
  8
0
  6
Continuous
 62
     7
 48
0.5
370
    -3
100
AcDbLine
 10
2169.499999999648
 20
217.0000000000003
 30
0.0
 11
2169.499999999647
 21
254.0000000000003
 31
0.0
  0
ARC
  5
6DCC
330
1F
100
AcDbEntity
  8
0
  6
Continuous
 62
     7
 48
0.5
370
    -3
100
AcDbCircle
 10
2170.499999999647
 20
254.0000000000004
 30
0.0
 40
1.0
100
AcDbArc
 50
90.0
 51
180.0000000000032
  0
LINE
  5
6DCD
330
1F
100
AcDbEntity
  8
0
  6
Continuous
 62
     7
 48
0.5
370
    -3
100
AcDbLine
 10
2206.399999999649
 20
217.0000000000003
 30
0.0
 11
2206.399999999649
 21
213.0000000000003
 31
0.0
  0
LINE
  5
6DCE
330
1F
100
AcDbEntity
  8
0
  6
Continuous
 62
     7
 48
0.5
370
    -3
100
AcDbLine
 10
2196.999999999645
 20
219.5000000000002
 30
0.0
 11
2196.999999999645
 21
217.0000000000003
 31
0.0
  0
ARC
  5
6DCF
330
1F
100
AcDbEntity
  8
0
  6
Continuous
 62
     7
 48
0.5
370
    -3
100
AcDbCircle
 10
2196.499999999645
 20
219.5000000000002
 30
0.0
 40
0.5
100
AcDbArc
 50
359.9999999999968
 51
90.0
  0
LINE
  5
6DD0
330
1F
100
AcDbEntity
  8
0
  6
Continuous
 62
     7
 48
0.5
370
    -3
100
AcDbLine
 10
2203.599999999646
 20
219.5000000000002
 30
0.0
 11
2203.599999999646
 21
217.0000000000003
 31
0.0
  0
ARC
  5
6DD1
330
1F
100
AcDbEntity
  8
0
  6
Continuous
 62
     7
 48
0.5
370
    -3
100
AcDbCircle
 10
2203.099999999646
 20
219.5000000000002
 30
0.0
 40
0.5
100
AcDbArc
 50
0.0
 51
90.0
  0
LINE
  5
6DD2
330
1F
100
AcDbEntity
  8
0
  6
Continuous
 62
     7
 48
0.5
370
    -3
100
AcDbLine
 10
2198.761133173251
 20
225.0000000000003
 30
0.0
 11
2198.761133173251
 21
220.0000000000002
 31
0.0
  0
LINE
  5
6DD3
330
1F
100
AcDbEntity
  8
0
  6
Continuous
 62
     7
 48
0.5
370
    -3
100
AcDbLine
 10
2207.19999999965
 20
254.0000000000003
 30
0.0
 11
2207.19999999965
 21
225.0000000000003
 31
0.0
  0
ARC
  5
6DD4
330
1F
100
AcDbEntity
  8
0
  6
Continuous
 62
     7
 48
0.5
370
    -3
100
AcDbCircle
 10
2206.19999999965
 20
254.0000000000003
 30
0.0
 40
1.0
100
AcDbArc
 50
0.0
 51
90.0
  0
LINE
  5
6DD5
330
1F
100
AcDbEntity
  8
0
  6
Continuous
 62
     7
 48
0.5
370
    -3
100
AcDbLine
 10
2204.19999999965
 20
255.0000000000003
 30
0.0
 11
2204.19999999965
 21
225.0000000000003
 31
0.0
  0
LINE
  5
6DD6
330
1F
100
AcDbEntity
  8
0
  6
Continuous
 62
     7
 48
0.5
370
    -3
100
AcDbLine
 10
2202.100879135406
 20
225.0000000000003
 30
0.0
 11
2202.100879135406
 21
220.0000000000002
 31
0.0
  0
ARC
  5
6DD7
330
1F
100
AcDbEntity
  8
0
  6
Continuous
 62
     7
 48
0.5
370
    -3
100
AcDbCircle
 10
2169.999999999648
 20
219.5000000000002
 30
0.0
 40
0.5
100
AcDbArc
 50
90.0
 51
180.0000000000032
  0
LINE
  5
6DD8
330
1F
100
AcDbEntity
  8
0
  6
Continuous
 62
     7
 48
0.5
370
    -3
100
AcDbLine
 10
2006.59999999964
 20
255.0000000000003
 30
0.0
 11
2042.299999999642
 21
255.0000000000003
 31
0.0
  0
LINE
  5
6DD9
330
1F
100
AcDbEntity
  8
0
  6
Continuous
 62
     7
 48
0.5
370
    -3
100
AcDbLine
 10
2009.699999999644
 20
220.0000000000003
 30
0.0
 11
2042.799999999642
 21
220.0000000000003
 31
0.0
  0
LINE
  5
6DDA
330
1F
100
AcDbEntity
  8
0
  6
Continuous
 62
     7
 48
0.5
370
    -3
100
AcDbLine
 10
2005.59999999964
 20
225.0000000000003
 30
0.0
 11
2014.038866826039
 21
225.0000000000003
 31
0.0
  0
LINE
  5
6DDB
330
1F
100
AcDbEntity
  8
0
  6
Continuous
 62
     7
 48
0.5
370
    -3
100
AcDbLine
 10
2056.399999999646
 20
217.0000000000003
 30
0.0
 11
2056.399999999647
 21
242.0000000000003
 31
0.0
  0
LINE
  5
6DDC
330
1F
100
AcDbEntity
  8
0
  6
Continuous
 62
     7
 48
0.5
370
    -3
100
AcDbLine
 10
2043.299999999641
 20
217.0000000000003
 30
0.0
 11
2043.299999999643
 21
254.0000000000003
 31
0.0
  0
ARC
  5
6DDD
330
1F
100
AcDbEntity
  8
0
  6
Continuous
 62
     7
 48
0.5
370
    -3
100
AcDbCircle
 10
2042.299999999642
 20
254.0000000000004
 30
0.0
 40
1.0
100
AcDbArc
 50
359.9999999999968
 51
90.0
  0
LINE
  5
6DDE
330
1F
100
AcDbEntity
  8
0
  6
Continuous
 62
     7
 48
0.5
370
    -3
100
AcDbLine
 10
2006.399999999641
 20
217.0000000000003
 30
0.0
 11
2006.399999999641
 21
213.0000000000003
 31
0.0
  0
LINE
  5
6DDF
330
1F
100
AcDbEntity
  8
0
  6
Continuous
 62
     7
 48
0.5
370
    -3
100
AcDbLine
 10
2015.799999999644
 20
219.5000000000003
 30
0.0
 11
2015.799999999644
 21
217.0000000000003
 31
0.0
  0
ARC
  5
6DE0
330
1F
100
AcDbEntity
  8
0
  6
Continuous
 62
     7
 48
0.5
370
    -3
100
AcDbCircle
 10
2016.299999999644
 20
219.5000000000003
 30
0.0
 40
0.5
100
AcDbArc
 50
90.0
 51
180.0000000000032
  0
LINE
  5
6DE1
330
1F
100
AcDbEntity
  8
0
  6
Continuous
 62
     7
 48
0.5
370
    -3
100
AcDbLine
 10
2009.199999999644
 20
219.5000000000003
 30
0.0
 11
2009.199999999644
 21
217.0000000000003
 31
0.0
  0
ARC
  5
6DE2
330
1F
100
AcDbEntity
  8
0
  6
Continuous
 62
     7
 48
0.5
370
    -3
100
AcDbCircle
 10
2009.699999999644
 20
219.5000000000003
 30
0.0
 40
0.5
100
AcDbArc
 50
90.0
 51
180.0
  0
LINE
  5
6DE3
330
1F
100
AcDbEntity
  8
0
  6
Continuous
 62
     7
 48
0.5
370
    -3
100
AcDbLine
 10
2014.038866826039
 20
225.0000000000003
 30
0.0
 11
2014.038866826039
 21
220.0000000000003
 31
0.0
  0
LINE
  5
6DE4
330
1F
100
AcDbEntity
  8
0
  6
Continuous
 62
     7
 48
0.5
370
    -3
100
AcDbLine
 10
2005.59999999964
 20
254.0000000000004
 30
0.0
 11
2005.59999999964
 21
225.0000000000003
 31
0.0
  0
ARC
  5
6DE5
330
1F
100
AcDbEntity
  8
0
  6
Continuous
 62
     7
 48
0.5
370
    -3
100
AcDbCircle
 10
2006.59999999964
 20
254.0000000000004
 30
0.0
 40
1.0
100
AcDbArc
 50
90.0
 51
180.0
  0
LINE
  5
6DE6
330
1F
100
AcDbEntity
  8
0
  6
Continuous
 62
     7
 48
0.5
370
    -3
100
AcDbLine
 10
2008.59999999964
 20
255.0000000000003
 30
0.0
 11
2008.59999999964
 21
225.0000000000003
 31
0.0
  0
LINE
  5
6DE7
330
1F
100
AcDbEntity
  8
0
  6
Continuous
 62
     7
 48
0.5
370
    -3
100
AcDbLine
 10
2010.699120863883
 20
225.0000000000003
 30
0.0
 11
2010.699120863883
 21
220.0000000000003
 31
0.0
  0
ARC
  5
6DE8
330
1F
100
AcDbEntity
  8
0
  6
Continuous
 62
     7
 48
0.5
370
    -3
100
AcDbCircle
 10
2042.799999999642
 20
219.5000000000002
 30
0.0
 40
0.5
100
AcDbArc
 50
359.9999999999968
 51
90.0
  0
MTEXT
  5
6DE9
330
1F
100
AcDbEntity
  8
0
  6
Continuous
 62
     1
 48
0.5
370
    -3
100
AcDbMText
 10
2106.399999999642
 20
-5.000000000000063
 30
0.0
 40
2.5
 41
32.05805302350382
 46
0.0
 71
     2
 72
     5
  1
6号200型
 73
     1
 44
1.0
1001
ACAD
1000
ACAD_MTEXT_COLUMN_INFO_BEGIN
1070
    75
1070
     2
1070
    79
1070
     0
1070
    76
1070
     1
1070
    78
1070
     0
1070
    48
1040
32.05805302350382
1070
    49
1040
12.5
1070
    50
1070
     1
1040
0.0
1000
ACAD_MTEXT_COLUMN_INFO_END
  0
MTEXT
  5
6DEA
330
1F
100
AcDbEntity
  8
0
  6
Continuous
 62
     1
 48
0.5
370
    -3
100
AcDbMText
 10
2106.399999999642
 20
-13.00000000000006
 30
0.0
 40
2.5
 41
32.05805302350382
 46
0.0
 71
     2
 72
     5
  1
KMDE620□
 73
     1
 44
1.0
1001
ACAD
1000
ACAD_MTEXT_COLUMN_INFO_BEGIN
1070
    75
1070
     2
1070
    79
1070
     0
1070
    76
1070
     1
1070
    78
1070
     0
1070
    48
1040
32.05805302350382
1070
    49
1040
12.5
1070
    50
1070
     1
1040
0.0
1000
ACAD_MTEXT_COLUMN_INFO_END
  0
LINE
  5
6E8B
330
1F
100
AcDbEntity
  8
0
  6
Continuous
 62
     7
 48
0.5
370
    -3
100
AcDbLine
 10
2487.799999999661
 20
155.0000000000003
 30
0.0
 11
2452.099999999658
 21
155.0000000000003
 31
0.0
  0
LINE
  5
6E8C
330
1F
100
AcDbEntity
  8
0
  6
Continuous
 62
     7
 48
0.5
370
    -3
100
AcDbLine
 10
2487.999999999659
 20
113.0000000000002
 30
0.0
 11
2237.999999999652
 21
113.0000000000003
 31
0.0
  0
LINE
  5
6E8D
330
1F
100
AcDbEntity
  8
0
  6
Continuous
 62
     7
 48
0.5
370
    -3
100
AcDbLine
 10
2487.999999999659
 20
117.0000000000003
 30
0.0
 11
2237.999999999652
 21
117.0000000000003
 31
0.0
  0
LINE
  5
6E8E
330
1F
100
AcDbEntity
  8
0
  6
Continuous
 62
     7
 48
0.5
370
    -3
100
AcDbLine
 10
2484.699999999657
 20
120.0000000000003
 30
0.0
 11
2451.599999999658
 21
120.0000000000003
 31
0.0
  0
LINE
  5
6E8F
330
1F
100
AcDbEntity
  8
0
  6
Continuous
 62
     7
 48
0.5
370
    -3
100
AcDbLine
 10
2488.799999999661
 20
125.0000000000003
 30
0.0
 11
2480.361133173262
 21
125.0000000000003
 31
0.0
  0
LINE
  5
6E90
330
1F
100
AcDbEntity
  8
0
  6
Continuous
 62
     7
 48
0.5
370
    -3
100
AcDbLine
 10
2437.999999999654
 20
142.0000000000003
 30
0.0
 11
2287.999999999657
 21
142.0000000000003
 31
0.0
  0
LINE
  5
6E91
330
1F
100
AcDbEntity
  8
0
  6
CENTER2
 62
     2
 48
0.5
370
    -3
100
AcDbLine
 10
2362.999999999655
 20
110.0000000000003
 30
0.0
 11
2362.999999999654
 21
158.0000000000003
 31
0.0
  0
LINE
  5
6E92
330
1F
100
AcDbEntity
  8
0
  6
Continuous
 62
     7
 48
0.5
370
    -3
100
AcDbLine
 10
2437.999999999654
 20
117.0000000000003
 30
0.0
 11
2437.999999999654
 21
142.0000000000003
 31
0.0
  0
LINE
  5
6E93
330
1F
100
AcDbEntity
  8
0
  6
Continuous
 62
     7
 48
0.5
370
    -3
100
AcDbLine
 10
2451.099999999659
 20
117.0000000000003
 30
0.0
 11
2451.099999999657
 21
154.0000000000003
 31
0.0
  0
ARC
  5
6E94
330
1F
100
AcDbEntity
  8
0
  6
Continuous
 62
     7
 48
0.5
370
    -3
100
AcDbCircle
 10
2452.099999999658
 20
154.0000000000003
 30
0.0
 40
1.0
100
AcDbArc
 50
90.0
 51
180.0000000000032
  0
LINE
  5
6E95
330
1F
100
AcDbEntity
  8
0
  6
Continuous
 62
     7
 48
0.5
370
    -3
100
AcDbLine
 10
2487.999999999659
 20
117.0000000000003
 30
0.0
 11
2487.999999999659
 21
113.0000000000003
 31
0.0
  0
LINE
  5
6E96
330
1F
100
AcDbEntity
  8
0
  6
Continuous
 62
     7
 48
0.5
370
    -3
100
AcDbLine
 10
2478.599999999657
 20
119.5000000000003
 30
0.0
 11
2478.599999999656
 21
117.0000000000003
 31
0.0
  0
ARC
  5
6E97
330
1F
100
AcDbEntity
  8
0
  6
Continuous
 62
     7
 48
0.5
370
    -3
100
AcDbCircle
 10
2478.099999999657
 20
119.5000000000003
 30
0.0
 40
0.5
100
AcDbArc
 50
359.9999999999968
 51
90.0
  0
LINE
  5
6E98
330
1F
100
AcDbEntity
  8
0
  6
Continuous
 62
     7
 48
0.5
370
    -3
100
AcDbLine
 10
2485.199999999657
 20
119.5000000000003
 30
0.0
 11
2485.199999999657
 21
117.0000000000003
 31
0.0
  0
ARC
  5
6E99
330
1F
100
AcDbEntity
  8
0
  6
Continuous
 62
     7
 48
0.5
370
    -3
100
AcDbCircle
 10
2484.699999999657
 20
119.5000000000003
 30
0.0
 40
0.5
100
AcDbArc
 50
0.0
 51
90.0
  0
LINE
  5
6E9A
330
1F
100
AcDbEntity
  8
0
  6
Continuous
 62
     7
 48
0.5
370
    -3
100
AcDbLine
 10
2480.361133173262
 20
125.0000000000003
 30
0.0
 11
2480.361133173262
 21
120.0000000000003
 31
0.0
  0
LINE
  5
6E9B
330
1F
100
AcDbEntity
  8
0
  6
Continuous
 62
     7
 48
0.5
370
    -3
100
AcDbLine
 10
2488.799999999661
 20
154.0000000000003
 30
0.0
 11
2488.799999999661
 21
125.0000000000003
 31
0.0
  0
ARC
  5
6E9C
330
1F
100
AcDbEntity
  8
0
  6
Continuous
 62
     7
 48
0.5
370
    -3
100
AcDbCircle
 10
2487.799999999661
 20
154.0000000000003
 30
0.0
 40
1.0
100
AcDbArc
 50
0.0
 51
90.0
  0
LINE
  5
6E9D
330
1F
100
AcDbEntity
  8
0
  6
Continuous
 62
     7
 48
0.5
370
    -3
100
AcDbLine
 10
2485.799999999661
 20
155.0000000000003
 30
0.0
 11
2485.799999999661
 21
125.0000000000003
 31
0.0
  0
LINE
  5
6E9E
330
1F
100
AcDbEntity
  8
0
  6
Continuous
 62
     7
 48
0.5
370
    -3
100
AcDbLine
 10
2483.700879135418
 20
125.0000000000003
 30
0.0
 11
2483.700879135418
 21
120.0000000000003
 31
0.0
  0
ARC
  5
6E9F
330
1F
100
AcDbEntity
  8
0
  6
Continuous
 62
     7
 48
0.5
370
    -3
100
AcDbCircle
 10
2451.599999999658
 20
119.5000000000002
 30
0.0
 40
0.5
100
AcDbArc
 50
90.0
 51
180.0000000000032
  0
LINE
  5
6EA0
330
1F
100
AcDbEntity
  8
0
  6
Continuous
 62
     7
 48
0.5
370
    -3
100
AcDbLine
 10
2238.19999999965
 20
155.0000000000003
 30
0.0
 11
2273.899999999653
 21
155.0000000000004
 31
0.0
  0
LINE
  5
6EA1
330
1F
100
AcDbEntity
  8
0
  6
Continuous
 62
     7
 48
0.5
370
    -3
100
AcDbLine
 10
2241.299999999655
 20
120.0000000000003
 30
0.0
 11
2274.399999999653
 21
120.0000000000003
 31
0.0
  0
LINE
  5
6EA2
330
1F
100
AcDbEntity
  8
0
  6
Continuous
 62
     7
 48
0.5
370
    -3
100
AcDbLine
 10
2237.199999999651
 20
125.0000000000003
 30
0.0
 11
2245.63886682605
 21
125.0000000000003
 31
0.0
  0
LINE
  5
6EA3
330
1F
100
AcDbEntity
  8
0
  6
Continuous
 62
     7
 48
0.5
370
    -3
100
AcDbLine
 10
2287.999999999657
 20
117.0000000000003
 30
0.0
 11
2287.999999999658
 21
142.0000000000003
 31
0.0
  0
LINE
  5
6EA4
330
1F
100
AcDbEntity
  8
0
  6
Continuous
 62
     7
 48
0.5
370
    -3
100
AcDbLine
 10
2274.899999999652
 20
117.0000000000003
 30
0.0
 11
2274.899999999654
 21
154.0000000000003
 31
0.0
  0
ARC
  5
6EA5
330
1F
100
AcDbEntity
  8
0
  6
Continuous
 62
     7
 48
0.5
370
    -3
100
AcDbCircle
 10
2273.899999999653
 20
154.0000000000004
 30
0.0
 40
1.0
100
AcDbArc
 50
359.9999999999968
 51
90.0
  0
LINE
  5
6EA6
330
1F
100
AcDbEntity
  8
0
  6
Continuous
 62
     7
 48
0.5
370
    -3
100
AcDbLine
 10
2237.999999999652
 20
117.0000000000003
 30
0.0
 11
2237.999999999652
 21
113.0000000000003
 31
0.0
  0
LINE
  5
6EA7
330
1F
100
AcDbEntity
  8
0
  6
Continuous
 62
     7
 48
0.5
370
    -3
100
AcDbLine
 10
2247.399999999655
 20
119.5000000000003
 30
0.0
 11
2247.399999999655
 21
117.0000000000003
 31
0.0
  0
ARC
  5
6EA8
330
1F
100
AcDbEntity
  8
0
  6
Continuous
 62
     7
 48
0.5
370
    -3
100
AcDbCircle
 10
2247.899999999655
 20
119.5000000000003
 30
0.0
 40
0.5
100
AcDbArc
 50
90.0
 51
180.0000000000032
  0
LINE
  5
6EA9
330
1F
100
AcDbEntity
  8
0
  6
Continuous
 62
     7
 48
0.5
370
    -3
100
AcDbLine
 10
2240.799999999655
 20
119.5000000000003
 30
0.0
 11
2240.799999999655
 21
117.0000000000003
 31
0.0
  0
ARC
  5
6EAA
330
1F
100
AcDbEntity
  8
0
  6
Continuous
 62
     7
 48
0.5
370
    -3
100
AcDbCircle
 10
2241.299999999655
 20
119.5000000000003
 30
0.0
 40
0.5
100
AcDbArc
 50
90.0
 51
180.0
  0
LINE
  5
6EAB
330
1F
100
AcDbEntity
  8
0
  6
Continuous
 62
     7
 48
0.5
370
    -3
100
AcDbLine
 10
2245.63886682605
 20
125.0000000000003
 30
0.0
 11
2245.63886682605
 21
120.0000000000003
 31
0.0
  0
LINE
  5
6EAC
330
1F
100
AcDbEntity
  8
0
  6
Continuous
 62
     7
 48
0.5
370
    -3
100
AcDbLine
 10
2237.199999999651
 20
154.0000000000004
 30
0.0
 11
2237.199999999651
 21
125.0000000000003
 31
0.0
  0
ARC
  5
6EAD
330
1F
100
AcDbEntity
  8
0
  6
Continuous
 62
     7
 48
0.5
370
    -3
100
AcDbCircle
 10
2238.19999999965
 20
154.0000000000004
 30
0.0
 40
1.0
100
AcDbArc
 50
90.0
 51
180.0
  0
LINE
  5
6EAE
330
1F
100
AcDbEntity
  8
0
  6
Continuous
 62
     7
 48
0.5
370
    -3
100
AcDbLine
 10
2240.199999999651
 20
155.0000000000004
 30
0.0
 11
2240.199999999651
 21
125.0000000000003
 31
0.0
  0
LINE
  5
6EAF
330
1F
100
AcDbEntity
  8
0
  6
Continuous
 62
     7
 48
0.5
370
    -3
100
AcDbLine
 10
2242.299120863894
 20
125.0000000000003
 30
0.0
 11
2242.299120863894
 21
120.0000000000003
 31
0.0
  0
ARC
  5
6EB0
330
1F
100
AcDbEntity
  8
0
  6
Continuous
 62
     7
 48
0.5
370
    -3
100
AcDbCircle
 10
2274.399999999653
 20
119.5000000000002
 30
0.0
 40
0.5
100
AcDbArc
 50
359.9999999999968
 51
90.0
  0
MTEXT
  5
6EB1
330
1F
100
AcDbEntity
  8
0
  6
Continuous
 62
     1
 48
0.5
370
    -3
100
AcDbMText
 10
2362.999999999653
 20
-5.000000000000071
 30
0.0
 40
2.5
 41
32.05805302350382
 46
0.0
 71
     2
 72
     5
  1
7号
 73
     1
 44
1.0
1001
ACAD
1000
ACAD_MTEXT_COLUMN_INFO_BEGIN
1070
    75
1070
     2
1070
    79
1070
     0
1070
    76
1070
     1
1070
    78
1070
     0
1070
    48
1040
32.05805302350382
1070
    49
1040
12.5
1070
    50
1070
     1
1040
0.0
1000
ACAD_MTEXT_COLUMN_INFO_END
  0
MTEXT
  5
6EB2
330
1F
100
AcDbEntity
  8
0
  6
Continuous
 62
     1
 48
0.5
370
    -3
100
AcDbMText
 10
2362.999999999653
 20
-13.00000000000007
 30
0.0
 40
2.5
 41
32.05805302350382
 46
0.0
 71
     2
 72
     5
  1
KMDE7□
 73
     1
 44
1.0
1001
ACAD
1000
ACAD_MTEXT_COLUMN_INFO_BEGIN
1070
    75
1070
     2
1070
    79
1070
     0
1070
    76
1070
     1
1070
    78
1070
     0
1070
    48
1040
32.05805302350382
1070
    49
1040
12.5
1070
    50
1070
     1
1040
0.0
1000
ACAD_MTEXT_COLUMN_INFO_END
  0
LINE
  5
6F08
330
1F
100
AcDbEntity
  8
0
  6
Continuous
 62
     7
 48
0.5
370
    -3
100
AcDbLine
 10
2769.399999999671
 20
205.0000000000002
 30
0.0
 11
2733.699999999668
 21
205.0000000000003
 31
0.0
  0
LINE
  5
6F09
330
1F
100
AcDbEntity
  8
0
  6
Continuous
 62
     7
 48
0.5
370
    -3
100
AcDbLine
 10
2769.59999999967
 20
163.0000000000002
 30
0.0
 11
2519.599999999662
 21
163.0000000000003
 31
0.0
  0
LINE
  5
6F0A
330
1F
100
AcDbEntity
  8
0
  6
Continuous
 62
     7
 48
0.5
370
    -3
100
AcDbLine
 10
2769.59999999967
 20
167.0000000000002
 30
0.0
 11
2519.599999999662
 21
167.0000000000003
 31
0.0
  0
LINE
  5
6F0B
330
1F
100
AcDbEntity
  8
0
  6
Continuous
 62
     7
 48
0.5
370
    -3
100
AcDbLine
 10
2766.299999999667
 20
170.0000000000003
 30
0.0
 11
2733.199999999669
 21
170.0000000000003
 31
0.0
  0
LINE
  5
6F0C
330
1F
100
AcDbEntity
  8
0
  6
Continuous
 62
     7
 48
0.5
370
    -3
100
AcDbLine
 10
2770.399999999672
 20
175.0000000000002
 30
0.0
 11
2761.961133173273
 21
175.0000000000003
 31
0.0
  0
LINE
  5
6F0D
330
1F
100
AcDbEntity
  8
0
  6
Continuous
 62
     7
 48
0.5
370
    -3
100
AcDbLine
 10
2719.599999999664
 20
192.0000000000003
 30
0.0
 11
2569.599999999668
 21
192.0000000000003
 31
0.0
  0
LINE
  5
6F0E
330
1F
100
AcDbEntity
  8
0
  6
CENTER2
 62
     2
 48
0.5
370
    -3
100
AcDbLine
 10
2644.599999999666
 20
160.0000000000003
 30
0.0
 11
2644.599999999665
 21
208.0000000000004
 31
0.0
  0
LINE
  5
6F0F
330
1F
100
AcDbEntity
  8
0
  6
Continuous
 62
     7
 48
0.5
370
    -3
100
AcDbLine
 10
2719.599999999664
 20
167.0000000000003
 30
0.0
 11
2719.599999999664
 21
192.0000000000003
 31
0.0
  0
LINE
  5
6F10
330
1F
100
AcDbEntity
  8
0
  6
Continuous
 62
     7
 48
0.5
370
    -3
100
AcDbLine
 10
2732.699999999669
 20
167.0000000000003
 30
0.0
 11
2732.699999999668
 21
204.0000000000003
 31
0.0
  0
ARC
  5
6F11
330
1F
100
AcDbEntity
  8
0
  6
Continuous
 62
     7
 48
0.5
370
    -3
100
AcDbCircle
 10
2733.699999999668
 20
204.0000000000004
 30
0.0
 40
1.0
100
AcDbArc
 50
90.0
 51
180.0000000000032
  0
LINE
  5
6F12
330
1F
100
AcDbEntity
  8
0
  6
Continuous
 62
     7
 48
0.5
370
    -3
100
AcDbLine
 10
2769.59999999967
 20
167.0000000000002
 30
0.0
 11
2769.59999999967
 21
163.0000000000003
 31
0.0
  0
LINE
  5
6F13
330
1F
100
AcDbEntity
  8
0
  6
Continuous
 62
     7
 48
0.5
370
    -3
100
AcDbLine
 10
2760.199999999667
 20
169.5000000000003
 30
0.0
 11
2760.199999999667
 21
167.0000000000003
 31
0.0
  0
ARC
  5
6F14
330
1F
100
AcDbEntity
  8
0
  6
Continuous
 62
     7
 48
0.5
370
    -3
100
AcDbCircle
 10
2759.699999999667
 20
169.5000000000003
 30
0.0
 40
0.5
100
AcDbArc
 50
359.9999999999968
 51
90.0
  0
LINE
  5
6F15
330
1F
100
AcDbEntity
  8
0
  6
Continuous
 62
     7
 48
0.5
370
    -3
100
AcDbLine
 10
2766.799999999667
 20
169.5000000000002
 30
0.0
 11
2766.799999999667
 21
167.0000000000002
 31
0.0
  0
ARC
  5
6F16
330
1F
100
AcDbEntity
  8
0
  6
Continuous
 62
     7
 48
0.5
370
    -3
100
AcDbCircle
 10
2766.299999999667
 20
169.5000000000002
 30
0.0
 40
0.5
100
AcDbArc
 50
0.0
 51
90.0
  0
LINE
  5
6F17
330
1F
100
AcDbEntity
  8
0
  6
Continuous
 62
     7
 48
0.5
370
    -3
100
AcDbLine
 10
2761.961133173273
 20
175.0000000000003
 30
0.0
 11
2761.961133173273
 21
170.0000000000003
 31
0.0
  0
LINE
  5
6F18
330
1F
100
AcDbEntity
  8
0
  6
Continuous
 62
     7
 48
0.5
370
    -3
100
AcDbLine
 10
2770.399999999672
 20
204.0000000000003
 30
0.0
 11
2770.399999999672
 21
175.0000000000002
 31
0.0
  0
ARC
  5
6F19
330
1F
100
AcDbEntity
  8
0
  6
Continuous
 62
     7
 48
0.5
370
    -3
100
AcDbCircle
 10
2769.399999999671
 20
204.0000000000003
 30
0.0
 40
1.0
100
AcDbArc
 50
0.0
 51
90.0
  0
LINE
  5
6F1A
330
1F
100
AcDbEntity
  8
0
  6
Continuous
 62
     7
 48
0.5
370
    -3
100
AcDbLine
 10
2767.399999999672
 20
205.0000000000003
 30
0.0
 11
2767.399999999672
 21
175.0000000000002
 31
0.0
  0
LINE
  5
6F1B
330
1F
100
AcDbEntity
  8
0
  6
Continuous
 62
     7
 48
0.5
370
    -3
100
AcDbLine
 10
2765.300879135428
 20
175.0000000000002
 30
0.0
 11
2765.300879135428
 21
170.0000000000002
 31
0.0
  0
ARC
  5
6F1C
330
1F
100
AcDbEntity
  8
0
  6
Continuous
 62
     7
 48
0.5
370
    -3
100
AcDbCircle
 10
2733.199999999669
 20
169.5000000000002
 30
0.0
 40
0.5
100
AcDbArc
 50
90.0
 51
180.0000000000032
  0
LINE
  5
6F1D
330
1F
100
AcDbEntity
  8
0
  6
Continuous
 62
     7
 48
0.5
370
    -3
100
AcDbLine
 10
2519.799999999661
 20
205.0000000000003
 30
0.0
 11
2555.499999999664
 21
205.0000000000003
 31
0.0
  0
LINE
  5
6F1E
330
1F
100
AcDbEntity
  8
0
  6
Continuous
 62
     7
 48
0.5
370
    -3
100
AcDbLine
 10
2522.899999999665
 20
170.0000000000003
 30
0.0
 11
2555.999999999663
 21
170.0000000000003
 31
0.0
  0
LINE
  5
6F1F
330
1F
100
AcDbEntity
  8
0
  6
Continuous
 62
     7
 48
0.5
370
    -3
100
AcDbLine
 10
2518.799999999661
 20
175.0000000000003
 30
0.0
 11
2527.23886682606
 21
175.0000000000003
 31
0.0
  0
LINE
  5
6F20
330
1F
100
AcDbEntity
  8
0
  6
Continuous
 62
     7
 48
0.5
370
    -3
100
AcDbLine
 10
2569.599999999668
 20
167.0000000000003
 30
0.0
 11
2569.599999999668
 21
192.0000000000003
 31
0.0
  0
LINE
  5
6F21
330
1F
100
AcDbEntity
  8
0
  6
Continuous
 62
     7
 48
0.5
370
    -3
100
AcDbLine
 10
2556.499999999663
 20
167.0000000000003
 30
0.0
 11
2556.499999999664
 21
204.0000000000003
 31
0.0
  0
ARC
  5
6F22
330
1F
100
AcDbEntity
  8
0
  6
Continuous
 62
     7
 48
0.5
370
    -3
100
AcDbCircle
 10
2555.499999999664
 20
204.0000000000004
 30
0.0
 40
1.0
100
AcDbArc
 50
359.9999999999968
 51
90.0
  0
LINE
  5
6F23
330
1F
100
AcDbEntity
  8
0
  6
Continuous
 62
     7
 48
0.5
370
    -3
100
AcDbLine
 10
2519.599999999662
 20
167.0000000000003
 30
0.0
 11
2519.599999999662
 21
163.0000000000003
 31
0.0
  0
LINE
  5
6F24
330
1F
100
AcDbEntity
  8
0
  6
Continuous
 62
     7
 48
0.5
370
    -3
100
AcDbLine
 10
2528.999999999665
 20
169.5000000000003
 30
0.0
 11
2528.999999999665
 21
167.0000000000003
 31
0.0
  0
ARC
  5
6F25
330
1F
100
AcDbEntity
  8
0
  6
Continuous
 62
     7
 48
0.5
370
    -3
100
AcDbCircle
 10
2529.499999999666
 20
169.5000000000003
 30
0.0
 40
0.5
100
AcDbArc
 50
90.0
 51
180.0000000000032
  0
LINE
  5
6F26
330
1F
100
AcDbEntity
  8
0
  6
Continuous
 62
     7
 48
0.5
370
    -3
100
AcDbLine
 10
2522.399999999665
 20
169.5000000000003
 30
0.0
 11
2522.399999999665
 21
167.0000000000003
 31
0.0
  0
ARC
  5
6F27
330
1F
100
AcDbEntity
  8
0
  6
Continuous
 62
     7
 48
0.5
370
    -3
100
AcDbCircle
 10
2522.899999999665
 20
169.5000000000003
 30
0.0
 40
0.5
100
AcDbArc
 50
90.0
 51
180.0
  0
LINE
  5
6F28
330
1F
100
AcDbEntity
  8
0
  6
Continuous
 62
     7
 48
0.5
370
    -3
100
AcDbLine
 10
2527.23886682606
 20
175.0000000000003
 30
0.0
 11
2527.23886682606
 21
170.0000000000003
 31
0.0
  0
LINE
  5
6F29
330
1F
100
AcDbEntity
  8
0
  6
Continuous
 62
     7
 48
0.5
370
    -3
100
AcDbLine
 10
2518.799999999661
 20
204.0000000000004
 30
0.0
 11
2518.799999999661
 21
175.0000000000003
 31
0.0
  0
ARC
  5
6F2A
330
1F
100
AcDbEntity
  8
0
  6
Continuous
 62
     7
 48
0.5
370
    -3
100
AcDbCircle
 10
2519.799999999661
 20
204.0000000000004
 30
0.0
 40
1.0
100
AcDbArc
 50
90.0
 51
180.0
  0
LINE
  5
6F2B
330
1F
100
AcDbEntity
  8
0
  6
Continuous
 62
     7
 48
0.5
370
    -3
100
AcDbLine
 10
2521.799999999661
 20
205.0000000000004
 30
0.0
 11
2521.799999999661
 21
175.0000000000003
 31
0.0
  0
LINE
  5
6F2C
330
1F
100
AcDbEntity
  8
0
  6
Continuous
 62
     7
 48
0.5
370
    -3
100
AcDbLine
 10
2523.899120863905
 20
175.0000000000003
 30
0.0
 11
2523.899120863905
 21
170.0000000000003
 31
0.0
  0
ARC
  5
6F2D
330
1F
100
AcDbEntity
  8
0
  6
Continuous
 62
     7
 48
0.5
370
    -3
100
AcDbCircle
 10
2555.999999999663
 20
169.5000000000002
 30
0.0
 40
0.5
100
AcDbArc
 50
359.9999999999968
 51
90.0
  0
MTEXT
  5
6F2E
330
1F
100
AcDbEntity
  8
0
  6
Continuous
 62
     1
 48
0.5
370
    -3
100
AcDbMText
 10
2644.599999999663
 20
-5.000000000000078
 30
0.0
 40
2.5
 41
32.05805302350382
 46
0.0
 71
     2
 72
     5
  1
7号150型
 73
     1
 44
1.0
1001
ACAD
1000
ACAD_MTEXT_COLUMN_INFO_BEGIN
1070
    75
1070
     2
1070
    79
1070
     0
1070
    76
1070
     1
1070
    78
1070
     0
1070
    48
1040
32.05805302350382
1070
    49
1040
12.5
1070
    50
1070
     1
1040
0.0
1000
ACAD_MTEXT_COLUMN_INFO_END
  0
MTEXT
  5
6F2F
330
1F
100
AcDbEntity
  8
0
  6
Continuous
 62
     1
 48
0.5
370
    -3
100
AcDbMText
 10
2644.599999999663
 20
-13.00000000000008
 30
0.0
 40
2.5
 41
32.05805302350382
 46
0.0
 71
     2
 72
     5
  1
KMDE715□
 73
     1
 44
1.0
1001
ACAD
1000
ACAD_MTEXT_COLUMN_INFO_BEGIN
1070
    75
1070
     2
1070
    79
1070
     0
1070
    76
1070
     1
1070
    78
1070
     0
1070
    48
1040
32.05805302350382
1070
    49
1040
12.5
1070
    50
1070
     1
1040
0.0
1000
ACAD_MTEXT_COLUMN_INFO_END
  0
LINE
  5
6F86
330
1F
100
AcDbEntity
  8
0
  6
Continuous
 62
     7
 48
0.5
370
    -3
100
AcDbLine
 10
3050.999999999682
 20
255.0000000000002
 30
0.0
 11
3015.299999999678
 21
255.0000000000003
 31
0.0
  0
LINE
  5
6F87
330
1F
100
AcDbEntity
  8
0
  6
Continuous
 62
     7
 48
0.5
370
    -3
100
AcDbLine
 10
3051.19999999968
 20
213.0000000000002
 30
0.0
 11
2801.199999999673
 21
213.0000000000003
 31
0.0
  0
LINE
  5
6F88
330
1F
100
AcDbEntity
  8
0
  6
Continuous
 62
     7
 48
0.5
370
    -3
100
AcDbLine
 10
3051.19999999968
 20
217.0000000000003
 30
0.0
 11
2801.199999999673
 21
217.0000000000003
 31
0.0
  0
LINE
  5
6F89
330
1F
100
AcDbEntity
  8
0
  6
Continuous
 62
     7
 48
0.5
370
    -3
100
AcDbLine
 10
3047.899999999677
 20
220.0000000000003
 30
0.0
 11
3014.799999999679
 21
220.0000000000002
 31
0.0
  0
LINE
  5
6F8A
330
1F
100
AcDbEntity
  8
0
  6
Continuous
 62
     7
 48
0.5
370
    -3
100
AcDbLine
 10
3051.999999999682
 20
225.0000000000003
 30
0.0
 11
3043.561133173283
 21
225.0000000000003
 31
0.0
  0
LINE
  5
6F8B
330
1F
100
AcDbEntity
  8
0
  6
Continuous
 62
     7
 48
0.5
370
    -3
100
AcDbLine
 10
3001.199999999675
 20
242.0000000000003
 30
0.0
 11
2851.199999999678
 21
242.0000000000003
 31
0.0
  0
LINE
  5
6F8C
330
1F
100
AcDbEntity
  8
0
  6
CENTER2
 62
     2
 48
0.5
370
    -3
100
AcDbLine
 10
2926.199999999676
 20
210.0000000000004
 30
0.0
 11
2926.199999999676
 21
258.0000000000004
 31
0.0
  0
LINE
  5
6F8D
330
1F
100
AcDbEntity
  8
0
  6
Continuous
 62
     7
 48
0.5
370
    -3
100
AcDbLine
 10
3001.199999999675
 20
217.0000000000003
 30
0.0
 11
3001.199999999674
 21
242.0000000000003
 31
0.0
  0
LINE
  5
6F8E
330
1F
100
AcDbEntity
  8
0
  6
Continuous
 62
     7
 48
0.5
370
    -3
100
AcDbLine
 10
3014.299999999679
 20
217.0000000000003
 30
0.0
 11
3014.299999999678
 21
254.0000000000003
 31
0.0
  0
ARC
  5
6F8F
330
1F
100
AcDbEntity
  8
0
  6
Continuous
 62
     7
 48
0.5
370
    -3
100
AcDbCircle
 10
3015.299999999678
 20
254.0000000000003
 30
0.0
 40
1.0
100
AcDbArc
 50
90.0
 51
180.0000000000032
  0
LINE
  5
6F90
330
1F
100
AcDbEntity
  8
0
  6
Continuous
 62
     7
 48
0.5
370
    -3
100
AcDbLine
 10
3051.19999999968
 20
217.0000000000003
 30
0.0
 11
3051.19999999968
 21
213.0000000000003
 31
0.0
  0
LINE
  5
6F91
330
1F
100
AcDbEntity
  8
0
  6
Continuous
 62
     7
 48
0.5
370
    -3
100
AcDbLine
 10
3041.799999999677
 20
219.5000000000002
 30
0.0
 11
3041.799999999677
 21
217.0000000000003
 31
0.0
  0
ARC
  5
6F92
330
1F
100
AcDbEntity
  8
0
  6
Continuous
 62
     7
 48
0.5
370
    -3
100
AcDbCircle
 10
3041.299999999678
 20
219.5000000000002
 30
0.0
 40
0.5
100
AcDbArc
 50
359.9999999999968
 51
90.0
  0
LINE
  5
6F93
330
1F
100
AcDbEntity
  8
0
  6
Continuous
 62
     7
 48
0.5
370
    -3
100
AcDbLine
 10
3048.399999999678
 20
219.5000000000002
 30
0.0
 11
3048.399999999678
 21
217.0000000000003
 31
0.0
  0
ARC
  5
6F94
330
1F
100
AcDbEntity
  8
0
  6
Continuous
 62
     7
 48
0.5
370
    -3
100
AcDbCircle
 10
3047.899999999677
 20
219.5000000000002
 30
0.0
 40
0.5
100
AcDbArc
 50
0.0
 51
90.0
  0
LINE
  5
6F95
330
1F
100
AcDbEntity
  8
0
  6
Continuous
 62
     7
 48
0.5
370
    -3
100
AcDbLine
 10
3043.561133173283
 20
225.0000000000003
 30
0.0
 11
3043.561133173283
 21
220.0000000000002
 31
0.0
  0
LINE
  5
6F96
330
1F
100
AcDbEntity
  8
0
  6
Continuous
 62
     7
 48
0.5
370
    -3
100
AcDbLine
 10
3051.999999999682
 20
254.0000000000003
 30
0.0
 11
3051.999999999682
 21
225.0000000000003
 31
0.0
  0
ARC
  5
6F97
330
1F
100
AcDbEntity
  8
0
  6
Continuous
 62
     7
 48
0.5
370
    -3
100
AcDbCircle
 10
3050.999999999682
 20
254.0000000000003
 30
0.0
 40
1.0
100
AcDbArc
 50
0.0
 51
90.0
  0
LINE
  5
6F98
330
1F
100
AcDbEntity
  8
0
  6
Continuous
 62
     7
 48
0.5
370
    -3
100
AcDbLine
 10
3048.999999999682
 20
255.0000000000003
 30
0.0
 11
3048.999999999682
 21
225.0000000000003
 31
0.0
  0
LINE
  5
6F99
330
1F
100
AcDbEntity
  8
0
  6
Continuous
 62
     7
 48
0.5
370
    -3
100
AcDbLine
 10
3046.900879135439
 20
225.0000000000003
 30
0.0
 11
3046.900879135439
 21
220.0000000000002
 31
0.0
  0
ARC
  5
6F9A
330
1F
100
AcDbEntity
  8
0
  6
Continuous
 62
     7
 48
0.5
370
    -3
100
AcDbCircle
 10
3014.799999999679
 20
219.5000000000002
 30
0.0
 40
0.5
100
AcDbArc
 50
90.0
 51
180.0000000000032
  0
LINE
  5
6F9B
330
1F
100
AcDbEntity
  8
0
  6
Continuous
 62
     7
 48
0.5
370
    -3
100
AcDbLine
 10
2801.399999999672
 20
255.0000000000003
 30
0.0
 11
2837.099999999674
 21
255.0000000000003
 31
0.0
  0
LINE
  5
6F9C
330
1F
100
AcDbEntity
  8
0
  6
Continuous
 62
     7
 48
0.5
370
    -3
100
AcDbLine
 10
2804.499999999676
 20
220.0000000000003
 30
0.0
 11
2837.599999999674
 21
220.0000000000003
 31
0.0
  0
LINE
  5
6F9D
330
1F
100
AcDbEntity
  8
0
  6
Continuous
 62
     7
 48
0.5
370
    -3
100
AcDbLine
 10
2800.399999999672
 20
225.0000000000003
 30
0.0
 11
2808.838866826071
 21
225.0000000000003
 31
0.0
  0
LINE
  5
6F9E
330
1F
100
AcDbEntity
  8
0
  6
Continuous
 62
     7
 48
0.5
370
    -3
100
AcDbLine
 10
2851.199999999678
 20
217.0000000000003
 30
0.0
 11
2851.199999999679
 21
242.0000000000003
 31
0.0
  0
LINE
  5
6F9F
330
1F
100
AcDbEntity
  8
0
  6
Continuous
 62
     7
 48
0.5
370
    -3
100
AcDbLine
 10
2838.099999999673
 20
217.0000000000003
 30
0.0
 11
2838.099999999674
 21
254.0000000000003
 31
0.0
  0
ARC
  5
6FA0
330
1F
100
AcDbEntity
  8
0
  6
Continuous
 62
     7
 48
0.5
370
    -3
100
AcDbCircle
 10
2837.099999999674
 20
254.0000000000004
 30
0.0
 40
1.0
100
AcDbArc
 50
359.9999999999968
 51
90.0
  0
LINE
  5
6FA1
330
1F
100
AcDbEntity
  8
0
  6
Continuous
 62
     7
 48
0.5
370
    -3
100
AcDbLine
 10
2801.199999999673
 20
217.0000000000003
 30
0.0
 11
2801.199999999673
 21
213.0000000000003
 31
0.0
  0
LINE
  5
6FA2
330
1F
100
AcDbEntity
  8
0
  6
Continuous
 62
     7
 48
0.5
370
    -3
100
AcDbLine
 10
2810.599999999676
 20
219.5000000000003
 30
0.0
 11
2810.599999999676
 21
217.0000000000003
 31
0.0
  0
ARC
  5
6FA3
330
1F
100
AcDbEntity
  8
0
  6
Continuous
 62
     7
 48
0.5
370
    -3
100
AcDbCircle
 10
2811.099999999676
 20
219.5000000000003
 30
0.0
 40
0.5
100
AcDbArc
 50
90.0
 51
180.0000000000032
  0
LINE
  5
6FA4
330
1F
100
AcDbEntity
  8
0
  6
Continuous
 62
     7
 48
0.5
370
    -3
100
AcDbLine
 10
2803.999999999675
 20
219.5000000000003
 30
0.0
 11
2803.999999999675
 21
217.0000000000003
 31
0.0
  0
ARC
  5
6FA5
330
1F
100
AcDbEntity
  8
0
  6
Continuous
 62
     7
 48
0.5
370
    -3
100
AcDbCircle
 10
2804.499999999676
 20
219.5000000000003
 30
0.0
 40
0.5
100
AcDbArc
 50
90.0
 51
180.0
  0
LINE
  5
6FA6
330
1F
100
AcDbEntity
  8
0
  6
Continuous
 62
     7
 48
0.5
370
    -3
100
AcDbLine
 10
2808.838866826071
 20
225.0000000000003
 30
0.0
 11
2808.838866826071
 21
220.0000000000003
 31
0.0
  0
LINE
  5
6FA7
330
1F
100
AcDbEntity
  8
0
  6
Continuous
 62
     7
 48
0.5
370
    -3
100
AcDbLine
 10
2800.399999999672
 20
254.0000000000004
 30
0.0
 11
2800.399999999672
 21
225.0000000000003
 31
0.0
  0
ARC
  5
6FA8
330
1F
100
AcDbEntity
  8
0
  6
Continuous
 62
     7
 48
0.5
370
    -3
100
AcDbCircle
 10
2801.399999999672
 20
254.0000000000004
 30
0.0
 40
1.0
100
AcDbArc
 50
90.0
 51
180.0
  0
LINE
  5
6FA9
330
1F
100
AcDbEntity
  8
0
  6
Continuous
 62
     7
 48
0.5
370
    -3
100
AcDbLine
 10
2803.399999999671
 20
255.0000000000003
 30
0.0
 11
2803.399999999671
 21
225.0000000000003
 31
0.0
  0
LINE
  5
6FAA
330
1F
100
AcDbEntity
  8
0
  6
Continuous
 62
     7
 48
0.5
370
    -3
100
AcDbLine
 10
2805.499120863915
 20
225.0000000000003
 30
0.0
 11
2805.499120863915
 21
220.0000000000003
 31
0.0
  0
ARC
  5
6FAB
330
1F
100
AcDbEntity
  8
0
  6
Continuous
 62
     7
 48
0.5
370
    -3
100
AcDbCircle
 10
2837.599999999674
 20
219.5000000000002
 30
0.0
 40
0.5
100
AcDbArc
 50
359.9999999999968
 51
90.0
  0
MTEXT
  5
6FAC
330
1F
100
AcDbEntity
  8
0
  6
Continuous
 62
     1
 48
0.5
370
    -3
100
AcDbMText
 10
2926.199999999673
 20
-5.000000000000078
 30
0.0
 40
2.5
 41
32.05805302350382
 46
0.0
 71
     2
 72
     5
  1
7号200型
 73
     1
 44
1.0
1001
ACAD
1000
ACAD_MTEXT_COLUMN_INFO_BEGIN
1070
    75
1070
     2
1070
    79
1070
     0
1070
    76
1070
     1
1070
    78
1070
     0
1070
    48
1040
32.05805302350382
1070
    49
1040
12.5
1070
    50
1070
     1
1040
0.0
1000
ACAD_MTEXT_COLUMN_INFO_END
  0
MTEXT
  5
6FAD
330
1F
100
AcDbEntity
  8
0
  6
Continuous
 62
     1
 48
0.5
370
    -3
100
AcDbMText
 10
2926.199999999673
 20
-13.00000000000008
 30
0.0
 40
2.5
 41
32.05805302350382
 46
0.0
 71
     2
 72
     5
  1
KMDE720□
 73
     1
 44
1.0
1001
ACAD
1000
ACAD_MTEXT_COLUMN_INFO_BEGIN
1070
    75
1070
     2
1070
    79
1070
     0
1070
    76
1070
     1
1070
    78
1070
     0
1070
    48
1040
32.05805302350382
1070
    49
1040
12.5
1070
    50
1070
     1
1040
0.0
1000
ACAD_MTEXT_COLUMN_INFO_END
  0
LINE
  5
7006
330
1F
100
AcDbEntity
  8
0
  6
Continuous
 62
     7
 48
0.5
370
    -3
100
AcDbLine
 10
3362.599999999692
 20
155.0000000000003
 30
0.0
 11
3326.899999999689
 21
155.0000000000003
 31
0.0
  0
LINE
  5
7007
330
1F
100
AcDbEntity
  8
0
  6
Continuous
 62
     7
 48
0.5
370
    -3
100
AcDbLine
 10
3362.79999999969
 20
113.0000000000002
 30
0.0
 11
3082.799999999683
 21
113.0000000000003
 31
0.0
  0
LINE
  5
7008
330
1F
100
AcDbEntity
  8
0
  6
Continuous
 62
     7
 48
0.5
370
    -3
100
AcDbLine
 10
3362.79999999969
 20
117.0000000000002
 30
0.0
 11
3082.799999999683
 21
117.0000000000003
 31
0.0
  0
LINE
  5
7009
330
1F
100
AcDbEntity
  8
0
  6
Continuous
 62
     7
 48
0.5
370
    -3
100
AcDbLine
 10
3359.499999999688
 20
120.0000000000003
 30
0.0
 11
3326.39999999969
 21
120.0000000000003
 31
0.0
  0
LINE
  5
700A
330
1F
100
AcDbEntity
  8
0
  6
Continuous
 62
     7
 48
0.5
370
    -3
100
AcDbLine
 10
3363.599999999692
 20
125.0000000000003
 30
0.0
 11
3355.161133173293
 21
125.0000000000003
 31
0.0
  0
LINE
  5
700B
330
1F
100
AcDbEntity
  8
0
  6
Continuous
 62
     7
 48
0.5
370
    -3
100
AcDbLine
 10
3312.799999999685
 20
142.0000000000003
 30
0.0
 11
3132.799999999689
 21
142.0000000000003
 31
0.0
  0
LINE
  5
700C
330
1F
100
AcDbEntity
  8
0
  6
CENTER2
 62
     2
 48
0.5
370
    -3
100
AcDbLine
 10
3222.799999999687
 20
110.0000000000003
 30
0.0
 11
3222.799999999685
 21
158.0000000000003
 31
0.0
  0
LINE
  5
700D
330
1F
100
AcDbEntity
  8
0
  6
Continuous
 62
     7
 48
0.5
370
    -3
100
AcDbLine
 10
3312.799999999685
 20
117.0000000000003
 30
0.0
 11
3312.799999999685
 21
142.0000000000003
 31
0.0
  0
LINE
  5
700E
330
1F
100
AcDbEntity
  8
0
  6
Continuous
 62
     7
 48
0.5
370
    -3
100
AcDbLine
 10
3325.89999999969
 20
117.0000000000003
 30
0.0
 11
3325.899999999689
 21
154.0000000000003
 31
0.0
  0
ARC
  5
700F
330
1F
100
AcDbEntity
  8
0
  6
Continuous
 62
     7
 48
0.5
370
    -3
100
AcDbCircle
 10
3326.899999999689
 20
154.0000000000003
 30
0.0
 40
1.0
100
AcDbArc
 50
90.0
 51
180.0000000000032
  0
LINE
  5
7010
330
1F
100
AcDbEntity
  8
0
  6
Continuous
 62
     7
 48
0.5
370
    -3
100
AcDbLine
 10
3362.79999999969
 20
117.0000000000003
 30
0.0
 11
3362.79999999969
 21
113.0000000000003
 31
0.0
  0
LINE
  5
7011
330
1F
100
AcDbEntity
  8
0
  6
Continuous
 62
     7
 48
0.5
370
    -3
100
AcDbLine
 10
3353.399999999688
 20
119.5000000000003
 30
0.0
 11
3353.399999999688
 21
117.0000000000003
 31
0.0
  0
ARC
  5
7012
330
1F
100
AcDbEntity
  8
0
  6
Continuous
 62
     7
 48
0.5
370
    -3
100
AcDbCircle
 10
3352.899999999688
 20
119.5000000000003
 30
0.0
 40
0.5
100
AcDbArc
 50
359.9999999999968
 51
90.0
  0
LINE
  5
7013
330
1F
100
AcDbEntity
  8
0
  6
Continuous
 62
     7
 48
0.5
370
    -3
100
AcDbLine
 10
3359.999999999689
 20
119.5000000000003
 30
0.0
 11
3359.999999999689
 21
117.0000000000003
 31
0.0
  0
ARC
  5
7014
330
1F
100
AcDbEntity
  8
0
  6
Continuous
 62
     7
 48
0.5
370
    -3
100
AcDbCircle
 10
3359.499999999688
 20
119.5000000000003
 30
0.0
 40
0.5
100
AcDbArc
 50
0.0
 51
90.0
  0
LINE
  5
7015
330
1F
100
AcDbEntity
  8
0
  6
Continuous
 62
     7
 48
0.5
370
    -3
100
AcDbLine
 10
3355.161133173293
 20
125.0000000000003
 30
0.0
 11
3355.161133173293
 21
120.0000000000003
 31
0.0
  0
LINE
  5
7016
330
1F
100
AcDbEntity
  8
0
  6
Continuous
 62
     7
 48
0.5
370
    -3
100
AcDbLine
 10
3363.599999999692
 20
154.0000000000003
 30
0.0
 11
3363.599999999692
 21
125.0000000000003
 31
0.0
  0
ARC
  5
7017
330
1F
100
AcDbEntity
  8
0
  6
Continuous
 62
     7
 48
0.5
370
    -3
100
AcDbCircle
 10
3362.599999999692
 20
154.0000000000003
 30
0.0
 40
1.0
100
AcDbArc
 50
0.0
 51
90.0
  0
LINE
  5
7018
330
1F
100
AcDbEntity
  8
0
  6
Continuous
 62
     7
 48
0.5
370
    -3
100
AcDbLine
 10
3360.599999999692
 20
155.0000000000003
 30
0.0
 11
3360.599999999692
 21
125.0000000000003
 31
0.0
  0
LINE
  5
7019
330
1F
100
AcDbEntity
  8
0
  6
Continuous
 62
     7
 48
0.5
370
    -3
100
AcDbLine
 10
3358.500879135448
 20
125.0000000000003
 30
0.0
 11
3358.500879135448
 21
120.0000000000003
 31
0.0
  0
ARC
  5
701A
330
1F
100
AcDbEntity
  8
0
  6
Continuous
 62
     7
 48
0.5
370
    -3
100
AcDbCircle
 10
3326.39999999969
 20
119.5000000000002
 30
0.0
 40
0.5
100
AcDbArc
 50
90.0
 51
180.0000000000032
  0
LINE
  5
701B
330
1F
100
AcDbEntity
  8
0
  6
Continuous
 62
     7
 48
0.5
370
    -3
100
AcDbLine
 10
3082.999999999682
 20
155.0000000000003
 30
0.0
 11
3118.699999999684
 21
155.0000000000003
 31
0.0
  0
LINE
  5
701C
330
1F
100
AcDbEntity
  8
0
  6
Continuous
 62
     7
 48
0.5
370
    -3
100
AcDbLine
 10
3086.099999999686
 20
120.0000000000003
 30
0.0
 11
3119.199999999684
 21
120.0000000000003
 31
0.0
  0
LINE
  5
701D
330
1F
100
AcDbEntity
  8
0
  6
Continuous
 62
     7
 48
0.5
370
    -3
100
AcDbLine
 10
3081.999999999682
 20
125.0000000000003
 30
0.0
 11
3090.438866826081
 21
125.0000000000003
 31
0.0
  0
LINE
  5
701E
330
1F
100
AcDbEntity
  8
0
  6
Continuous
 62
     7
 48
0.5
370
    -3
100
AcDbLine
 10
3132.799999999689
 20
117.0000000000003
 30
0.0
 11
3132.799999999689
 21
142.0000000000003
 31
0.0
  0
LINE
  5
701F
330
1F
100
AcDbEntity
  8
0
  6
Continuous
 62
     7
 48
0.5
370
    -3
100
AcDbLine
 10
3119.699999999684
 20
117.0000000000003
 30
0.0
 11
3119.699999999685
 21
154.0000000000003
 31
0.0
  0
ARC
  5
7020
330
1F
100
AcDbEntity
  8
0
  6
Continuous
 62
     7
 48
0.5
370
    -3
100
AcDbCircle
 10
3118.699999999684
 20
154.0000000000003
 30
0.0
 40
1.0
100
AcDbArc
 50
359.9999999999968
 51
90.0
  0
LINE
  5
7021
330
1F
100
AcDbEntity
  8
0
  6
Continuous
 62
     7
 48
0.5
370
    -3
100
AcDbLine
 10
3082.799999999683
 20
117.0000000000003
 30
0.0
 11
3082.799999999683
 21
113.0000000000003
 31
0.0
  0
LINE
  5
7022
330
1F
100
AcDbEntity
  8
0
  6
Continuous
 62
     7
 48
0.5
370
    -3
100
AcDbLine
 10
3092.199999999686
 20
119.5000000000003
 30
0.0
 11
3092.199999999686
 21
117.0000000000003
 31
0.0
  0
ARC
  5
7023
330
1F
100
AcDbEntity
  8
0
  6
Continuous
 62
     7
 48
0.5
370
    -3
100
AcDbCircle
 10
3092.699999999686
 20
119.5000000000003
 30
0.0
 40
0.5
100
AcDbArc
 50
90.0
 51
180.0000000000032
  0
LINE
  5
7024
330
1F
100
AcDbEntity
  8
0
  6
Continuous
 62
     7
 48
0.5
370
    -3
100
AcDbLine
 10
3085.599999999686
 20
119.5000000000003
 30
0.0
 11
3085.599999999686
 21
117.0000000000003
 31
0.0
  0
ARC
  5
7025
330
1F
100
AcDbEntity
  8
0
  6
Continuous
 62
     7
 48
0.5
370
    -3
100
AcDbCircle
 10
3086.099999999686
 20
119.5000000000003
 30
0.0
 40
0.5
100
AcDbArc
 50
90.0
 51
180.0
  0
LINE
  5
7026
330
1F
100
AcDbEntity
  8
0
  6
Continuous
 62
     7
 48
0.5
370
    -3
100
AcDbLine
 10
3090.438866826081
 20
125.0000000000003
 30
0.0
 11
3090.438866826081
 21
120.0000000000003
 31
0.0
  0
LINE
  5
7027
330
1F
100
AcDbEntity
  8
0
  6
Continuous
 62
     7
 48
0.5
370
    -3
100
AcDbLine
 10
3081.999999999682
 20
154.0000000000003
 30
0.0
 11
3081.999999999682
 21
125.0000000000003
 31
0.0
  0
ARC
  5
7028
330
1F
100
AcDbEntity
  8
0
  6
Continuous
 62
     7
 48
0.5
370
    -3
100
AcDbCircle
 10
3082.999999999682
 20
154.0000000000003
 30
0.0
 40
1.0
100
AcDbArc
 50
90.0
 51
180.0
  0
LINE
  5
7029
330
1F
100
AcDbEntity
  8
0
  6
Continuous
 62
     7
 48
0.5
370
    -3
100
AcDbLine
 10
3084.999999999682
 20
155.0000000000003
 30
0.0
 11
3084.999999999682
 21
125.0000000000003
 31
0.0
  0
LINE
  5
702A
330
1F
100
AcDbEntity
  8
0
  6
Continuous
 62
     7
 48
0.5
370
    -3
100
AcDbLine
 10
3087.099120863925
 20
125.0000000000003
 30
0.0
 11
3087.099120863925
 21
120.0000000000003
 31
0.0
  0
ARC
  5
702B
330
1F
100
AcDbEntity
  8
0
  6
Continuous
 62
     7
 48
0.5
370
    -3
100
AcDbCircle
 10
3119.199999999684
 20
119.5000000000002
 30
0.0
 40
0.5
100
AcDbArc
 50
359.9999999999968
 51
90.0
  0
MTEXT
  5
702C
330
1F
100
AcDbEntity
  8
0
  6
Continuous
 62
     1
 48
0.5
370
    -3
100
AcDbMText
 10
3222.799999999689
 20
-5.000000000000076
 30
0.0
 40
2.5
 41
32.05805302350382
 46
0.0
 71
     2
 72
     5
  1
8号
 73
     1
 44
1.0
1001
ACAD
1000
ACAD_MTEXT_COLUMN_INFO_BEGIN
1070
    75
1070
     2
1070
    79
1070
     0
1070
    76
1070
     1
1070
    78
1070
     0
1070
    48
1040
32.05805302350382
1070
    49
1040
12.5
1070
    50
1070
     1
1040
0.0
1000
ACAD_MTEXT_COLUMN_INFO_END
  0
MTEXT
  5
702D
330
1F
100
AcDbEntity
  8
0
  6
Continuous
 62
     1
 48
0.5
370
    -3
100
AcDbMText
 10
3222.799999999689
 20
-13.00000000000008
 30
0.0
 40
2.5
 41
32.05805302350382
 46
0.0
 71
     2
 72
     5
  1
KMDE8□
 73
     1
 44
1.0
1001
ACAD
1000
ACAD_MTEXT_COLUMN_INFO_BEGIN
1070
    75
1070
     2
1070
    79
1070
     0
1070
    76
1070
     1
1070
    78
1070
     0
1070
    48
1040
32.05805302350382
1070
    49
1040
12.5
1070
    50
1070
     1
1040
0.0
1000
ACAD_MTEXT_COLUMN_INFO_END
  0
LINE
  5
7083
330
1F
100
AcDbEntity
  8
0
  6
Continuous
 62
     7
 48
0.5
370
    -3
100
AcDbLine
 10
3694.199999999702
 20
205.0000000000002
 30
0.0
 11
3658.499999999699
 21
205.0000000000003
 31
0.0
  0
LINE
  5
7084
330
1F
100
AcDbEntity
  8
0
  6
Continuous
 62
     7
 48
0.5
370
    -3
100
AcDbLine
 10
3694.399999999701
 20
163.0000000000002
 30
0.0
 11
3394.399999999694
 21
163.0000000000003
 31
0.0
  0
LINE
  5
7085
330
1F
100
AcDbEntity
  8
0
  6
Continuous
 62
     7
 48
0.5
370
    -3
100
AcDbLine
 10
3694.399999999701
 20
167.0000000000002
 30
0.0
 11
3394.399999999694
 21
167.0000000000003
 31
0.0
  0
LINE
  5
7086
330
1F
100
AcDbEntity
  8
0
  6
Continuous
 62
     7
 48
0.5
370
    -3
100
AcDbLine
 10
3691.099999999698
 20
170.0000000000003
 30
0.0
 11
3657.9999999997
 21
170.0000000000002
 31
0.0
  0
LINE
  5
7087
330
1F
100
AcDbEntity
  8
0
  6
Continuous
 62
     7
 48
0.5
370
    -3
100
AcDbLine
 10
3695.199999999703
 20
175.0000000000002
 30
0.0
 11
3686.761133173303
 21
175.0000000000002
 31
0.0
  0
LINE
  5
7088
330
1F
100
AcDbEntity
  8
0
  6
Continuous
 62
     7
 48
0.5
370
    -3
100
AcDbLine
 10
3644.399999999696
 20
192.0000000000003
 30
0.0
 11
3444.399999999699
 21
192.0000000000002
 31
0.0
  0
LINE
  5
7089
330
1F
100
AcDbEntity
  8
0
  6
CENTER2
 62
     2
 48
0.5
370
    -3
100
AcDbLine
 10
3544.399999999697
 20
160.0000000000003
 30
0.0
 11
3544.399999999696
 21
208.0000000000004
 31
0.0
  0
LINE
  5
708A
330
1F
100
AcDbEntity
  8
0
  6
Continuous
 62
     7
 48
0.5
370
    -3
100
AcDbLine
 10
3644.399999999696
 20
167.0000000000002
 30
0.0
 11
3644.399999999695
 21
192.0000000000003
 31
0.0
  0
LINE
  5
708B
330
1F
100
AcDbEntity
  8
0
  6
Continuous
 62
     7
 48
0.5
370
    -3
100
AcDbLine
 10
3657.4999999997
 20
167.0000000000003
 30
0.0
 11
3657.499999999699
 21
204.0000000000003
 31
0.0
  0
ARC
  5
708C
330
1F
100
AcDbEntity
  8
0
  6
Continuous
 62
     7
 48
0.5
370
    -3
100
AcDbCircle
 10
3658.499999999699
 20
204.0000000000003
 30
0.0
 40
1.0
100
AcDbArc
 50
90.0
 51
180.0000000000032
  0
LINE
  5
708D
330
1F
100
AcDbEntity
  8
0
  6
Continuous
 62
     7
 48
0.5
370
    -3
100
AcDbLine
 10
3694.399999999701
 20
167.0000000000002
 30
0.0
 11
3694.399999999701
 21
163.0000000000003
 31
0.0
  0
LINE
  5
708E
330
1F
100
AcDbEntity
  8
0
  6
Continuous
 62
     7
 48
0.5
370
    -3
100
AcDbLine
 10
3684.999999999698
 20
169.5000000000002
 30
0.0
 11
3684.999999999698
 21
167.0000000000002
 31
0.0
  0
ARC
  5
708F
330
1F
100
AcDbEntity
  8
0
  6
Continuous
 62
     7
 48
0.5
370
    -3
100
AcDbCircle
 10
3684.499999999698
 20
169.5000000000002
 30
0.0
 40
0.5
100
AcDbArc
 50
359.9999999999968
 51
90.0
  0
LINE
  5
7090
330
1F
100
AcDbEntity
  8
0
  6
Continuous
 62
     7
 48
0.5
370
    -3
100
AcDbLine
 10
3691.599999999699
 20
169.5000000000002
 30
0.0
 11
3691.599999999699
 21
167.0000000000002
 31
0.0
  0
ARC
  5
7091
330
1F
100
AcDbEntity
  8
0
  6
Continuous
 62
     7
 48
0.5
370
    -3
100
AcDbCircle
 10
3691.099999999698
 20
169.5000000000002
 30
0.0
 40
0.5
100
AcDbArc
 50
0.0
 51
90.0
  0
LINE
  5
7092
330
1F
100
AcDbEntity
  8
0
  6
Continuous
 62
     7
 48
0.5
370
    -3
100
AcDbLine
 10
3686.761133173303
 20
175.0000000000002
 30
0.0
 11
3686.761133173303
 21
170.0000000000002
 31
0.0
  0
LINE
  5
7093
330
1F
100
AcDbEntity
  8
0
  6
Continuous
 62
     7
 48
0.5
370
    -3
100
AcDbLine
 10
3695.199999999703
 20
204.0000000000003
 30
0.0
 11
3695.199999999703
 21
175.0000000000002
 31
0.0
  0
ARC
  5
7094
330
1F
100
AcDbEntity
  8
0
  6
Continuous
 62
     7
 48
0.5
370
    -3
100
AcDbCircle
 10
3694.199999999702
 20
204.0000000000003
 30
0.0
 40
1.0
100
AcDbArc
 50
0.0
 51
90.0
  0
LINE
  5
7095
330
1F
100
AcDbEntity
  8
0
  6
Continuous
 62
     7
 48
0.5
370
    -3
100
AcDbLine
 10
3692.199999999703
 20
205.0000000000003
 30
0.0
 11
3692.199999999703
 21
175.0000000000002
 31
0.0
  0
LINE
  5
7096
330
1F
100
AcDbEntity
  8
0
  6
Continuous
 62
     7
 48
0.5
370
    -3
100
AcDbLine
 10
3690.100879135459
 20
175.0000000000002
 30
0.0
 11
3690.100879135459
 21
170.0000000000002
 31
0.0
  0
ARC
  5
7097
330
1F
100
AcDbEntity
  8
0
  6
Continuous
 62
     7
 48
0.5
370
    -3
100
AcDbCircle
 10
3657.9999999997
 20
169.5000000000002
 30
0.0
 40
0.5
100
AcDbArc
 50
90.0
 51
180.0000000000032
  0
LINE
  5
7098
330
1F
100
AcDbEntity
  8
0
  6
Continuous
 62
     7
 48
0.5
370
    -3
100
AcDbLine
 10
3394.599999999692
 20
205.0000000000003
 30
0.0
 11
3430.299999999695
 21
205.0000000000003
 31
0.0
  0
LINE
  5
7099
330
1F
100
AcDbEntity
  8
0
  6
Continuous
 62
     7
 48
0.5
370
    -3
100
AcDbLine
 10
3397.699999999697
 20
170.0000000000003
 30
0.0
 11
3430.799999999694
 21
170.0000000000003
 31
0.0
  0
LINE
  5
709A
330
1F
100
AcDbEntity
  8
0
  6
Continuous
 62
     7
 48
0.5
370
    -3
100
AcDbLine
 10
3393.599999999692
 20
175.0000000000003
 30
0.0
 11
3402.038866826091
 21
175.0000000000003
 31
0.0
  0
LINE
  5
709B
330
1F
100
AcDbEntity
  8
0
  6
Continuous
 62
     7
 48
0.5
370
    -3
100
AcDbLine
 10
3444.399999999699
 20
167.0000000000003
 30
0.0
 11
3444.3999999997
 21
192.0000000000003
 31
0.0
  0
LINE
  5
709C
330
1F
100
AcDbEntity
  8
0
  6
Continuous
 62
     7
 48
0.5
370
    -3
100
AcDbLine
 10
3431.299999999694
 20
167.0000000000003
 30
0.0
 11
3431.299999999696
 21
204.0000000000003
 31
0.0
  0
ARC
  5
709D
330
1F
100
AcDbEntity
  8
0
  6
Continuous
 62
     7
 48
0.5
370
    -3
100
AcDbCircle
 10
3430.299999999695
 20
204.0000000000004
 30
0.0
 40
1.0
100
AcDbArc
 50
359.9999999999968
 51
90.0
  0
LINE
  5
709E
330
1F
100
AcDbEntity
  8
0
  6
Continuous
 62
     7
 48
0.5
370
    -3
100
AcDbLine
 10
3394.399999999694
 20
167.0000000000003
 30
0.0
 11
3394.399999999694
 21
163.0000000000003
 31
0.0
  0
LINE
  5
709F
330
1F
100
AcDbEntity
  8
0
  6
Continuous
 62
     7
 48
0.5
370
    -3
100
AcDbLine
 10
3403.799999999697
 20
169.5000000000003
 30
0.0
 11
3403.799999999697
 21
167.0000000000003
 31
0.0
  0
ARC
  5
70A0
330
1F
100
AcDbEntity
  8
0
  6
Continuous
 62
     7
 48
0.5
370
    -3
100
AcDbCircle
 10
3404.299999999697
 20
169.5000000000003
 30
0.0
 40
0.5
100
AcDbArc
 50
90.0
 51
180.0000000000032
  0
LINE
  5
70A1
330
1F
100
AcDbEntity
  8
0
  6
Continuous
 62
     7
 48
0.5
370
    -3
100
AcDbLine
 10
3397.199999999696
 20
169.5000000000003
 30
0.0
 11
3397.199999999696
 21
167.0000000000003
 31
0.0
  0
ARC
  5
70A2
330
1F
100
AcDbEntity
  8
0
  6
Continuous
 62
     7
 48
0.5
370
    -3
100
AcDbCircle
 10
3397.699999999697
 20
169.5000000000003
 30
0.0
 40
0.5
100
AcDbArc
 50
90.0
 51
180.0
  0
LINE
  5
70A3
330
1F
100
AcDbEntity
  8
0
  6
Continuous
 62
     7
 48
0.5
370
    -3
100
AcDbLine
 10
3402.038866826091
 20
175.0000000000003
 30
0.0
 11
3402.038866826091
 21
170.0000000000003
 31
0.0
  0
LINE
  5
70A4
330
1F
100
AcDbEntity
  8
0
  6
Continuous
 62
     7
 48
0.5
370
    -3
100
AcDbLine
 10
3393.599999999692
 20
204.0000000000004
 30
0.0
 11
3393.599999999692
 21
175.0000000000003
 31
0.0
  0
ARC
  5
70A5
330
1F
100
AcDbEntity
  8
0
  6
Continuous
 62
     7
 48
0.5
370
    -3
100
AcDbCircle
 10
3394.599999999692
 20
204.0000000000004
 30
0.0
 40
1.0
100
AcDbArc
 50
90.0
 51
180.0
  0
LINE
  5
70A6
330
1F
100
AcDbEntity
  8
0
  6
Continuous
 62
     7
 48
0.5
370
    -3
100
AcDbLine
 10
3396.599999999692
 20
205.0000000000003
 30
0.0
 11
3396.599999999692
 21
175.0000000000003
 31
0.0
  0
LINE
  5
70A7
330
1F
100
AcDbEntity
  8
0
  6
Continuous
 62
     7
 48
0.5
370
    -3
100
AcDbLine
 10
3398.699120863936
 20
175.0000000000003
 30
0.0
 11
3398.699120863936
 21
170.0000000000003
 31
0.0
  0
ARC
  5
70A8
330
1F
100
AcDbEntity
  8
0
  6
Continuous
 62
     7
 48
0.5
370
    -3
100
AcDbCircle
 10
3430.799999999694
 20
169.5000000000002
 30
0.0
 40
0.5
100
AcDbArc
 50
359.9999999999968
 51
90.0
  0
MTEXT
  5
70A9
330
1F
100
AcDbEntity
  8
0
  6
Continuous
 62
     1
 48
0.5
370
    -3
100
AcDbMText
 10
3544.399999999694
 20
-5.000000000000071
 30
0.0
 40
2.5
 41
32.05805302350382
 46
0.0
 71
     2
 72
     5
  1
8号150型
 73
     1
 44
1.0
1001
ACAD
1000
ACAD_MTEXT_COLUMN_INFO_BEGIN
1070
    75
1070
     2
1070
    79
1070
     0
1070
    76
1070
     1
1070
    78
1070
     0
1070
    48
1040
32.05805302350382
1070
    49
1040
12.5
1070
    50
1070
     1
1040
0.0
1000
ACAD_MTEXT_COLUMN_INFO_END
  0
MTEXT
  5
70AA
330
1F
100
AcDbEntity
  8
0
  6
Continuous
 62
     1
 48
0.5
370
    -3
100
AcDbMText
 10
3544.399999999694
 20
-13.00000000000007
 30
0.0
 40
2.5
 41
32.05805302350382
 46
0.0
 71
     2
 72
     5
  1
KMDE815□
 73
     1
 44
1.0
1001
ACAD
1000
ACAD_MTEXT_COLUMN_INFO_BEGIN
1070
    75
1070
     2
1070
    79
1070
     0
1070
    76
1070
     1
1070
    78
1070
     0
1070
    48
1040
32.05805302350382
1070
    49
1040
12.5
1070
    50
1070
     1
1040
0.0
1000
ACAD_MTEXT_COLUMN_INFO_END
  0
LINE
  5
7101
330
1F
100
AcDbEntity
  8
0
  6
Continuous
 62
     7
 48
0.5
370
    -3
100
AcDbLine
 10
4025.799999999713
 20
255.0000000000002
 30
0.0
 11
3990.09999999971
 21
255.0000000000003
 31
0.0
  0
LINE
  5
7102
330
1F
100
AcDbEntity
  8
0
  6
Continuous
 62
     7
 48
0.5
370
    -3
100
AcDbLine
 10
4025.999999999711
 20
213.0000000000002
 30
0.0
 11
3725.999999999704
 21
213.0000000000003
 31
0.0
  0
LINE
  5
7103
330
1F
100
AcDbEntity
  8
0
  6
Continuous
 62
     7
 48
0.5
370
    -3
100
AcDbLine
 10
4025.999999999711
 20
217.0000000000002
 30
0.0
 11
3725.999999999704
 21
217.0000000000003
 31
0.0
  0
LINE
  5
7104
330
1F
100
AcDbEntity
  8
0
  6
Continuous
 62
     7
 48
0.5
370
    -3
100
AcDbLine
 10
4022.699999999709
 20
220.0000000000002
 30
0.0
 11
3989.59999999971
 21
220.0000000000002
 31
0.0
  0
LINE
  5
7105
330
1F
100
AcDbEntity
  8
0
  6
Continuous
 62
     7
 48
0.5
370
    -3
100
AcDbLine
 10
4026.799999999712
 20
225.0000000000002
 30
0.0
 11
4018.361133173313
 21
225.0000000000002
 31
0.0
  0
LINE
  5
7106
330
1F
100
AcDbEntity
  8
0
  6
Continuous
 62
     7
 48
0.5
370
    -3
100
AcDbLine
 10
3975.999999999706
 20
242.0000000000003
 30
0.0
 11
3775.999999999709
 21
242.0000000000002
 31
0.0
  0
LINE
  5
7107
330
1F
100
AcDbEntity
  8
0
  6
CENTER2
 62
     2
 48
0.5
370
    -3
100
AcDbLine
 10
3875.999999999707
 20
210.0000000000004
 30
0.0
 11
3875.999999999706
 21
258.0000000000004
 31
0.0
  0
LINE
  5
7108
330
1F
100
AcDbEntity
  8
0
  6
Continuous
 62
     7
 48
0.5
370
    -3
100
AcDbLine
 10
3975.999999999706
 20
217.0000000000003
 30
0.0
 11
3975.999999999706
 21
242.0000000000003
 31
0.0
  0
LINE
  5
7109
330
1F
100
AcDbEntity
  8
0
  6
Continuous
 62
     7
 48
0.5
370
    -3
100
AcDbLine
 10
3989.099999999711
 20
217.0000000000003
 30
0.0
 11
3989.099999999709
 21
254.0000000000003
 31
0.0
  0
ARC
  5
710A
330
1F
100
AcDbEntity
  8
0
  6
Continuous
 62
     7
 48
0.5
370
    -3
100
AcDbCircle
 10
3990.09999999971
 20
254.0000000000003
 30
0.0
 40
1.0
100
AcDbArc
 50
90.0
 51
180.0000000000032
  0
LINE
  5
710B
330
1F
100
AcDbEntity
  8
0
  6
Continuous
 62
     7
 48
0.5
370
    -3
100
AcDbLine
 10
4025.999999999711
 20
217.0000000000002
 30
0.0
 11
4025.999999999711
 21
213.0000000000003
 31
0.0
  0
LINE
  5
710C
330
1F
100
AcDbEntity
  8
0
  6
Continuous
 62
     7
 48
0.5
370
    -3
100
AcDbLine
 10
4016.599999999708
 20
219.5000000000002
 30
0.0
 11
4016.599999999708
 21
217.0000000000002
 31
0.0
  0
ARC
  5
710D
330
1F
100
AcDbEntity
  8
0
  6
Continuous
 62
     7
 48
0.5
370
    -3
100
AcDbCircle
 10
4016.099999999709
 20
219.5000000000002
 30
0.0
 40
0.5
100
AcDbArc
 50
359.9999999999968
 51
90.0
  0
LINE
  5
710E
330
1F
100
AcDbEntity
  8
0
  6
Continuous
 62
     7
 48
0.5
370
    -3
100
AcDbLine
 10
4023.199999999708
 20
219.5000000000002
 30
0.0
 11
4023.199999999708
 21
217.0000000000002
 31
0.0
  0
ARC
  5
710F
330
1F
100
AcDbEntity
  8
0
  6
Continuous
 62
     7
 48
0.5
370
    -3
100
AcDbCircle
 10
4022.699999999709
 20
219.5000000000002
 30
0.0
 40
0.5
100
AcDbArc
 50
0.0
 51
90.0
  0
LINE
  5
7110
330
1F
100
AcDbEntity
  8
0
  6
Continuous
 62
     7
 48
0.5
370
    -3
100
AcDbLine
 10
4018.361133173313
 20
225.0000000000002
 30
0.0
 11
4018.361133173313
 21
220.0000000000002
 31
0.0
  0
LINE
  5
7111
330
1F
100
AcDbEntity
  8
0
  6
Continuous
 62
     7
 48
0.5
370
    -3
100
AcDbLine
 10
4026.799999999712
 20
254.0000000000003
 30
0.0
 11
4026.799999999712
 21
225.0000000000002
 31
0.0
  0
ARC
  5
7112
330
1F
100
AcDbEntity
  8
0
  6
Continuous
 62
     7
 48
0.5
370
    -3
100
AcDbCircle
 10
4025.799999999713
 20
254.0000000000003
 30
0.0
 40
1.0
100
AcDbArc
 50
0.0
 51
90.0
  0
LINE
  5
7113
330
1F
100
AcDbEntity
  8
0
  6
Continuous
 62
     7
 48
0.5
370
    -3
100
AcDbLine
 10
4023.799999999712
 20
255.0000000000003
 30
0.0
 11
4023.799999999712
 21
225.0000000000002
 31
0.0
  0
LINE
  5
7114
330
1F
100
AcDbEntity
  8
0
  6
Continuous
 62
     7
 48
0.5
370
    -3
100
AcDbLine
 10
4021.700879135469
 20
225.0000000000002
 30
0.0
 11
4021.700879135469
 21
220.0000000000002
 31
0.0
  0
ARC
  5
7115
330
1F
100
AcDbEntity
  8
0
  6
Continuous
 62
     7
 48
0.5
370
    -3
100
AcDbCircle
 10
3989.59999999971
 20
219.5000000000002
 30
0.0
 40
0.5
100
AcDbArc
 50
90.0
 51
180.0000000000032
  0
LINE
  5
7116
330
1F
100
AcDbEntity
  8
0
  6
Continuous
 62
     7
 48
0.5
370
    -3
100
AcDbLine
 10
3726.199999999702
 20
255.0000000000003
 30
0.0
 11
3761.899999999705
 21
255.0000000000003
 31
0.0
  0
LINE
  5
7117
330
1F
100
AcDbEntity
  8
0
  6
Continuous
 62
     7
 48
0.5
370
    -3
100
AcDbLine
 10
3729.299999999707
 20
220.0000000000003
 30
0.0
 11
3762.399999999705
 21
220.0000000000003
 31
0.0
  0
LINE
  5
7118
330
1F
100
AcDbEntity
  8
0
  6
Continuous
 62
     7
 48
0.5
370
    -3
100
AcDbLine
 10
3725.199999999702
 20
225.0000000000003
 30
0.0
 11
3733.638866826102
 21
225.0000000000003
 31
0.0
  0
LINE
  5
7119
330
1F
100
AcDbEntity
  8
0
  6
Continuous
 62
     7
 48
0.5
370
    -3
100
AcDbLine
 10
3775.999999999709
 20
217.0000000000003
 30
0.0
 11
3775.99999999971
 21
242.0000000000003
 31
0.0
  0
LINE
  5
711A
330
1F
100
AcDbEntity
  8
0
  6
Continuous
 62
     7
 48
0.5
370
    -3
100
AcDbLine
 10
3762.899999999704
 20
217.0000000000003
 30
0.0
 11
3762.899999999706
 21
254.0000000000003
 31
0.0
  0
ARC
  5
711B
330
1F
100
AcDbEntity
  8
0
  6
Continuous
 62
     7
 48
0.5
370
    -3
100
AcDbCircle
 10
3761.899999999705
 20
254.0000000000004
 30
0.0
 40
1.0
100
AcDbArc
 50
359.9999999999968
 51
90.0
  0
LINE
  5
711C
330
1F
100
AcDbEntity
  8
0
  6
Continuous
 62
     7
 48
0.5
370
    -3
100
AcDbLine
 10
3725.999999999704
 20
217.0000000000003
 30
0.0
 11
3725.999999999704
 21
213.0000000000003
 31
0.0
  0
LINE
  5
711D
330
1F
100
AcDbEntity
  8
0
  6
Continuous
 62
     7
 48
0.5
370
    -3
100
AcDbLine
 10
3735.399999999707
 20
219.5000000000003
 30
0.0
 11
3735.399999999707
 21
217.0000000000003
 31
0.0
  0
ARC
  5
711E
330
1F
100
AcDbEntity
  8
0
  6
Continuous
 62
     7
 48
0.5
370
    -3
100
AcDbCircle
 10
3735.899999999707
 20
219.5000000000003
 30
0.0
 40
0.5
100
AcDbArc
 50
90.0
 51
180.0000000000032
  0
LINE
  5
711F
330
1F
100
AcDbEntity
  8
0
  6
Continuous
 62
     7
 48
0.5
370
    -3
100
AcDbLine
 10
3728.799999999707
 20
219.5000000000003
 30
0.0
 11
3728.799999999707
 21
217.0000000000003
 31
0.0
  0
ARC
  5
7120
330
1F
100
AcDbEntity
  8
0
  6
Continuous
 62
     7
 48
0.5
370
    -3
100
AcDbCircle
 10
3729.299999999707
 20
219.5000000000003
 30
0.0
 40
0.5
100
AcDbArc
 50
90.0
 51
180.0
  0
LINE
  5
7121
330
1F
100
AcDbEntity
  8
0
  6
Continuous
 62
     7
 48
0.5
370
    -3
100
AcDbLine
 10
3733.638866826102
 20
225.0000000000003
 30
0.0
 11
3733.638866826102
 21
220.0000000000003
 31
0.0
  0
LINE
  5
7122
330
1F
100
AcDbEntity
  8
0
  6
Continuous
 62
     7
 48
0.5
370
    -3
100
AcDbLine
 10
3725.199999999702
 20
254.0000000000004
 30
0.0
 11
3725.199999999702
 21
225.0000000000003
 31
0.0
  0
ARC
  5
7123
330
1F
100
AcDbEntity
  8
0
  6
Continuous
 62
     7
 48
0.5
370
    -3
100
AcDbCircle
 10
3726.199999999702
 20
254.0000000000004
 30
0.0
 40
1.0
100
AcDbArc
 50
90.0
 51
180.0
  0
LINE
  5
7124
330
1F
100
AcDbEntity
  8
0
  6
Continuous
 62
     7
 48
0.5
370
    -3
100
AcDbLine
 10
3728.199999999703
 20
255.0000000000003
 30
0.0
 11
3728.199999999703
 21
225.0000000000003
 31
0.0
  0
LINE
  5
7125
330
1F
100
AcDbEntity
  8
0
  6
Continuous
 62
     7
 48
0.5
370
    -3
100
AcDbLine
 10
3730.299120863946
 20
225.0000000000003
 30
0.0
 11
3730.299120863946
 21
220.0000000000003
 31
0.0
  0
ARC
  5
7126
330
1F
100
AcDbEntity
  8
0
  6
Continuous
 62
     7
 48
0.5
370
    -3
100
AcDbCircle
 10
3762.399999999705
 20
219.5000000000002
 30
0.0
 40
0.5
100
AcDbArc
 50
359.9999999999968
 51
90.0
  0
MTEXT
  5
7127
330
1F
100
AcDbEntity
  8
0
  6
Continuous
 62
     1
 48
0.5
370
    -3
100
AcDbMText
 10
3875.999999999704
 20
-5.000000000000071
 30
0.0
 40
2.5
 41
32.05805302350382
 46
0.0
 71
     2
 72
     5
  1
8号200型
 73
     1
 44
1.0
1001
ACAD
1000
ACAD_MTEXT_COLUMN_INFO_BEGIN
1070
    75
1070
     2
1070
    79
1070
     0
1070
    76
1070
     1
1070
    78
1070
     0
1070
    48
1040
32.05805302350382
1070
    49
1040
12.5
1070
    50
1070
     1
1040
0.0
1000
ACAD_MTEXT_COLUMN_INFO_END
  0
MTEXT
  5
7128
330
1F
100
AcDbEntity
  8
0
  6
Continuous
 62
     1
 48
0.5
370
    -3
100
AcDbMText
 10
3875.999999999704
 20
-13.00000000000007
 30
0.0
 40
2.5
 41
32.05805302350382
 46
0.0
 71
     2
 72
     5
  1
KMDE820□
 73
     1
 44
1.0
1001
ACAD
1000
ACAD_MTEXT_COLUMN_INFO_BEGIN
1070
    75
1070
     2
1070
    79
1070
     0
1070
    76
1070
     1
1070
    78
1070
     0
1070
    48
1040
32.05805302350382
1070
    49
1040
12.5
1070
    50
1070
     1
1040
0.0
1000
ACAD_MTEXT_COLUMN_INFO_END
  0
LINE
  5
725D
330
1F
100
AcDbEntity
  8
0
  6
CENTER2
 62
     2
 48
0.5
370
    -3
100
AcDbLine
 10
-0.0000000000000194
 20
0.0000000000003411
 30
0.0
 11
-0.0000000000000092
 21
26.00000000000035
 31
0.0
  0
LINE
  5
725E
330
1F
100
AcDbEntity
  8
0
  6
Continuous
 62
     7
 48
0.5
370
    -3
100
AcDbLine
 10
-17.00000000000001
 20
3.000000000000341
 30
0.0
 11
16.99999999999998
 21
3.000000000000341
 31
0.0
  0
LINE
  5
725F
330
1F
100
AcDbEntity
  8
0
  6
Continuous
 62
     7
 48
0.5
370
    -3
100
AcDbLine
 10
-18.49999999999997
 20
23.00000000000036
 30
0.0
 11
18.49999999999999
 21
23.00000000000034
 31
0.0
  0
LINE
  5
7260
330
1F
100
AcDbEntity
  8
0
  6
Continuous
 62
     7
 48
0.5
370
    -3
100
AcDbLine
 10
19.99999999999998
 20
6.000000000000341
 30
0.0
 11
19.99999999999999
 21
22.20000000000027
 31
0.0
  0
ARC
  5
7261
330
1F
100
AcDbEntity
  8
0
  6
Continuous
 62
     7
 48
0.5
370
    -3
100
AcDbCircle
 10
16.99999999999998
 20
6.000000000000341
 30
0.0
 40
3.0
100
AcDbArc
 50
270.0
 51
0.0
  0
LINE
  5
7262
330
1F
100
AcDbEntity
  8
0
  6
Continuous
 62
     7
 48
0.5
370
    -3
100
AcDbLine
 10
19.99999999999999
 20
22.20000000000027
 30
0.0
 11
18.49999999999999
 21
23.00000000000034
 31
0.0
  0
LINE
  5
7271
330
1F
100
AcDbEntity
  8
0
  6
Continuous
 62
     7
 48
0.5
370
    -3
100
AcDbLine
 10
-20.00000000000001
 20
6.000000000000341
 30
0.0
 11
-20.00000000000001
 21
22.20000000000027
 31
0.0
  0
ARC
  5
7272
330
1F
100
AcDbEntity
  8
0
  6
Continuous
 62
     7
 48
0.5
370
    -3
100
AcDbCircle
 10
-17.00000000000001
 20
6.000000000000341
 30
0.0
 40
3.0
100
AcDbArc
 50
180.0
 51
270.0
  0
LINE
  5
7273
330
1F
100
AcDbEntity
  8
0
  6
Continuous
 62
     7
 48
0.5
370
    -3
100
AcDbLine
 10
-20.00000000000001
 20
22.20000000000027
 30
0.0
 11
-18.50000000000001
 21
23.00000000000034
 31
0.0
  0
LINE
  5
74EF
330
1F
100
AcDbEntity
  8
0
  6
CENTER2
 62
     2
 48
0.5
370
    -3
100
AcDbLine
 10
1874.799999999629
 20
156.0000000000003
 30
0.0
 11
1874.799999999636
 21
0.0000000000002345
 31
0.0
  0
LINE
  5
74F0
330
1F
100
AcDbEntity
  8
0
  6
Continuous
 62
     7
 48
0.5
370
    -3
100
AcDbLine
 10
1972.799999999636
 20
3.000000000000234
 30
0.0
 11
1776.799999999627
 21
3.000000000000291
 31
0.0
  0
LINE
  5
74F4
330
1F
100
AcDbEntity
  8
0
  6
Continuous
 62
     7
 48
0.5
370
    -3
100
AcDbLine
 10
1776.799999999628
 20
153.0000000000003
 30
0.0
 11
1972.799999999635
 21
153.0000000000003
 31
0.0
  0
ARC
  5
751D
330
1F
100
AcDbEntity
  8
0
  6
Continuous
 62
     7
 48
0.5
370
    -3
100
AcDbCircle
 10
1776.799999999627
 20
5.000000000000291
 30
0.0
 40
2.0
100
AcDbArc
 50
180.0
 51
270.0
  0
LINE
  5
751E
330
1F
100
AcDbEntity
  8
0
  6
Continuous
 62
     7
 48
0.5
370
    -3
100
AcDbLine
 10
1774.799999999629
 20
151.0000000000003
 30
0.0
 11
1774.799999999625
 21
5.000000000000345
 31
0.0
  0
ARC
  5
7520
330
1F
100
AcDbEntity
  8
0
  6
Continuous
 62
     7
 48
0.5
370
    -3
100
AcDbCircle
 10
1776.799999999628
 20
151.0000000000003
 30
0.0
 40
2.0
100
AcDbArc
 50
90.0
 51
180.0
  0
LINE
  5
7545
330
1F
100
AcDbEntity
  8
0
  6
CENTER2
 62
     2
 48
0.5
370
    -3
100
AcDbLine
 10
2106.399999999638
 20
206.0000000000004
 30
0.0
 11
2106.399999999647
 21
0.0000000000002842
 31
0.0
  0
LINE
  5
7546
330
1F
100
AcDbEntity
  8
0
  6
Continuous
 62
     7
 48
0.5
370
    -3
100
AcDbLine
 10
2204.399999999647
 20
3.000000000000284
 30
0.0
 11
2008.399999999638
 21
3.000000000000284
 31
0.0
  0
LINE
  5
754A
330
1F
100
AcDbEntity
  8
0
  6
Continuous
 62
     7
 48
0.5
370
    -3
100
AcDbLine
 10
2008.399999999638
 20
203.0000000000003
 30
0.0
 11
2204.399999999646
 21
203.0000000000003
 31
0.0
  0
ARC
  5
7573
330
1F
100
AcDbEntity
  8
0
  6
Continuous
 62
     7
 48
0.5
370
    -3
100
AcDbCircle
 10
2008.399999999638
 20
5.000000000000284
 30
0.0
 40
2.0
100
AcDbArc
 50
180.0
 51
270.0
  0
LINE
  5
7574
330
1F
100
AcDbEntity
  8
0
  6
Continuous
 62
     7
 48
0.5
370
    -3
100
AcDbLine
 10
2006.399999999641
 20
201.0000000000003
 30
0.0
 11
2006.399999999636
 21
5.000000000000338
 31
0.0
  0
ARC
  5
7576
330
1F
100
AcDbEntity
  8
0
  6
Continuous
 62
     7
 48
0.5
370
    -3
100
AcDbCircle
 10
2008.399999999638
 20
201.0000000000003
 30
0.0
 40
2.0
100
AcDbArc
 50
90.0
 51
180.0
  0
LINE
  5
759B
330
1F
100
AcDbEntity
  8
0
  6
CENTER2
 62
     2
 48
0.5
370
    -3
100
AcDbLine
 10
2362.999999999653
 20
106.0000000000003
 30
0.0
 11
2362.999999999657
 21
0.0000000000002771
 31
0.0
  0
LINE
  5
759C
330
1F
100
AcDbEntity
  8
0
  6
Continuous
 62
     7
 48
0.5
370
    -3
100
AcDbLine
 10
2485.999999999657
 20
3.000000000000277
 30
0.0
 11
2239.999999999648
 21
3.000000000000333
 31
0.0
  0
LINE
  5
75A0
330
1F
100
AcDbEntity
  8
0
  6
Continuous
 62
     7
 48
0.5
370
    -3
100
AcDbLine
 10
2239.999999999649
 20
103.0000000000004
 30
0.0
 11
2485.999999999656
 21
103.0000000000003
 31
0.0
  0
ARC
  5
75C9
330
1F
100
AcDbEntity
  8
0
  6
Continuous
 62
     7
 48
0.5
370
    -3
100
AcDbCircle
 10
2239.999999999648
 20
5.000000000000333
 30
0.0
 40
2.0
100
AcDbArc
 50
180.0
 51
270.0
  0
LINE
  5
75CA
330
1F
100
AcDbEntity
  8
0
  6
Continuous
 62
     7
 48
0.5
370
    -3
100
AcDbLine
 10
2237.999999999649
 20
101.0000000000003
 30
0.0
 11
2237.99999999965
 21
5.000000000000314
 31
0.0
  0
ARC
  5
75CC
330
1F
100
AcDbEntity
  8
0
  6
Continuous
 62
     7
 48
0.5
370
    -3
100
AcDbCircle
 10
2239.999999999649
 20
101.0000000000004
 30
0.0
 40
2.0
100
AcDbArc
 50
90.0
 51
180.0
  0
LINE
  5
75F1
330
1F
100
AcDbEntity
  8
0
  6
CENTER2
 62
     2
 48
0.5
370
    -3
100
AcDbLine
 10
2644.599999999661
 20
156.0000000000003
 30
0.0
 11
2644.599999999668
 21
0.00000000000027
 31
0.0
  0
LINE
  5
75F2
330
1F
100
AcDbEntity
  8
0
  6
Continuous
 62
     7
 48
0.5
370
    -3
100
AcDbLine
 10
2767.599999999668
 20
3.00000000000027
 30
0.0
 11
2521.599999999658
 21
3.00000000000027
 31
0.0
  0
LINE
  5
75F6
330
1F
100
AcDbEntity
  8
0
  6
Continuous
 62
     7
 48
0.5
370
    -3
100
AcDbLine
 10
2521.59999999966
 20
153.0000000000003
 30
0.0
 11
2767.599999999667
 21
153.0000000000003
 31
0.0
  0
ARC
  5
761F
330
1F
100
AcDbEntity
  8
0
  6
Continuous
 62
     7
 48
0.5
370
    -3
100
AcDbCircle
 10
2521.599999999658
 20
5.00000000000027
 30
0.0
 40
2.0
100
AcDbArc
 50
180.0
 51
270.0
  0
LINE
  5
7620
330
1F
100
AcDbEntity
  8
0
  6
Continuous
 62
     7
 48
0.5
370
    -3
100
AcDbLine
 10
2519.599999999661
 20
151.0000000000004
 30
0.0
 11
2519.599999999658
 21
5.000000000000313
 31
0.0
  0
ARC
  5
7622
330
1F
100
AcDbEntity
  8
0
  6
Continuous
 62
     7
 48
0.5
370
    -3
100
AcDbCircle
 10
2521.59999999966
 20
151.0000000000004
 30
0.0
 40
2.0
100
AcDbArc
 50
90.0
 51
180.0
  0
LINE
  5
7647
330
1F
100
AcDbEntity
  8
0
  6
CENTER2
 62
     2
 48
0.5
370
    -3
100
AcDbLine
 10
2926.19999999967
 20
206.0000000000004
 30
0.0
 11
2926.199999999678
 21
0.00000000000027
 31
0.0
  0
LINE
  5
7648
330
1F
100
AcDbEntity
  8
0
  6
Continuous
 62
     7
 48
0.5
370
    -3
100
AcDbLine
 10
3049.199999999678
 20
3.000000000000213
 30
0.0
 11
2803.199999999669
 21
3.00000000000027
 31
0.0
  0
LINE
  5
764C
330
1F
100
AcDbEntity
  8
0
  6
Continuous
 62
     7
 48
0.5
370
    -3
100
AcDbLine
 10
2803.19999999967
 20
203.0000000000003
 30
0.0
 11
3049.199999999677
 21
203.0000000000003
 31
0.0
  0
ARC
  5
7675
330
1F
100
AcDbEntity
  8
0
  6
Continuous
 62
     7
 48
0.5
370
    -3
100
AcDbCircle
 10
2803.199999999669
 20
5.00000000000027
 30
0.0
 40
2.0
100
AcDbArc
 50
180.0
 51
270.0
  0
LINE
  5
7676
330
1F
100
AcDbEntity
  8
0
  6
Continuous
 62
     7
 48
0.5
370
    -3
100
AcDbLine
 10
2801.199999999673
 20
201.0000000000003
 30
0.0
 11
2801.199999999668
 21
5.00000000000031
 31
0.0
  0
ARC
  5
7678
330
1F
100
AcDbEntity
  8
0
  6
Continuous
 62
     7
 48
0.5
370
    -3
100
AcDbCircle
 10
2803.19999999967
 20
201.0000000000003
 30
0.0
 40
2.0
100
AcDbArc
 50
90.0
 51
180.0
  0
LINE
  5
769D
330
1F
100
AcDbEntity
  8
0
  6
CENTER2
 62
     2
 48
0.5
370
    -3
100
AcDbLine
 10
3222.799999999684
 20
106.0000000000003
 30
0.0
 11
3222.799999999689
 21
0.00000000000027
 31
0.0
  0
LINE
  5
769E
330
1F
100
AcDbEntity
  8
0
  6
Continuous
 62
     7
 48
0.5
370
    -3
100
AcDbLine
 10
3360.799999999688
 20
3.000000000000273
 30
0.0
 11
3084.799999999679
 21
3.000000000000326
 31
0.0
  0
LINE
  5
76A2
330
1F
100
AcDbEntity
  8
0
  6
Continuous
 62
     7
 48
0.5
370
    -3
100
AcDbLine
 10
3084.79999999968
 20
103.0000000000004
 30
0.0
 11
3360.799999999688
 21
103.0000000000003
 31
0.0
  0
ARC
  5
76CB
330
1F
100
AcDbEntity
  8
0
  6
Continuous
 62
     7
 48
0.5
370
    -3
100
AcDbCircle
 10
3084.799999999679
 20
5.000000000000326
 30
0.0
 40
2.0
100
AcDbArc
 50
180.0
 51
270.0
  0
LINE
  5
76CC
330
1F
100
AcDbEntity
  8
0
  6
Continuous
 62
     7
 48
0.5
370
    -3
100
AcDbLine
 10
3082.799999999681
 20
101.0000000000003
 30
0.0
 11
3082.799999999682
 21
5.000000000000307
 31
0.0
  0
ARC
  5
76CE
330
1F
100
AcDbEntity
  8
0
  6
Continuous
 62
     7
 48
0.5
370
    -3
100
AcDbCircle
 10
3084.79999999968
 20
101.0000000000004
 30
0.0
 40
2.0
100
AcDbArc
 50
90.0
 51
180.0
  0
LINE
  5
76F3
330
1F
100
AcDbEntity
  8
0
  6
CENTER2
 62
     2
 48
0.5
370
    -3
100
AcDbLine
 10
3544.399999999693
 20
156.0000000000003
 30
0.0
 11
3544.399999999699
 21
0.0000000000002771
 31
0.0
  0
LINE
  5
76F4
330
1F
100
AcDbEntity
  8
0
  6
Continuous
 62
     7
 48
0.5
370
    -3
100
AcDbLine
 10
3692.399999999699
 20
3.000000000000277
 30
0.0
 11
3396.399999999689
 21
3.000000000000277
 31
0.0
  0
LINE
  5
76F8
330
1F
100
AcDbEntity
  8
0
  6
Continuous
 62
     7
 48
0.5
370
    -3
100
AcDbLine
 10
3396.399999999691
 20
153.0000000000003
 30
0.0
 11
3692.399999999698
 21
153.0000000000003
 31
0.0
  0
ARC
  5
7721
330
1F
100
AcDbEntity
  8
0
  6
Continuous
 62
     7
 48
0.5
370
    -3
100
AcDbCircle
 10
3396.399999999689
 20
5.000000000000277
 30
0.0
 40
2.0
100
AcDbArc
 50
180.0
 51
270.0
  0
LINE
  5
7722
330
1F
100
AcDbEntity
  8
0
  6
Continuous
 62
     7
 48
0.5
370
    -3
100
AcDbLine
 10
3394.399999999693
 20
151.0000000000003
 30
0.0
 11
3394.399999999688
 21
5.000000000000331
 31
0.0
  0
ARC
  5
7724
330
1F
100
AcDbEntity
  8
0
  6
Continuous
 62
     7
 48
0.5
370
    -3
100
AcDbCircle
 10
3396.399999999691
 20
151.0000000000003
 30
0.0
 40
2.0
100
AcDbArc
 50
90.0
 51
180.0
  0
LINE
  5
7749
330
1F
100
AcDbEntity
  8
0
  6
CENTER2
 62
     2
 48
0.5
370
    -3
100
AcDbLine
 10
3875.999999999701
 20
206.0000000000004
 30
0.0
 11
3875.999999999709
 21
0.0000000000002771
 31
0.0
  0
LINE
  5
774A
330
1F
100
AcDbEntity
  8
0
  6
Continuous
 62
     7
 48
0.5
370
    -3
100
AcDbLine
 10
4023.999999999708
 20
3.00000000000022
 30
0.0
 11
3727.9999999997
 21
3.000000000000277
 31
0.0
  0
LINE
  5
774E
330
1F
100
AcDbEntity
  8
0
  6
Continuous
 62
     7
 48
0.5
370
    -3
100
AcDbLine
 10
3727.999999999701
 20
203.0000000000003
 30
0.0
 11
4023.999999999708
 21
203.0000000000003
 31
0.0
  0
ARC
  5
7777
330
1F
100
AcDbEntity
  8
0
  6
Continuous
 62
     7
 48
0.5
370
    -3
100
AcDbCircle
 10
3727.9999999997
 20
5.000000000000277
 30
0.0
 40
2.0
100
AcDbArc
 50
180.0
 51
270.0
  0
LINE
  5
7778
330
1F
100
AcDbEntity
  8
0
  6
Continuous
 62
     7
 48
0.5
370
    -3
100
AcDbLine
 10
3725.999999999704
 20
201.0000000000003
 30
0.0
 11
3725.999999999699
 21
5.000000000000317
 31
0.0
  0
ARC
  5
777A
330
1F
100
AcDbEntity
  8
0
  6
Continuous
 62
     7
 48
0.5
370
    -3
100
AcDbCircle
 10
3727.999999999701
 20
201.0000000000003
 30
0.0
 40
2.0
100
AcDbArc
 50
90.0
 51
180.0
  0
ARC
  5
77B6
330
1F
100
AcDbEntity
  8
0
  6
Continuous
 62
     7
 48
0.5
370
    -3
100
AcDbCircle
 10
1972.799999999645
 20
5.000000000000291
 30
0.0
 40
2.0
100
AcDbArc
 50
270.0
 51
0.000000000000007
  0
LINE
  5
77B7
330
1F
100
AcDbEntity
  8
0
  6
Continuous
 62
     7
 48
0.5
370
    -3
100
AcDbLine
 10
1974.799999999643
 20
151.0000000000003
 30
0.0
 11
1974.799999999647
 21
5.000000000000345
 31
0.0
  0
ARC
  5
77B8
330
1F
100
AcDbEntity
  8
0
  6
Continuous
 62
     7
 48
0.5
370
    -3
100
AcDbCircle
 10
1972.799999999644
 20
151.0000000000003
 30
0.0
 40
2.0
100
AcDbArc
 50
0.000000000000007
 51
90.0
  0
ARC
  5
77BC
330
1F
100
AcDbEntity
  8
0
  6
Continuous
 62
     7
 48
0.5
370
    -3
100
AcDbCircle
 10
2204.399999999656
 20
5.00000000000645
 30
0.0
 40
2.0
100
AcDbArc
 50
270.0
 51
0.0000000000036123
  0
LINE
  5
77BD
330
1F
100
AcDbEntity
  8
0
  6
Continuous
 62
     7
 48
0.5
370
    -3
100
AcDbLine
 10
2206.399999999639
 20
201.0000000000066
 30
0.0
 11
2206.399999999658
 21
5.000000000006631
 31
0.0
  0
ARC
  5
77BE
330
1F
100
AcDbEntity
  8
0
  6
Continuous
 62
     7
 48
0.5
370
    -3
100
AcDbCircle
 10
2204.399999999642
 20
201.0000000000065
 30
0.0
 40
2.0
100
AcDbArc
 50
0.0000000000036123
 51
90.0
  0
ARC
  5
77C2
330
1F
100
AcDbEntity
  8
0
  6
Continuous
 62
     7
 48
0.5
370
    -3
100
AcDbCircle
 10
2485.999999999667
 20
5.000000000000333
 30
0.0
 40
2.0
100
AcDbArc
 50
270.0
 51
0.000000000000007
  0
LINE
  5
77C3
330
1F
100
AcDbEntity
  8
0
  6
Continuous
 62
     7
 48
0.5
370
    -3
100
AcDbLine
 10
2487.999999999666
 20
101.0000000000003
 30
0.0
 11
2487.999999999664
 21
5.000000000000314
 31
0.0
  0
ARC
  5
77C4
330
1F
100
AcDbEntity
  8
0
  6
Continuous
 62
     7
 48
0.5
370
    -3
100
AcDbCircle
 10
2485.999999999665
 20
101.0000000000004
 30
0.0
 40
2.0
100
AcDbArc
 50
0.000000000000007
 51
90.0
  0
ARC
  5
77C8
330
1F
100
AcDbEntity
  8
0
  6
Continuous
 62
     7
 48
0.5
370
    -3
100
AcDbCircle
 10
2767.599999999676
 20
5.00000000000027
 30
0.0
 40
2.0
100
AcDbArc
 50
270.0
 51
0.000000000000007
  0
LINE
  5
77C9
330
1F
100
AcDbEntity
  8
0
  6
Continuous
 62
     7
 48
0.5
370
    -3
100
AcDbLine
 10
2769.599999999674
 20
151.0000000000004
 30
0.0
 11
2769.599999999677
 21
5.000000000000313
 31
0.0
  0
ARC
  5
77CA
330
1F
100
AcDbEntity
  8
0
  6
Continuous
 62
     7
 48
0.5
370
    -3
100
AcDbCircle
 10
2767.599999999676
 20
151.0000000000004
 30
0.0
 40
2.0
100
AcDbArc
 50
0.000000000000007
 51
90.0
  0
ARC
  5
77CE
330
1F
100
AcDbEntity
  8
0
  6
Continuous
 62
     7
 48
0.5
370
    -3
100
AcDbCircle
 10
3049.199999999687
 20
5.00000000000027
 30
0.0
 40
2.0
100
AcDbArc
 50
270.0
 51
0.000000000000007
  0
LINE
  5
77CF
330
1F
100
AcDbEntity
  8
0
  6
Continuous
 62
     7
 48
0.5
370
    -3
100
AcDbLine
 10
3051.199999999683
 20
201.0000000000003
 30
0.0
 11
3051.199999999687
 21
5.00000000000031
 31
0.0
  0
ARC
  5
77D0
330
1F
100
AcDbEntity
  8
0
  6
Continuous
 62
     7
 48
0.5
370
    -3
100
AcDbCircle
 10
3049.199999999686
 20
201.0000000000003
 30
0.0
 40
2.0
100
AcDbArc
 50
0.000000000000007
 51
90.0
  0
ARC
  5
77DD
330
1F
100
AcDbEntity
  8
0
  6
Continuous
 62
     7
 48
0.5
370
    -3
100
AcDbCircle
 10
3360.799999999693
 20
5.000000000000326
 30
0.0
 40
2.0
100
AcDbArc
 50
270.0
 51
0.000000000000007
  0
LINE
  5
77DE
330
1F
100
AcDbEntity
  8
0
  6
Continuous
 62
     7
 48
0.5
370
    -3
100
AcDbLine
 10
3362.799999999692
 20
101.0000000000003
 30
0.0
 11
3362.79999999969
 21
5.000000000000307
 31
0.0
  0
ARC
  5
77DF
330
1F
100
AcDbEntity
  8
0
  6
Continuous
 62
     7
 48
0.5
370
    -3
100
AcDbCircle
 10
3360.799999999692
 20
101.0000000000004
 30
0.0
 40
2.0
100
AcDbArc
 50
0.000000000000007
 51
90.0
  0
ARC
  5
77E4
330
1F
100
AcDbEntity
  8
0
  6
Continuous
 62
     7
 48
0.5
370
    -3
100
AcDbCircle
 10
3692.399999999708
 20
5.000000000000277
 30
0.0
 40
2.0
100
AcDbArc
 50
270.0
 51
0.000000000000007
  0
LINE
  5
77E5
330
1F
100
AcDbEntity
  8
0
  6
Continuous
 62
     7
 48
0.5
370
    -3
100
AcDbLine
 10
3694.399999999705
 20
151.0000000000003
 30
0.0
 11
3694.399999999709
 21
5.000000000000331
 31
0.0
  0
ARC
  5
77E6
330
1F
100
AcDbEntity
  8
0
  6
Continuous
 62
     7
 48
0.5
370
    -3
100
AcDbCircle
 10
3692.399999999707
 20
151.0000000000003
 30
0.0
 40
2.0
100
AcDbArc
 50
0.000000000000007
 51
90.0
  0
ARC
  5
77EA
330
1F
100
AcDbEntity
  8
0
  6
Continuous
 62
     7
 48
0.5
370
    -3
100
AcDbCircle
 10
4023.999999999718
 20
5.000000000000277
 30
0.0
 40
2.0
100
AcDbArc
 50
270.0
 51
0.000000000000007
  0
LINE
  5
77EB
330
1F
100
AcDbEntity
  8
0
  6
Continuous
 62
     7
 48
0.5
370
    -3
100
AcDbLine
 10
4025.999999999714
 20
201.0000000000003
 30
0.0
 11
4025.999999999718
 21
5.000000000000317
 31
0.0
  0
ARC
  5
77EC
330
1F
100
AcDbEntity
  8
0
  6
Continuous
 62
     7
 48
0.5
370
    -3
100
AcDbCircle
 10
4023.999999999717
 20
201.0000000000003
 30
0.0
 40
2.0
100
AcDbArc
 50
0.000000000000007
 51
90.0
  0
LINE
  5
7A25
330
1F
100
AcDbEntity
  8
0
  6
Continuous
 62
     7
 48
0.5
100
AcDbLine
 10
1143.799999999612
 20
3.000000000000312
 30
0.0
 11
1075.799999999612
 21
3.000000000000312
 31
0.0
  0
ARC
  5
7A26
330
1F
100
AcDbEntity
  8
0
  6
Continuous
 62
     7
 48
0.5
100
AcDbCircle
 10
1143.799999999612
 20
10.00000000000031
 30
0.0
 40
7.0
100
AcDbArc
 50
270.0
 51
0.0
  0
LINE
  5
7A29
330
1F
100
AcDbEntity
  8
0
  6
Continuous
 62
     7
 48
0.5
100
AcDbLine
 10
1007.799999999612
 20
3.000000000000312
 30
0.0
 11
1075.799999999612
 21
3.000000000000312
 31
0.0
  0
ARC
  5
7A2A
330
1F
100
AcDbEntity
  8
0
  6
Continuous
 62
     7
 48
0.5
100
AcDbCircle
 10
1007.799999999612
 20
10.00000000000031
 30
0.0
 40
7.0
100
AcDbArc
 50
180.0
 51
270.0
  0
LINE
  5
7A2B
330
1F
100
AcDbEntity
  8
0
  6
Continuous
 62
     7
 48
0.5
100
AcDbLine
 10
1005.94676883592
 20
103.0000000000003
 30
0.0
 11
1075.799999999616
 21
103.0000000000003
 31
0.0
  0
ARC
  5
7A2C
330
1F
100
AcDbEntity
  8
0
  6
Continuous
 62
     7
 48
0.5
100
AcDbCircle
 10
1005.94676883592
 20
102.0000000000003
 30
0.0
 40
1.0
100
AcDbArc
 50
90.0
 51
106.6992442339913
  0
LINE
  5
7A2D
330
1F
100
AcDbEntity
  8
0
  6
Continuous
 62
     7
 48
0.5
100
AcDbLine
 10
1145.653231163294
 20
103.0000000000002
 30
0.0
 11
1075.799999999616
 21
103.0000000000003
 31
0.0
  0
LINE
  5
7A2E
330
1F
100
AcDbEntity
  8
0
  6
CENTER2
 62
     2
 48
0.5
100
AcDbLine
 10
1075.799999999616
 20
106.0000000000003
 30
0.0
 11
1075.799999999612
 21
0.0000000000003126
 31
0.0
  0
LINE
  5
7A34
330
1F
100
AcDbEntity
  8
0
  6
Continuous
 62
     7
 48
0.5
100
AcDbLine
 10
1000.799999999612
 20
101.499999999999
 30
0.0
 11
1005.659420950354
 21
102.9578262852214
 31
0.0
  0
LINE
  5
7A35
330
1F
100
AcDbEntity
  8
0
  6
Continuous
 62
     7
 48
0.5
100
AcDbLine
 10
1150.799999999617
 20
101.4999999999987
 30
0.0
 11
1145.94057904886
 21
102.9578262852216
 31
0.0
  0
ARC
  5
7A36
330
1F
100
AcDbEntity
  8
0
  6
Continuous
 62
     7
 48
0.5
100
AcDbCircle
 10
1145.653231163294
 20
102.0000000000002
 30
0.0
 40
1.0
100
AcDbArc
 50
73.30075576604973
 51
90.0
  0
LINE
  5
7A39
330
1F
100
AcDbEntity
  8
0
  6
Continuous
 62
     7
 48
0.5
100
AcDbLine
 10
1000.799999999612
 20
10.00000000000031
 30
0.0
 11
1000.799999999612
 21
101.4999999999991
 31
0.0
  0
LINE
  5
7A4A
330
1F
100
AcDbEntity
  8
0
  6
Continuous
 62
     7
 48
0.5
100
AcDbLine
 10
1150.799999999617
 20
101.4999999999987
 30
0.0
 11
1150.799999999617
 21
10.00000000000031
 31
0.0
  0
LINE
  5
7A63
330
1F
100
AcDbEntity
  8
0
  6
Continuous
 62
     7
 48
0.5
100
AcDbLine
 10
1038.299999999615
 20
118.0000000000003
 30
0.0
 11
1038.299999999615
 21
129.0000000000003
 31
0.0
  0
LINE
  5
7A64
330
1F
100
AcDbEntity
  8
0
  6
Continuous
 62
     7
 48
0.5
100
AcDbLine
 10
1039.299999999615
 20
130.0000000000003
 30
0.0
 11
1075.799999999616
 21
130.0000000000004
 31
0.0
  0
ARC
  5
7A65
330
1F
100
AcDbEntity
  8
0
  6
Continuous
 62
     7
 48
0.5
100
AcDbCircle
 10
1039.299999999615
 20
129.0000000000003
 30
0.0
 40
1.0
100
AcDbArc
 50
90.0
 51
180.0
  0
LINE
  5
7A66
330
1F
100
AcDbEntity
  8
0
  6
Continuous
 62
     7
 48
0.5
100
AcDbLine
 10
1002.299999999635
 20
115.0000000000005
 30
0.0
 11
1075.799999999616
 21
115.0000000000003
 31
0.0
  0
LINE
  5
7A67
330
1F
100
AcDbEntity
  8
0
  6
Continuous
 62
     7
 48
0.5
100
AcDbLine
 10
1000.799999999634
 20
118.0000000000004
 30
0.0
 11
1075.799999999616
 21
118.0000000000003
 31
0.0
  0
LINE
  5
7A68
330
1F
100
AcDbEntity
  8
0
  6
Continuous
 62
     7
 48
0.5
100
AcDbLine
 10
1005.799999999635
 20
116.4999999999998
 30
0.0
 11
1005.799999999634
 21
118.0000000000003
 31
0.0
  0
ARC
  5
7A69
330
1F
100
AcDbEntity
  8
0
  6
Continuous
 62
     7
 48
0.5
100
AcDbCircle
 10
1007.299999999635
 20
116.5000000000004
 30
0.0
 40
1.5
100
AcDbArc
 50
180.0000000000212
 51
270.0
  0
LINE
  5
7A6A
330
1F
100
AcDbEntity
  8
0
  6
Continuous
 62
     7
 48
0.5
100
AcDbLine
 10
1000.799999999635
 20
116.4999999999998
 30
0.0
 11
1000.799999999634
 21
118.0000000000003
 31
0.0
  0
ARC
  5
7A6B
330
1F
100
AcDbEntity
  8
0
  6
Continuous
 62
     7
 48
0.5
100
AcDbCircle
 10
1002.299999999635
 20
116.5000000000004
 30
0.0
 40
1.5
100
AcDbArc
 50
180.0000000000212
 51
270.0
  0
LINE
  5
7A6C
330
1F
100
AcDbEntity
  8
0
  6
Continuous
 62
     7
 48
0.5
100
AcDbLine
 10
1001.001519759965
 20
148.0000000000005
 30
0.0
 11
1037.899999999616
 21
148.0000000000003
 31
0.0
  0
ARC
  5
7A6D
330
1F
100
AcDbEntity
  8
0
  6
Continuous
 62
     7
 48
0.5
100
AcDbCircle
 10
1037.899999999616
 20
147.0000000000004
 30
0.0
 40
1.0
100
AcDbArc
 50
0.0
 51
90.0
  0
LINE
  5
7A6E
330
1F
100
AcDbEntity
  8
0
  6
Continuous
 62
     7
 48
0.5
100
AcDbLine
 10
1001.001519759965
 20
123.0000000000005
 30
0.0
 11
1009.424345902178
 21
123.0000000000005
 31
0.0
  0
LINE
  5
7A6F
330
1F
100
AcDbEntity
  8
0
  6
Continuous
 62
     7
 48
0.5
100
AcDbLine
 10
1038.899999999616
 20
147.0000000000004
 30
0.0
 11
1038.899999999616
 21
129.9165151389916
 31
0.0
  0
LINE
  5
7A70
330
1F
100
AcDbEntity
  8
0
  6
Continuous
 62
     7
 48
0.5
100
AcDbLine
 10
1009.424345902178
 20
123.0000000000003
 30
0.0
 11
1009.424345902178
 21
118.0000000000004
 31
0.0
  0
LINE
  5
7A71
330
1F
100
AcDbEntity
  8
0
  6
Continuous
 62
     7
 48
0.5
100
AcDbLine
 10
1006.364788689103
 20
123.0000000000003
 30
0.0
 11
1006.364788689103
 21
118.0000000000004
 31
0.0
  0
LINE
  5
7A72
330
1F
100
AcDbEntity
  8
0
  6
Continuous
 62
     7
 48
0.5
100
AcDbLine
 10
1000.001519759964
 20
147.0000000000005
 30
0.0
 11
1000.001519759964
 21
124.0000000000005
 31
0.0
  0
ARC
  5
7A73
330
1F
100
AcDbEntity
  8
0
  6
Continuous
 62
     7
 48
0.5
100
AcDbCircle
 10
1001.001519759965
 20
147.0000000000005
 30
0.0
 40
1.0
100
AcDbArc
 50
90.0
 51
180.0
  0
ARC
  5
7A74
330
1F
100
AcDbEntity
  8
0
  6
Continuous
 62
     7
 48
0.5
100
AcDbCircle
 10
1001.001519759965
 20
124.0000000000005
 30
0.0
 40
1.0
100
AcDbArc
 50
180.0
 51
270.0
  0
LINE
  5
7A75
330
1F
100
AcDbEntity
  8
0
  6
Continuous
 62
     7
 48
0.5
100
AcDbLine
 10
1002.999999999616
 20
148.0000000000005
 30
0.0
 11
1002.999999999616
 21
123.0000000000004
 31
0.0
  0
LINE
  5
7A7A
330
1F
100
AcDbEntity
  8
0
  6
CENTER2
 62
     2
 48
0.5
100
AcDbLine
 10
1075.799999999616
 20
151.0000000000003
 30
0.0
 11
1075.799999999616
 21
112.0000000000003
 31
0.0
  0
LINE
  5
7A7F
330
1F
100
AcDbEntity
  8
0
  6
Continuous
 62
     7
 48
0.5
100
AcDbLine
 10
1113.299999999616
 20
118.0000000000003
 30
0.0
 11
1113.299999999616
 21
129.0000000000003
 31
0.0
  0
LINE
  5
7A80
330
1F
100
AcDbEntity
  8
0
  6
Continuous
 62
     7
 48
0.5
100
AcDbLine
 10
1112.299999999616
 20
130.0000000000003
 30
0.0
 11
1075.799999999616
 21
130.0000000000004
 31
0.0
  0
ARC
  5
7A81
330
1F
100
AcDbEntity
  8
0
  6
Continuous
 62
     7
 48
0.5
100
AcDbCircle
 10
1112.299999999616
 20
129.0000000000003
 30
0.0
 40
1.0
100
AcDbArc
 50
0.0
 51
90.0
  0
LINE
  5
7A82
330
1F
100
AcDbEntity
  8
0
  6
Continuous
 62
     7
 48
0.5
100
AcDbLine
 10
1149.299999999596
 20
115.0000000000005
 30
0.0
 11
1075.799999999616
 21
115.0000000000003
 31
0.0
  0
LINE
  5
7A83
330
1F
100
AcDbEntity
  8
0
  6
Continuous
 62
     7
 48
0.5
100
AcDbLine
 10
1150.799999999597
 20
118.0000000000004
 30
0.0
 11
1075.799999999616
 21
118.0000000000003
 31
0.0
  0
LINE
  5
7A84
330
1F
100
AcDbEntity
  8
0
  6
Continuous
 62
     7
 48
0.5
100
AcDbLine
 10
1145.799999999597
 20
116.4999999999998
 30
0.0
 11
1145.799999999597
 21
118.0000000000003
 31
0.0
  0
ARC
  5
7A85
330
1F
100
AcDbEntity
  8
0
  6
Continuous
 62
     7
 48
0.5
100
AcDbCircle
 10
1144.299999999597
 20
116.5000000000004
 30
0.0
 40
1.5
100
AcDbArc
 50
270.0
 51
359.9999999999789
  0
LINE
  5
7A86
330
1F
100
AcDbEntity
  8
0
  6
Continuous
 62
     7
 48
0.5
100
AcDbLine
 10
1150.799999999597
 20
116.4999999999998
 30
0.0
 11
1150.799999999597
 21
118.0000000000003
 31
0.0
  0
ARC
  5
7A87
330
1F
100
AcDbEntity
  8
0
  6
Continuous
 62
     7
 48
0.5
100
AcDbCircle
 10
1149.299999999596
 20
116.5000000000004
 30
0.0
 40
1.5
100
AcDbArc
 50
270.0
 51
359.9999999999789
  0
LINE
  5
7A88
330
1F
100
AcDbEntity
  8
0
  6
Continuous
 62
     7
 48
0.5
100
AcDbLine
 10
1150.598480239267
 20
148.0000000000005
 30
0.0
 11
1113.699999999616
 21
148.0000000000003
 31
0.0
  0
ARC
  5
7A89
330
1F
100
AcDbEntity
  8
0
  6
Continuous
 62
     7
 48
0.5
100
AcDbCircle
 10
1113.699999999616
 20
147.0000000000004
 30
0.0
 40
1.0
100
AcDbArc
 50
90.0
 51
180.0
  0
LINE
  5
7A8A
330
1F
100
AcDbEntity
  8
0
  6
Continuous
 62
     7
 48
0.5
100
AcDbLine
 10
1150.598480239267
 20
123.0000000000005
 30
0.0
 11
1142.175654097053
 21
123.0000000000005
 31
0.0
  0
LINE
  5
7A8B
330
1F
100
AcDbEntity
  8
0
  6
Continuous
 62
     7
 48
0.5
100
AcDbLine
 10
1112.699999999616
 20
147.0000000000004
 30
0.0
 11
1112.699999999616
 21
129.9165151389916
 31
0.0
  0
LINE
  5
7A8C
330
1F
100
AcDbEntity
  8
0
  6
Continuous
 62
     7
 48
0.5
100
AcDbLine
 10
1142.175654097053
 20
123.0000000000003
 30
0.0
 11
1142.175654097053
 21
118.0000000000004
 31
0.0
  0
LINE
  5
7A8D
330
1F
100
AcDbEntity
  8
0
  6
Continuous
 62
     7
 48
0.5
100
AcDbLine
 10
1145.235211310128
 20
123.0000000000003
 30
0.0
 11
1145.235211310128
 21
118.0000000000004
 31
0.0
  0
LINE
  5
7A8E
330
1F
100
AcDbEntity
  8
0
  6
Continuous
 62
     7
 48
0.5
100
AcDbLine
 10
1151.598480239267
 20
147.0000000000005
 30
0.0
 11
1151.598480239267
 21
124.0000000000005
 31
0.0
  0
ARC
  5
7A8F
330
1F
100
AcDbEntity
  8
0
  6
Continuous
 62
     7
 48
0.5
100
AcDbCircle
 10
1150.598480239267
 20
147.0000000000005
 30
0.0
 40
1.0
100
AcDbArc
 50
0.0
 51
90.0
  0
ARC
  5
7A90
330
1F
100
AcDbEntity
  8
0
  6
Continuous
 62
     7
 48
0.5
100
AcDbCircle
 10
1150.598480239267
 20
124.0000000000005
 30
0.0
 40
1.0
100
AcDbArc
 50
270.0
 51
0.0
  0
LINE
  5
7A91
330
1F
100
AcDbEntity
  8
0
  6
Continuous
 62
     7
 48
0.5
100
AcDbLine
 10
1148.599999999616
 20
148.0000000000005
 30
0.0
 11
1148.599999999616
 21
123.0000000000004
 31
0.0
  0
LINE
  5
7A97
330
1F
100
AcDbEntity
  8
0
  6
Continuous
 62
     7
 48
0.5
100
AcDbLine
 10
1005.799999999617
 20
102.9999999999949
 30
0.0
 11
1005.659420950354
 21
102.9578262852214
 31
0.0
  0
LINE
  5
7A98
330
1F
100
AcDbEntity
  8
0
  6
Continuous
 62
     7
 48
0.5
100
AcDbLine
 10
1005.799999999617
 20
102.9999999999949
 30
0.0
 11
1005.94676883592
 21
102.9999999999949
 31
0.0
  0
LINE
  5
7DAF
330
1F
100
AcDbEntity
  8
0
  6
Continuous
 62
     7
 48
0.5
100
AcDbLine
 10
1324.599999999618
 20
3.000000000000312
 30
0.0
 11
1256.599999999618
 21
3.000000000000312
 31
0.0
  0
ARC
  5
7DB0
330
1F
100
AcDbEntity
  8
0
  6
Continuous
 62
     7
 48
0.5
100
AcDbCircle
 10
1324.599999999618
 20
10.00000000000031
 30
0.0
 40
7.0
100
AcDbArc
 50
270.0
 51
0.0000000000016284
  0
LINE
  5
7DB1
330
1F
100
AcDbEntity
  8
0
  6
Continuous
 62
     7
 48
0.5
100
AcDbLine
 10
1188.599999999618
 20
3.000000000000312
 30
0.0
 11
1256.599999999618
 21
3.000000000000312
 31
0.0
  0
ARC
  5
7DB2
330
1F
100
AcDbEntity
  8
0
  6
Continuous
 62
     7
 48
0.5
100
AcDbCircle
 10
1188.599999999618
 20
10.00000000000031
 30
0.0
 40
7.0
100
AcDbArc
 50
180.0
 51
270.0
  0
LINE
  5
7DB3
330
1F
100
AcDbEntity
  8
0
  6
Continuous
 62
     7
 48
0.5
100
AcDbLine
 10
1186.746768835926
 20
73.00000000000031
 30
0.0
 11
1256.599999999622
 21
73.00000000000031
 31
0.0
  0
ARC
  5
7DB4
330
1F
100
AcDbEntity
  8
0
  6
Continuous
 62
     7
 48
0.5
100
AcDbCircle
 10
1186.746768835926
 20
72.00000000000031
 30
0.0
 40
1.0
100
AcDbArc
 50
90.0
 51
106.6992442339913
  0
LINE
  5
7DB5
330
1F
100
AcDbEntity
  8
0
  6
Continuous
 62
     7
 48
0.5
100
AcDbLine
 10
1326.4532311633
 20
73.00000000000025
 30
0.0
 11
1256.599999999622
 21
73.00000000000031
 31
0.0
  0
LINE
  5
7DB6
330
1F
100
AcDbEntity
  8
0
  6
CENTER2
 62
     2
 48
0.5
100
AcDbLine
 10
1256.599999999621
 20
76.00000000000031
 30
0.0
 11
1256.599999999618
 21
0.0000000000003126
 31
0.0
  0
LINE
  5
7DB9
330
1F
100
AcDbEntity
  8
0
  6
Continuous
 62
     7
 48
0.5
100
AcDbLine
 10
1181.599999999618
 20
71.49999999999886
 30
0.0
 11
1186.45942095036
 21
72.95782628522144
 31
0.0
  0
LINE
  5
7DBA
330
1F
100
AcDbEntity
  8
0
  6
Continuous
 62
     7
 48
0.5
100
AcDbLine
 10
1331.599999999619
 20
71.49999999999519
 30
0.0
 11
1326.740579048866
 21
72.95782628522139
 31
0.0
  0
ARC
  5
7DBB
330
1F
100
AcDbEntity
  8
0
  6
Continuous
 62
     7
 48
0.5
100
AcDbCircle
 10
1326.4532311633
 20
72.00000000000025
 30
0.0
 40
1.0
100
AcDbArc
 50
73.30075576600822
 51
90.0
  0
LINE
  5
7DBC
330
1F
100
AcDbEntity
  8
0
  6
Continuous
 62
     7
 48
0.5
100
AcDbLine
 10
1181.599999999618
 20
10.00000000000031
 30
0.0
 11
1181.599999999618
 21
71.49999999999886
 31
0.0
  0
LINE
  5
7DCB
330
1F
100
AcDbEntity
  8
0
  6
Continuous
 62
     7
 48
0.5
100
AcDbLine
 10
1331.599999999622
 20
10.00000000000031
 30
0.0
 11
1331.599999999619
 21
71.49999999999519
 31
0.0
  0
LINE
  5
7E03
330
1F
100
AcDbEntity
  8
0
  6
Continuous
 62
     7
 48
0.5
100
AcDbLine
 10
1219.099999999621
 20
88.0000000000003
 30
0.0
 11
1219.099999999621
 21
99.00000000000032
 31
0.0
  0
LINE
  5
7E04
330
1F
100
AcDbEntity
  8
0
  6
Continuous
 62
     7
 48
0.5
100
AcDbLine
 10
1220.099999999621
 20
100.0000000000003
 30
0.0
 11
1256.599999999621
 21
100.0000000000003
 31
0.0
  0
ARC
  5
7E05
330
1F
100
AcDbEntity
  8
0
  6
Continuous
 62
     7
 48
0.5
100
AcDbCircle
 10
1220.099999999621
 20
99.00000000000032
 30
0.0
 40
1.0
100
AcDbArc
 50
90.0
 51
180.0
  0
LINE
  5
7E06
330
1F
100
AcDbEntity
  8
0
  6
Continuous
 62
     7
 48
0.5
100
AcDbLine
 10
1183.09999999964
 20
85.00000000000047
 30
0.0
 11
1256.599999999621
 21
85.00000000000031
 31
0.0
  0
LINE
  5
7E07
330
1F
100
AcDbEntity
  8
0
  6
Continuous
 62
     7
 48
0.5
100
AcDbLine
 10
1181.59999999964
 20
88.00000000000043
 30
0.0
 11
1256.599999999621
 21
88.0000000000003
 31
0.0
  0
LINE
  5
7E08
330
1F
100
AcDbEntity
  8
0
  6
Continuous
 62
     7
 48
0.5
100
AcDbLine
 10
1186.59999999964
 20
86.4999999999998
 30
0.0
 11
1186.59999999964
 21
88.00000000000038
 31
0.0
  0
ARC
  5
7E09
330
1F
100
AcDbEntity
  8
0
  6
Continuous
 62
     7
 48
0.5
100
AcDbCircle
 10
1188.09999999964
 20
86.50000000000037
 30
0.0
 40
1.5
100
AcDbArc
 50
180.0000000000195
 51
270.0
  0
LINE
  5
7E0A
330
1F
100
AcDbEntity
  8
0
  6
Continuous
 62
     7
 48
0.5
100
AcDbLine
 10
1181.59999999964
 20
86.4999999999998
 30
0.0
 11
1181.59999999964
 21
88.00000000000038
 31
0.0
  0
ARC
  5
7E0B
330
1F
100
AcDbEntity
  8
0
  6
Continuous
 62
     7
 48
0.5
100
AcDbCircle
 10
1183.09999999964
 20
86.50000000000037
 30
0.0
 40
1.5
100
AcDbArc
 50
180.0000000000195
 51
270.0
  0
LINE
  5
7E0C
330
1F
100
AcDbEntity
  8
0
  6
Continuous
 62
     7
 48
0.5
100
AcDbLine
 10
1181.80151975997
 20
118.0000000000005
 30
0.0
 11
1218.699999999621
 21
118.0000000000003
 31
0.0
  0
ARC
  5
7E0D
330
1F
100
AcDbEntity
  8
0
  6
Continuous
 62
     7
 48
0.5
100
AcDbCircle
 10
1218.699999999621
 20
117.0000000000003
 30
0.0
 40
1.0
100
AcDbArc
 50
0.0
 51
90.0
  0
LINE
  5
7E0E
330
1F
100
AcDbEntity
  8
0
  6
Continuous
 62
     7
 48
0.5
100
AcDbLine
 10
1181.80151975997
 20
93.00000000000048
 30
0.0
 11
1190.224345902183
 21
93.00000000000048
 31
0.0
  0
LINE
  5
7E0F
330
1F
100
AcDbEntity
  8
0
  6
Continuous
 62
     7
 48
0.5
100
AcDbLine
 10
1219.699999999621
 20
117.0000000000003
 30
0.0
 11
1219.699999999621
 21
99.91651513899157
 31
0.0
  0
LINE
  5
7E10
330
1F
100
AcDbEntity
  8
0
  6
Continuous
 62
     7
 48
0.5
100
AcDbLine
 10
1190.224345902183
 20
93.00000000000038
 30
0.0
 11
1190.224345902183
 21
88.00000000000043
 31
0.0
  0
LINE
  5
7E11
330
1F
100
AcDbEntity
  8
0
  6
Continuous
 62
     7
 48
0.5
100
AcDbLine
 10
1187.164788689109
 20
93.00000000000038
 30
0.0
 11
1187.164788689109
 21
88.00000000000043
 31
0.0
  0
LINE
  5
7E12
330
1F
100
AcDbEntity
  8
0
  6
Continuous
 62
     7
 48
0.5
100
AcDbLine
 10
1180.80151975997
 20
117.0000000000005
 30
0.0
 11
1180.80151975997
 21
94.00000000000048
 31
0.0
  0
ARC
  5
7E13
330
1F
100
AcDbEntity
  8
0
  6
Continuous
 62
     7
 48
0.5
100
AcDbCircle
 10
1181.80151975997
 20
117.0000000000005
 30
0.0
 40
1.0
100
AcDbArc
 50
90.0
 51
180.0
  0
ARC
  5
7E14
330
1F
100
AcDbEntity
  8
0
  6
Continuous
 62
     7
 48
0.5
100
AcDbCircle
 10
1181.80151975997
 20
94.00000000000048
 30
0.0
 40
1.0
100
AcDbArc
 50
180.0
 51
270.0
  0
LINE
  5
7E15
330
1F
100
AcDbEntity
  8
0
  6
Continuous
 62
     7
 48
0.5
100
AcDbLine
 10
1183.799999999621
 20
118.0000000000005
 30
0.0
 11
1183.799999999621
 21
93.00000000000043
 31
0.0
  0
LINE
  5
7E17
330
1F
100
AcDbEntity
  8
0
  6
CENTER2
 62
     2
 48
0.5
100
AcDbLine
 10
1256.599999999621
 20
121.0000000000003
 30
0.0
 11
1256.599999999621
 21
82.00000000000031
 31
0.0
  0
LINE
  5
7E18
330
1F
100
AcDbEntity
  8
0
  6
Continuous
 62
     7
 48
0.5
100
AcDbLine
 10
1294.099999999622
 20
88.0000000000003
 30
0.0
 11
1294.099999999622
 21
99.00000000000032
 31
0.0
  0
LINE
  5
7E19
330
1F
100
AcDbEntity
  8
0
  6
Continuous
 62
     7
 48
0.5
100
AcDbLine
 10
1293.099999999621
 20
100.0000000000003
 30
0.0
 11
1256.599999999621
 21
100.0000000000003
 31
0.0
  0
ARC
  5
7E1A
330
1F
100
AcDbEntity
  8
0
  6
Continuous
 62
     7
 48
0.5
100
AcDbCircle
 10
1293.099999999621
 20
99.00000000000032
 30
0.0
 40
1.0
100
AcDbArc
 50
0.0
 51
90.0
  0
LINE
  5
7E1B
330
1F
100
AcDbEntity
  8
0
  6
Continuous
 62
     7
 48
0.5
100
AcDbLine
 10
1330.099999999602
 20
85.00000000000047
 30
0.0
 11
1256.599999999621
 21
85.00000000000031
 31
0.0
  0
LINE
  5
7E1C
330
1F
100
AcDbEntity
  8
0
  6
Continuous
 62
     7
 48
0.5
100
AcDbLine
 10
1331.599999999603
 20
88.00000000000043
 30
0.0
 11
1256.599999999621
 21
88.0000000000003
 31
0.0
  0
LINE
  5
7E1D
330
1F
100
AcDbEntity
  8
0
  6
Continuous
 62
     7
 48
0.5
100
AcDbLine
 10
1326.599999999602
 20
86.4999999999998
 30
0.0
 11
1326.599999999602
 21
88.00000000000038
 31
0.0
  0
ARC
  5
7E1E
330
1F
100
AcDbEntity
  8
0
  6
Continuous
 62
     7
 48
0.5
100
AcDbCircle
 10
1325.099999999602
 20
86.50000000000037
 30
0.0
 40
1.5
100
AcDbArc
 50
270.0
 51
359.9999999999805
  0
LINE
  5
7E1F
330
1F
100
AcDbEntity
  8
0
  6
Continuous
 62
     7
 48
0.5
100
AcDbLine
 10
1331.599999999602
 20
86.4999999999998
 30
0.0
 11
1331.599999999603
 21
88.00000000000038
 31
0.0
  0
ARC
  5
7E20
330
1F
100
AcDbEntity
  8
0
  6
Continuous
 62
     7
 48
0.5
100
AcDbCircle
 10
1330.099999999602
 20
86.50000000000037
 30
0.0
 40
1.5
100
AcDbArc
 50
270.0
 51
359.9999999999805
  0
LINE
  5
7E21
330
1F
100
AcDbEntity
  8
0
  6
Continuous
 62
     7
 48
0.5
100
AcDbLine
 10
1331.398480239272
 20
118.0000000000005
 30
0.0
 11
1294.499999999621
 21
118.0000000000003
 31
0.0
  0
ARC
  5
7E22
330
1F
100
AcDbEntity
  8
0
  6
Continuous
 62
     7
 48
0.5
100
AcDbCircle
 10
1294.499999999621
 20
117.0000000000003
 30
0.0
 40
1.0
100
AcDbArc
 50
90.0
 51
180.0
  0
LINE
  5
7E23
330
1F
100
AcDbEntity
  8
0
  6
Continuous
 62
     7
 48
0.5
100
AcDbLine
 10
1331.398480239272
 20
93.00000000000048
 30
0.0
 11
1322.975654097059
 21
93.00000000000048
 31
0.0
  0
LINE
  5
7E24
330
1F
100
AcDbEntity
  8
0
  6
Continuous
 62
     7
 48
0.5
100
AcDbLine
 10
1293.499999999621
 20
117.0000000000003
 30
0.0
 11
1293.499999999621
 21
99.91651513899157
 31
0.0
  0
LINE
  5
7E25
330
1F
100
AcDbEntity
  8
0
  6
Continuous
 62
     7
 48
0.5
100
AcDbLine
 10
1322.975654097059
 20
93.00000000000038
 30
0.0
 11
1322.975654097059
 21
88.00000000000043
 31
0.0
  0
LINE
  5
7E26
330
1F
100
AcDbEntity
  8
0
  6
Continuous
 62
     7
 48
0.5
100
AcDbLine
 10
1326.035211310134
 20
93.00000000000038
 30
0.0
 11
1326.035211310134
 21
88.00000000000043
 31
0.0
  0
LINE
  5
7E27
330
1F
100
AcDbEntity
  8
0
  6
Continuous
 62
     7
 48
0.5
100
AcDbLine
 10
1332.398480239272
 20
117.0000000000005
 30
0.0
 11
1332.398480239272
 21
94.00000000000048
 31
0.0
  0
ARC
  5
7E28
330
1F
100
AcDbEntity
  8
0
  6
Continuous
 62
     7
 48
0.5
100
AcDbCircle
 10
1331.398480239272
 20
117.0000000000005
 30
0.0
 40
1.0
100
AcDbArc
 50
0.0
 51
90.0
  0
ARC
  5
7E29
330
1F
100
AcDbEntity
  8
0
  6
Continuous
 62
     7
 48
0.5
100
AcDbCircle
 10
1331.398480239272
 20
94.00000000000048
 30
0.0
 40
1.0
100
AcDbArc
 50
270.0
 51
0.0
  0
LINE
  5
7E2A
330
1F
100
AcDbEntity
  8
0
  6
Continuous
 62
     7
 48
0.5
100
AcDbLine
 10
1329.399999999621
 20
118.0000000000005
 30
0.0
 11
1329.399999999621
 21
93.00000000000043
 31
0.0
  0
LINE
  5
810A
330
1F
100
AcDbEntity
  8
0
  6
Continuous
 62
     7
 48
0.5
100
AcDbLine
 10
1505.399999999618
 20
3.000000000000341
 30
0.0
 11
1437.399999999619
 21
3.000000000000341
 31
0.0
  0
ARC
  5
810B
330
1F
100
AcDbEntity
  8
0
  6
Continuous
 62
     7
 48
0.5
100
AcDbCircle
 10
1505.399999999618
 20
10.00000000000034
 30
0.0
 40
7.0
100
AcDbArc
 50
270.0
 51
0.0
  0
LINE
  5
810E
330
1F
100
AcDbEntity
  8
0
  6
Continuous
 62
     7
 48
0.5
100
AcDbLine
 10
1369.399999999618
 20
3.000000000000341
 30
0.0
 11
1437.399999999619
 21
3.000000000000341
 31
0.0
  0
ARC
  5
810F
330
1F
100
AcDbEntity
  8
0
  6
Continuous
 62
     7
 48
0.5
100
AcDbCircle
 10
1369.399999999618
 20
10.00000000000034
 30
0.0
 40
7.0
100
AcDbArc
 50
180.0
 51
270.0
  0
LINE
  5
8110
330
1F
100
AcDbEntity
  8
0
  6
Continuous
 62
     7
 48
0.5
100
AcDbLine
 10
1367.546768835927
 20
153.0000000000003
 30
0.0
 11
1437.399999999622
 21
153.0000000000003
 31
0.0
  0
ARC
  5
8111
330
1F
100
AcDbEntity
  8
0
  6
Continuous
 62
     7
 48
0.5
100
AcDbCircle
 10
1367.546768835927
 20
152.0000000000003
 30
0.0
 40
1.0
100
AcDbArc
 50
90.0
 51
106.6992442339913
  0
LINE
  5
8112
330
1F
100
AcDbEntity
  8
0
  6
Continuous
 62
     7
 48
0.5
100
AcDbLine
 10
1507.253231163301
 20
153.0000000000003
 30
0.0
 11
1437.399999999622
 21
153.0000000000003
 31
0.0
  0
LINE
  5
8113
330
1F
100
AcDbEntity
  8
0
  6
CENTER2
 62
     2
 48
0.5
100
AcDbLine
 10
1437.399999999622
 20
156.0000000000003
 30
0.0
 11
1437.399999999619
 21
0.0000000000003411
 31
0.0
  0
LINE
  5
8119
330
1F
100
AcDbEntity
  8
0
  6
Continuous
 62
     7
 48
0.5
100
AcDbLine
 10
1362.399999999618
 20
151.499999999999
 30
0.0
 11
1367.25942095036
 21
152.9578262852214
 31
0.0
  0
LINE
  5
811A
330
1F
100
AcDbEntity
  8
0
  6
Continuous
 62
     7
 48
0.5
100
AcDbLine
 10
1512.399999999622
 20
151.4999999999989
 30
0.0
 11
1507.540579048866
 21
152.9578262852217
 31
0.0
  0
ARC
  5
811B
330
1F
100
AcDbEntity
  8
0
  6
Continuous
 62
     7
 48
0.5
100
AcDbCircle
 10
1507.253231163301
 20
152.0000000000003
 30
0.0
 40
1.0
100
AcDbArc
 50
73.30075576604928
 51
90.0
  0
LINE
  5
811E
330
1F
100
AcDbEntity
  8
0
  6
Continuous
 62
     7
 48
0.5
100
AcDbLine
 10
1362.399999999619
 20
10.00000000000034
 30
0.0
 11
1362.399999999618
 21
151.499999999999
 31
0.0
  0
LINE
  5
8133
330
1F
100
AcDbEntity
  8
0
  6
Continuous
 62
     7
 48
0.5
100
AcDbLine
 10
1512.399999999622
 20
10.00000000000034
 30
0.0
 11
1512.399999999622
 21
151.4999999999989
 31
0.0
  0
LINE
  5
8148
330
1F
100
AcDbEntity
  8
0
  6
Continuous
 62
     7
 48
0.5
100
AcDbLine
 10
1399.899999999622
 20
168.0000000000003
 30
0.0
 11
1399.899999999622
 21
179.0000000000003
 31
0.0
  0
LINE
  5
8149
330
1F
100
AcDbEntity
  8
0
  6
Continuous
 62
     7
 48
0.5
100
AcDbLine
 10
1400.899999999622
 20
180.0000000000003
 30
0.0
 11
1437.399999999622
 21
180.0000000000003
 31
0.0
  0
ARC
  5
814A
330
1F
100
AcDbEntity
  8
0
  6
Continuous
 62
     7
 48
0.5
100
AcDbCircle
 10
1400.899999999622
 20
179.0000000000003
 30
0.0
 40
1.0
100
AcDbArc
 50
90.00000000000003
 51
180.0
  0
LINE
  5
814B
330
1F
100
AcDbEntity
  8
0
  6
Continuous
 62
     7
 48
0.5
100
AcDbLine
 10
1363.899999999641
 20
165.0000000000005
 30
0.0
 11
1437.399999999622
 21
165.0000000000003
 31
0.0
  0
LINE
  5
814C
330
1F
100
AcDbEntity
  8
0
  6
Continuous
 62
     7
 48
0.5
100
AcDbLine
 10
1362.399999999641
 20
168.0000000000004
 30
0.0
 11
1437.399999999622
 21
168.0000000000003
 31
0.0
  0
LINE
  5
814D
330
1F
100
AcDbEntity
  8
0
  6
Continuous
 62
     7
 48
0.5
100
AcDbLine
 10
1367.399999999641
 20
166.4999999999999
 30
0.0
 11
1367.399999999641
 21
168.0000000000003
 31
0.0
  0
ARC
  5
814E
330
1F
100
AcDbEntity
  8
0
  6
Continuous
 62
     7
 48
0.5
100
AcDbCircle
 10
1368.899999999641
 20
166.5000000000003
 30
0.0
 40
1.5
100
AcDbArc
 50
180.0000000000228
 51
270.0
  0
LINE
  5
814F
330
1F
100
AcDbEntity
  8
0
  6
Continuous
 62
     7
 48
0.5
100
AcDbLine
 10
1362.399999999641
 20
166.4999999999999
 30
0.0
 11
1362.399999999641
 21
168.0000000000003
 31
0.0
  0
ARC
  5
8150
330
1F
100
AcDbEntity
  8
0
  6
Continuous
 62
     7
 48
0.5
100
AcDbCircle
 10
1363.899999999641
 20
166.5000000000003
 30
0.0
 40
1.5
100
AcDbArc
 50
180.0000000000228
 51
270.0
  0
LINE
  5
8151
330
1F
100
AcDbEntity
  8
0
  6
Continuous
 62
     7
 48
0.5
100
AcDbLine
 10
1362.601519759971
 20
198.0000000000005
 30
0.0
 11
1399.499999999622
 21
198.0000000000003
 31
0.0
  0
ARC
  5
8152
330
1F
100
AcDbEntity
  8
0
  6
Continuous
 62
     7
 48
0.5
100
AcDbCircle
 10
1399.499999999622
 20
197.0000000000003
 30
0.0
 40
1.0
100
AcDbArc
 50
0.0
 51
90.00000000000003
  0
LINE
  5
8153
330
1F
100
AcDbEntity
  8
0
  6
Continuous
 62
     7
 48
0.5
100
AcDbLine
 10
1362.601519759971
 20
173.0000000000005
 30
0.0
 11
1371.024345902184
 21
173.0000000000005
 31
0.0
  0
LINE
  5
8154
330
1F
100
AcDbEntity
  8
0
  6
Continuous
 62
     7
 48
0.5
100
AcDbLine
 10
1400.499999999622
 20
197.0000000000003
 30
0.0
 11
1400.499999999622
 21
179.9165151389916
 31
0.0
  0
LINE
  5
8155
330
1F
100
AcDbEntity
  8
0
  6
Continuous
 62
     7
 48
0.5
100
AcDbLine
 10
1371.024345902184
 20
173.0000000000003
 30
0.0
 11
1371.024345902184
 21
168.0000000000004
 31
0.0
  0
LINE
  5
8156
330
1F
100
AcDbEntity
  8
0
  6
Continuous
 62
     7
 48
0.5
100
AcDbLine
 10
1367.96478868911
 20
173.0000000000003
 30
0.0
 11
1367.96478868911
 21
168.0000000000004
 31
0.0
  0
LINE
  5
8157
330
1F
100
AcDbEntity
  8
0
  6
Continuous
 62
     7
 48
0.5
100
AcDbLine
 10
1361.601519759971
 20
197.0000000000005
 30
0.0
 11
1361.601519759971
 21
174.0000000000005
 31
0.0
  0
ARC
  5
8158
330
1F
100
AcDbEntity
  8
0
  6
Continuous
 62
     7
 48
0.5
100
AcDbCircle
 10
1362.601519759971
 20
197.0000000000005
 30
0.0
 40
1.0
100
AcDbArc
 50
90.00000000000003
 51
180.0
  0
ARC
  5
8159
330
1F
100
AcDbEntity
  8
0
  6
Continuous
 62
     7
 48
0.5
100
AcDbCircle
 10
1362.601519759971
 20
174.0000000000005
 30
0.0
 40
1.0
100
AcDbArc
 50
180.0
 51
270.0
  0
LINE
  5
815A
330
1F
100
AcDbEntity
  8
0
  6
Continuous
 62
     7
 48
0.5
100
AcDbLine
 10
1364.599999999622
 20
198.0000000000005
 30
0.0
 11
1364.599999999622
 21
173.0000000000004
 31
0.0
  0
LINE
  5
815F
330
1F
100
AcDbEntity
  8
0
  6
CENTER2
 62
     2
 48
0.5
100
AcDbLine
 10
1437.399999999622
 20
201.0000000000003
 30
0.0
 11
1437.399999999622
 21
162.0000000000003
 31
0.0
  0
LINE
  5
8164
330
1F
100
AcDbEntity
  8
0
  6
Continuous
 62
     7
 48
0.5
100
AcDbLine
 10
1474.899999999623
 20
168.0000000000003
 30
0.0
 11
1474.899999999623
 21
179.0000000000003
 31
0.0
  0
LINE
  5
8165
330
1F
100
AcDbEntity
  8
0
  6
Continuous
 62
     7
 48
0.5
100
AcDbLine
 10
1473.899999999622
 20
180.0000000000003
 30
0.0
 11
1437.399999999622
 21
180.0000000000003
 31
0.0
  0
ARC
  5
8166
330
1F
100
AcDbEntity
  8
0
  6
Continuous
 62
     7
 48
0.5
100
AcDbCircle
 10
1473.899999999622
 20
179.0000000000003
 30
0.0
 40
1.0
100
AcDbArc
 50
0.0
 51
90.00000000000003
  0
LINE
  5
8167
330
1F
100
AcDbEntity
  8
0
  6
Continuous
 62
     7
 48
0.5
100
AcDbLine
 10
1510.899999999603
 20
165.0000000000005
 30
0.0
 11
1437.399999999622
 21
165.0000000000003
 31
0.0
  0
LINE
  5
8168
330
1F
100
AcDbEntity
  8
0
  6
Continuous
 62
     7
 48
0.5
100
AcDbLine
 10
1512.399999999603
 20
168.0000000000004
 30
0.0
 11
1437.399999999622
 21
168.0000000000003
 31
0.0
  0
LINE
  5
8169
330
1F
100
AcDbEntity
  8
0
  6
Continuous
 62
     7
 48
0.5
100
AcDbLine
 10
1507.399999999603
 20
166.4999999999999
 30
0.0
 11
1507.399999999603
 21
168.0000000000003
 31
0.0
  0
ARC
  5
816A
330
1F
100
AcDbEntity
  8
0
  6
Continuous
 62
     7
 48
0.5
100
AcDbCircle
 10
1505.899999999603
 20
166.5000000000003
 30
0.0
 40
1.5
100
AcDbArc
 50
270.0
 51
359.9999999999805
  0
LINE
  5
816B
330
1F
100
AcDbEntity
  8
0
  6
Continuous
 62
     7
 48
0.5
100
AcDbLine
 10
1512.399999999603
 20
166.4999999999999
 30
0.0
 11
1512.399999999603
 21
168.0000000000003
 31
0.0
  0
ARC
  5
816C
330
1F
100
AcDbEntity
  8
0
  6
Continuous
 62
     7
 48
0.5
100
AcDbCircle
 10
1510.899999999603
 20
166.5000000000003
 30
0.0
 40
1.5
100
AcDbArc
 50
270.0
 51
359.9999999999805
  0
LINE
  5
816D
330
1F
100
AcDbEntity
  8
0
  6
Continuous
 62
     7
 48
0.5
100
AcDbLine
 10
1512.198480239273
 20
198.0000000000005
 30
0.0
 11
1475.299999999622
 21
198.0000000000003
 31
0.0
  0
ARC
  5
816E
330
1F
100
AcDbEntity
  8
0
  6
Continuous
 62
     7
 48
0.5
100
AcDbCircle
 10
1475.299999999622
 20
197.0000000000003
 30
0.0
 40
1.0
100
AcDbArc
 50
90.00000000000003
 51
180.0
  0
LINE
  5
816F
330
1F
100
AcDbEntity
  8
0
  6
Continuous
 62
     7
 48
0.5
100
AcDbLine
 10
1512.198480239273
 20
173.0000000000005
 30
0.0
 11
1503.77565409706
 21
173.0000000000005
 31
0.0
  0
LINE
  5
8170
330
1F
100
AcDbEntity
  8
0
  6
Continuous
 62
     7
 48
0.5
100
AcDbLine
 10
1474.299999999622
 20
197.0000000000003
 30
0.0
 11
1474.299999999622
 21
179.9165151389916
 31
0.0
  0
LINE
  5
8171
330
1F
100
AcDbEntity
  8
0
  6
Continuous
 62
     7
 48
0.5
100
AcDbLine
 10
1503.77565409706
 20
173.0000000000003
 30
0.0
 11
1503.77565409706
 21
168.0000000000004
 31
0.0
  0
LINE
  5
8172
330
1F
100
AcDbEntity
  8
0
  6
Continuous
 62
     7
 48
0.5
100
AcDbLine
 10
1506.835211310135
 20
173.0000000000003
 30
0.0
 11
1506.835211310135
 21
168.0000000000004
 31
0.0
  0
LINE
  5
8173
330
1F
100
AcDbEntity
  8
0
  6
Continuous
 62
     7
 48
0.5
100
AcDbLine
 10
1513.198480239273
 20
197.0000000000005
 30
0.0
 11
1513.198480239273
 21
174.0000000000005
 31
0.0
  0
ARC
  5
8174
330
1F
100
AcDbEntity
  8
0
  6
Continuous
 62
     7
 48
0.5
100
AcDbCircle
 10
1512.198480239273
 20
197.0000000000005
 30
0.0
 40
1.0
100
AcDbArc
 50
0.0
 51
90.00000000000003
  0
ARC
  5
8175
330
1F
100
AcDbEntity
  8
0
  6
Continuous
 62
     7
 48
0.5
100
AcDbCircle
 10
1512.198480239273
 20
174.0000000000005
 30
0.0
 40
1.0
100
AcDbArc
 50
270.0
 51
0.0
  0
LINE
  5
8176
330
1F
100
AcDbEntity
  8
0
  6
Continuous
 62
     7
 48
0.5
100
AcDbLine
 10
1510.199999999622
 20
198.0000000000005
 30
0.0
 11
1510.199999999622
 21
173.0000000000004
 31
0.0
  0
LINE
  5
817C
330
1F
100
AcDbEntity
  8
0
  6
Continuous
 62
     7
 48
0.5
100
AcDbLine
 10
1367.399999999623
 20
152.9999999999949
 30
0.0
 11
1367.25942095036
 21
152.9578262852214
 31
0.0
  0
LINE
  5
817D
330
1F
100
AcDbEntity
  8
0
  6
Continuous
 62
     7
 48
0.5
100
AcDbLine
 10
1367.399999999623
 20
152.9999999999949
 30
0.0
 11
1367.546768835927
 21
152.9999999999949
 31
0.0
  0
LINE
  5
8476
330
1F
100
AcDbEntity
  8
0
  6
Continuous
 62
     7
 48
0.5
100
AcDbLine
 10
1736.199999999626
 20
3.000000000000284
 30
0.0
 11
1643.199999999626
 21
3.000000000000284
 31
0.0
  0
ARC
  5
8477
330
1F
100
AcDbEntity
  8
0
  6
Continuous
 62
     7
 48
0.5
100
AcDbCircle
 10
1736.199999999626
 20
10.00000000000028
 30
0.0
 40
7.0
100
AcDbArc
 50
270.0
 51
0.0
  0
LINE
  5
847A
330
1F
100
AcDbEntity
  8
0
  6
Continuous
 62
     7
 48
0.5
100
AcDbLine
 10
1550.199999999626
 20
3.000000000000284
 30
0.0
 11
1643.199999999626
 21
3.000000000000284
 31
0.0
  0
ARC
  5
847B
330
1F
100
AcDbEntity
  8
0
  6
Continuous
 62
     7
 48
0.5
100
AcDbCircle
 10
1550.199999999626
 20
10.00000000000028
 30
0.0
 40
7.0
100
AcDbArc
 50
180.0
 51
270.0
  0
LINE
  5
847C
330
1F
100
AcDbEntity
  8
0
  6
Continuous
 62
     7
 48
0.5
100
AcDbLine
 10
1548.337358566987
 20
103.0000000000003
 30
0.0
 11
1643.199999999629
 21
103.0000000000003
 31
0.0
  0
ARC
  5
847D
330
1F
100
AcDbEntity
  8
0
  6
Continuous
 62
     7
 48
0.5
100
AcDbCircle
 10
1548.337358566987
 20
102.0000000000003
 30
0.0
 40
1.0
100
AcDbArc
 50
90.0
 51
105.6422464572041
  0
LINE
  5
847E
330
1F
100
AcDbEntity
  8
0
  6
Continuous
 62
     7
 48
0.5
100
AcDbLine
 10
1738.062641432253
 20
103.0000000000002
 30
0.0
 11
1643.199999999629
 21
103.0000000000003
 31
0.0
  0
LINE
  5
847F
330
1F
100
AcDbEntity
  8
0
  6
CENTER2
 62
     2
 48
0.5
100
AcDbLine
 10
1643.199999999629
 20
106.0000000000003
 30
0.0
 11
1643.199999999626
 21
0.0000000000002842
 31
0.0
  0
LINE
  5
8486
330
1F
100
AcDbEntity
  8
0
  6
Continuous
 62
     7
 48
0.5
100
AcDbLine
 10
1543.199999999626
 20
101.599999999999
 30
0.0
 11
1548.067728641467
 21
102.9629640197145
 31
0.0
  0
LINE
  5
8487
330
1F
100
AcDbEntity
  8
0
  6
Continuous
 62
     7
 48
0.5
100
AcDbLine
 10
1743.199999999629
 20
101.5999999999943
 30
0.0
 11
1738.332271357774
 21
102.9629640197143
 31
0.0
  0
ARC
  5
8488
330
1F
100
AcDbEntity
  8
0
  6
Continuous
 62
     7
 48
0.5
100
AcDbCircle
 10
1738.062641432253
 20
102.0000000000002
 30
0.0
 40
1.0
100
AcDbArc
 50
74.35775354278269
 51
90.0
  0
LINE
  5
848A
330
1F
100
AcDbEntity
  8
0
  6
Continuous
 62
     7
 48
0.5
100
AcDbLine
 10
1543.199999999625
 20
10.00000000000028
 30
0.0
 11
1543.199999999626
 21
101.599999999999
 31
0.0
  0
LINE
  5
849A
330
1F
100
AcDbEntity
  8
0
  6
Continuous
 62
     7
 48
0.5
100
AcDbLine
 10
1743.199999999629
 20
10.00000000000028
 30
0.0
 11
1743.199999999629
 21
101.5999999999943
 31
0.0
  0
LINE
  5
84AC
330
1F
100
AcDbEntity
  8
0
  6
CENTER2
 62
     2
 48
0.5
100
AcDbLine
 10
1643.199999999629
 20
151.0000000000003
 30
0.0
 11
1643.199999999629
 21
112.0000000000002
 31
0.0
  0
LINE
  5
84C7
330
1F
100
AcDbEntity
  8
0
  6
Continuous
 62
     7
 48
0.5
100
AcDbLine
 10
1693.199999999629
 20
118.0000000000003
 30
0.0
 11
1693.199999999629
 21
129.0000000000003
 31
0.0
  0
LINE
  5
84C8
330
1F
100
AcDbEntity
  8
0
  6
Continuous
 62
     7
 48
0.5
100
AcDbLine
 10
1692.199999999629
 20
130.0000000000003
 30
0.0
 11
1643.199999999629
 21
130.0000000000003
 31
0.0
  0
ARC
  5
84C9
330
1F
100
AcDbEntity
  8
0
  6
Continuous
 62
     7
 48
0.5
100
AcDbCircle
 10
1692.199999999629
 20
129.0000000000003
 30
0.0
 40
1.0
100
AcDbArc
 50
0.0
 51
90.0
  0
LINE
  5
84CA
330
1F
100
AcDbEntity
  8
0
  6
Continuous
 62
     7
 48
0.5
100
AcDbLine
 10
1741.69999999963
 20
115.0000000000005
 30
0.0
 11
1643.199999999629
 21
115.0000000000003
 31
0.0
  0
LINE
  5
84CB
330
1F
100
AcDbEntity
  8
0
  6
Continuous
 62
     7
 48
0.5
100
AcDbLine
 10
1743.19999999963
 20
118.0000000000004
 30
0.0
 11
1643.199999999629
 21
118.0000000000003
 31
0.0
  0
LINE
  5
84CC
330
1F
100
AcDbEntity
  8
0
  6
Continuous
 62
     7
 48
0.5
100
AcDbLine
 10
1742.9984802393
 20
148.0000000000007
 30
0.0
 11
1706.099999999629
 21
148.0000000000004
 31
0.0
  0
ARC
  5
84CD
330
1F
100
AcDbEntity
  8
0
  6
Continuous
 62
     7
 48
0.5
100
AcDbCircle
 10
1706.099999999629
 20
147.0000000000003
 30
0.0
 40
1.0
100
AcDbArc
 50
90.0
 51
180.0
  0
LINE
  5
84CE
330
1F
100
AcDbEntity
  8
0
  6
Continuous
 62
     7
 48
0.5
100
AcDbLine
 10
1705.099999999629
 20
147.0000000000003
 30
0.0
 11
1705.099999999629
 21
118.0000000000003
 31
0.0
  0
LINE
  5
84CF
330
1F
100
AcDbEntity
  8
0
  6
Continuous
 62
     7
 48
0.5
100
AcDbLine
 10
1742.9984802393
 20
148.0000000000007
 30
0.0
 11
1706.099999999629
 21
148.0000000000004
 31
0.0
  0
LINE
  5
84D0
330
1F
100
AcDbEntity
  8
0
  6
Continuous
 62
     7
 48
0.5
100
AcDbLine
 10
1742.9984802393
 20
123.0000000000004
 30
0.0
 11
1733.336934848892
 21
123.0000000000003
 31
0.0
  0
LINE
  5
84D1
330
1F
100
AcDbEntity
  8
0
  6
Continuous
 62
     7
 48
0.5
100
AcDbLine
 10
1733.336934848892
 20
123.0000000000003
 30
0.0
 11
1733.336934848892
 21
118.0000000000004
 31
0.0
  0
LINE
  5
84D2
330
1F
100
AcDbEntity
  8
0
  6
Continuous
 62
     7
 48
0.5
100
AcDbLine
 10
1736.068985656461
 20
123.0000000000004
 30
0.0
 11
1736.068985656461
 21
118.0000000000005
 31
0.0
  0
LINE
  5
84D3
330
1F
100
AcDbEntity
  8
0
  6
Continuous
 62
     7
 48
0.5
100
AcDbLine
 10
1743.9984802393
 20
147.0000000000005
 30
0.0
 11
1743.9984802393
 21
124.0000000000004
 31
0.0
  0
ARC
  5
84D4
330
1F
100
AcDbEntity
  8
0
  6
Continuous
 62
     7
 48
0.5
100
AcDbCircle
 10
1742.9984802393
 20
147.0000000000005
 30
0.0
 40
1.0
100
AcDbArc
 50
0.0
 51
90.0
  0
ARC
  5
84D5
330
1F
100
AcDbEntity
  8
0
  6
Continuous
 62
     7
 48
0.5
100
AcDbCircle
 10
1742.9984802393
 20
124.0000000000004
 30
0.0
 40
1.0
100
AcDbArc
 50
270.0
 51
0.0
  0
LINE
  5
84D6
330
1F
100
AcDbEntity
  8
0
  6
Continuous
 62
     7
 48
0.5
100
AcDbLine
 10
1740.999999999649
 20
148.0000000000005
 30
0.0
 11
1740.999999999649
 21
123.0000000000004
 31
0.0
  0
LINE
  5
84D7
330
1F
100
AcDbEntity
  8
0
  6
Continuous
 62
     7
 48
0.5
100
AcDbLine
 10
1738.19999999963
 20
116.4999999999998
 30
0.0
 11
1738.19999999963
 21
118.0000000000003
 31
0.0
  0
ARC
  5
84D8
330
1F
100
AcDbEntity
  8
0
  6
Continuous
 62
     7
 48
0.5
100
AcDbCircle
 10
1736.69999999963
 20
116.5000000000003
 30
0.0
 40
1.5
100
AcDbArc
 50
270.0
 51
359.9999999999805
  0
LINE
  5
84D9
330
1F
100
AcDbEntity
  8
0
  6
Continuous
 62
     7
 48
0.5
100
AcDbLine
 10
1743.19999999963
 20
116.4999999999998
 30
0.0
 11
1743.19999999963
 21
118.0000000000003
 31
0.0
  0
ARC
  5
84DA
330
1F
100
AcDbEntity
  8
0
  6
Continuous
 62
     7
 48
0.5
100
AcDbCircle
 10
1741.69999999963
 20
116.5000000000003
 30
0.0
 40
1.5
100
AcDbArc
 50
270.0
 51
359.9999999999805
  0
LINE
  5
84DB
330
1F
100
AcDbEntity
  8
0
  6
Continuous
 62
     7
 48
0.5
100
AcDbLine
 10
1593.199999999629
 20
118.0000000000003
 30
0.0
 11
1593.199999999629
 21
129.0000000000003
 31
0.0
  0
LINE
  5
84DC
330
1F
100
AcDbEntity
  8
0
  6
Continuous
 62
     7
 48
0.5
100
AcDbLine
 10
1594.199999999629
 20
130.0000000000003
 30
0.0
 11
1643.199999999629
 21
130.0000000000003
 31
0.0
  0
ARC
  5
84DD
330
1F
100
AcDbEntity
  8
0
  6
Continuous
 62
     7
 48
0.5
100
AcDbCircle
 10
1594.199999999629
 20
129.0000000000003
 30
0.0
 40
1.0
100
AcDbArc
 50
90.0
 51
180.0
  0
LINE
  5
84DE
330
1F
100
AcDbEntity
  8
0
  6
Continuous
 62
     7
 48
0.5
100
AcDbLine
 10
1544.699999999629
 20
115.0000000000005
 30
0.0
 11
1643.199999999629
 21
115.0000000000003
 31
0.0
  0
LINE
  5
84DF
330
1F
100
AcDbEntity
  8
0
  6
Continuous
 62
     7
 48
0.5
100
AcDbLine
 10
1543.199999999628
 20
118.0000000000004
 30
0.0
 11
1643.199999999629
 21
118.0000000000003
 31
0.0
  0
LINE
  5
84E0
330
1F
100
AcDbEntity
  8
0
  6
Continuous
 62
     7
 48
0.5
100
AcDbLine
 10
1543.401519759959
 20
148.0000000000007
 30
0.0
 11
1580.299999999629
 21
148.0000000000004
 31
0.0
  0
ARC
  5
84E1
330
1F
100
AcDbEntity
  8
0
  6
Continuous
 62
     7
 48
0.5
100
AcDbCircle
 10
1580.299999999629
 20
147.0000000000003
 30
0.0
 40
1.0
100
AcDbArc
 50
0.0
 51
90.0
  0
LINE
  5
84E2
330
1F
100
AcDbEntity
  8
0
  6
Continuous
 62
     7
 48
0.5
100
AcDbLine
 10
1581.299999999629
 20
147.0000000000003
 30
0.0
 11
1581.299999999629
 21
118.0000000000003
 31
0.0
  0
LINE
  5
84E3
330
1F
100
AcDbEntity
  8
0
  6
Continuous
 62
     7
 48
0.5
100
AcDbLine
 10
1543.401519759959
 20
148.0000000000007
 30
0.0
 11
1580.299999999629
 21
148.0000000000004
 31
0.0
  0
LINE
  5
84E4
330
1F
100
AcDbEntity
  8
0
  6
Continuous
 62
     7
 48
0.5
100
AcDbLine
 10
1543.401519759959
 20
123.0000000000004
 30
0.0
 11
1553.063065150366
 21
123.0000000000003
 31
0.0
  0
LINE
  5
84E5
330
1F
100
AcDbEntity
  8
0
  6
Continuous
 62
     7
 48
0.5
100
AcDbLine
 10
1553.063065150366
 20
123.0000000000003
 30
0.0
 11
1553.063065150366
 21
118.0000000000004
 31
0.0
  0
LINE
  5
84E6
330
1F
100
AcDbEntity
  8
0
  6
Continuous
 62
     7
 48
0.5
100
AcDbLine
 10
1550.331014342797
 20
123.0000000000004
 30
0.0
 11
1550.331014342797
 21
118.0000000000005
 31
0.0
  0
LINE
  5
84E7
330
1F
100
AcDbEntity
  8
0
  6
Continuous
 62
     7
 48
0.5
100
AcDbLine
 10
1542.401519759959
 20
147.0000000000005
 30
0.0
 11
1542.401519759959
 21
124.0000000000004
 31
0.0
  0
ARC
  5
84E8
330
1F
100
AcDbEntity
  8
0
  6
Continuous
 62
     7
 48
0.5
100
AcDbCircle
 10
1543.401519759959
 20
147.0000000000005
 30
0.0
 40
1.0
100
AcDbArc
 50
90.0
 51
180.0
  0
ARC
  5
84E9
330
1F
100
AcDbEntity
  8
0
  6
Continuous
 62
     7
 48
0.5
100
AcDbCircle
 10
1543.401519759959
 20
124.0000000000004
 30
0.0
 40
1.0
100
AcDbArc
 50
180.0
 51
270.0
  0
LINE
  5
84EA
330
1F
100
AcDbEntity
  8
0
  6
Continuous
 62
     7
 48
0.5
100
AcDbLine
 10
1545.39999999961
 20
148.0000000000005
 30
0.0
 11
1545.39999999961
 21
123.0000000000004
 31
0.0
  0
LINE
  5
84EB
330
1F
100
AcDbEntity
  8
0
  6
Continuous
 62
     7
 48
0.5
100
AcDbLine
 10
1548.199999999629
 20
116.4999999999998
 30
0.0
 11
1548.199999999628
 21
118.0000000000003
 31
0.0
  0
ARC
  5
84EC
330
1F
100
AcDbEntity
  8
0
  6
Continuous
 62
     7
 48
0.5
100
AcDbCircle
 10
1549.699999999629
 20
116.5000000000003
 30
0.0
 40
1.5
100
AcDbArc
 50
180.0000000000195
 51
270.0
  0
LINE
  5
84ED
330
1F
100
AcDbEntity
  8
0
  6
Continuous
 62
     7
 48
0.5
100
AcDbLine
 10
1543.199999999629
 20
116.4999999999998
 30
0.0
 11
1543.199999999628
 21
118.0000000000003
 31
0.0
  0
ARC
  5
84EE
330
1F
100
AcDbEntity
  8
0
  6
Continuous
 62
     7
 48
0.5
100
AcDbCircle
 10
1544.699999999629
 20
116.5000000000003
 30
0.0
 40
1.5
100
AcDbArc
 50
180.0000000000195
 51
270.0
  0
LINE
  5
88F9
330
1F
100
AcDbEntity
  8
0
  6
CENTER2
 62
     2
 48
0.5
100
AcDbLine
 10
360.0000000000001
 20
46.00000000000034
 30
0.0
 11
360.0000000000001
 21
0.0000000000003411
 31
0.0
  0
LINE
  5
88FD
330
1F
100
AcDbEntity
  8
0
 48
0.5
100
AcDbLine
 10
320.0000000000001
 20
41.60000000000025
 30
0.0
 11
320.0000000000001
 21
8.800000000000068
 31
0.0
  0
ARC
  5
88FF
330
1F
100
AcDbEntity
  8
0
 48
0.5
100
AcDbCircle
 10
325.8000000000001
 20
8.800000000000068
 30
0.0
 40
5.799999999999999
100
AcDbArc
 50
180.0
 51
270.0
  0
LINE
  5
8900
330
1F
100
AcDbEntity
  8
0
 48
0.5
100
AcDbLine
 10
325.0000000000001
 20
43.00000000000034
 30
0.0
 11
320.0000000000001
 21
41.60000000000025
 31
0.0
  0
LINE
  5
8901
330
1F
100
AcDbEntity
  8
0
 48
0.5
100
AcDbLine
 10
325.0000000000001
 20
43.00000000000033
 30
0.0
 11
395.0000000000001
 21
43.00000000000034
 31
0.0
  0
LINE
  5
8902
330
1F
100
AcDbEntity
  8
0
 48
0.5
100
AcDbLine
 10
400.0
 20
41.60000000000025
 30
0.0
 11
400.0
 21
8.800000000000068
 31
0.0
  0
LINE
  5
8903
330
1F
100
AcDbEntity
  8
0
 48
0.5
100
AcDbLine
 10
394.2000000000001
 20
3.000000000000341
 30
0.0
 11
325.8000000000001
 21
3.000000000000341
 31
0.0
  0
LINE
  5
8904
330
1F
100
AcDbEntity
  8
0
 48
0.5
100
AcDbLine
 10
395.0000000000001
 20
43.00000000000034
 30
0.0
 11
400.0
 21
41.60000000000025
 31
0.0
  0
ARC
  5
890D
330
1F
100
AcDbEntity
  8
0
 48
0.5
100
AcDbCircle
 10
394.2000000000001
 20
8.800000000000068
 30
0.0
 40
5.799999999999999
100
AcDbArc
 50
270.0
 51
0.0
  0
LINE
  5
8920
330
1F
100
AcDbEntity
  8
0
 48
0.5
100
AcDbLine
 10
400.0000000000001
 20
56.00000000000031
 30
0.0
 11
400.0000000000001
 21
54.50000000000031
 31
0.0
  0
ARC
  5
8921
330
1F
100
AcDbEntity
  8
0
 48
0.5
100
AcDbCircle
 10
398.5000000000002
 20
54.50000000000031
 30
0.0
 40
1.5
100
AcDbArc
 50
270.0
 51
0.0
  0
LINE
  5
8922
330
1F
100
AcDbEntity
  8
0
 48
0.5
100
AcDbLine
 10
395.0000000000002
 20
56.00000000000031
 30
0.0
 11
395.0000000000002
 21
54.50000000000031
 31
0.0
  0
ARC
  5
8923
330
1F
100
AcDbEntity
  8
0
 48
0.5
100
AcDbCircle
 10
393.5000000000002
 20
54.50000000000031
 30
0.0
 40
1.5
100
AcDbArc
 50
270.0
 51
0.0
  0
LINE
  5
8924
330
1F
100
AcDbEntity
  8
0
 48
0.5
100
AcDbLine
 10
398.5000000000002
 20
53.00000000000031
 30
0.0
 11
321.5000000000002
 21
53.00000000000038
 31
0.0
  0
LINE
  5
8925
330
1F
100
AcDbEntity
  8
0
 48
0.5
100
AcDbLine
 10
400.0000000000001
 20
56.00000000000031
 30
0.0
 11
320.0000000000002
 21
56.00000000000037
 31
0.0
  0
LINE
  5
8926
330
1F
100
AcDbEntity
  8
0
 48
0.5
100
AcDbLine
 10
376.5000000000002
 20
58.00000000000031
 30
0.0
 11
343.5000000000002
 21
58.00000000000036
 31
0.0
  0
ARC
  5
8927
330
1F
100
AcDbEntity
  8
0
 48
0.5
100
AcDbCircle
 10
376.5000000000002
 20
57.50000000000031
 30
0.0
 40
0.5
100
AcDbArc
 50
0.0
 51
90.0
  0
LINE
  5
8928
330
1F
100
AcDbEntity
  8
0
  6
CENTER2
 62
     2
 48
0.5
100
AcDbLine
 10
360.0000000000001
 20
50.00000000000034
 30
0.0
 11
360.0000000000002
 21
84.00000000000034
 31
0.0
  0
LINE
  5
8929
330
1F
100
AcDbEntity
  8
0
 48
0.5
100
AcDbLine
 10
377.0000000000002
 20
56.00000000000031
 30
0.0
 11
377.0000000000002
 21
57.50000000000031
 31
0.0
  0
LINE
  5
892A
330
1F
100
AcDbEntity
  8
0
 48
0.5
100
AcDbLine
 10
320.0000000000002
 20
56.00000000000034
 30
0.0
 11
320.0000000000002
 21
54.50000000000034
 31
0.0
  0
ARC
  5
892B
330
1F
100
AcDbEntity
  8
0
 48
0.5
100
AcDbCircle
 10
321.5000000000002
 20
54.50000000000034
 30
0.0
 40
1.5
100
AcDbArc
 50
180.0
 51
270.0
  0
LINE
  5
892C
330
1F
100
AcDbEntity
  8
0
 48
0.5
100
AcDbLine
 10
325.0000000000002
 20
56.00000000000034
 30
0.0
 11
325.0000000000002
 21
54.50000000000034
 31
0.0
  0
ARC
  5
892D
330
1F
100
AcDbEntity
  8
0
 48
0.5
100
AcDbCircle
 10
326.5000000000002
 20
54.50000000000034
 30
0.0
 40
1.5
100
AcDbArc
 50
180.0
 51
270.0
  0
LINE
  5
892F
330
1F
100
AcDbEntity
  8
0
 48
0.5
100
AcDbLine
 10
322.8937847292618
 20
81.00000000000035
 30
0.0
 11
347.0000000000023
 21
81.00000000000035
 31
0.0
  0
LINE
  5
8931
330
1F
100
AcDbEntity
  8
0
 48
0.5
100
AcDbLine
 10
322.8937847292615
 20
61.00000000000034
 30
0.0
 11
327.148765551092
 21
61.00000000000057
 31
0.0
  0
LINE
  5
8932
330
1F
100
AcDbEntity
  8
0
 48
0.5
100
AcDbLine
 10
327.148765551092
 20
61.00000000000034
 30
0.0
 11
327.148765551092
 21
56.00000000000034
 31
0.0
  0
LINE
  5
8933
330
1F
100
AcDbEntity
  8
0
 48
0.5
100
AcDbLine
 10
324.5375088028301
 20
61.00000000000022
 30
0.0
 11
324.5375088028301
 21
56.00000000000022
 31
0.0
  0
LINE
  5
8934
330
1F
100
AcDbEntity
  8
0
 48
0.5
100
AcDbLine
 10
347.0000000000023
 20
81.00000000000035
 30
0.0
 11
347.0000000000023
 21
58.00000000000034
 31
0.0
  0
LINE
  5
8935
330
1F
100
AcDbEntity
  8
0
 48
0.5
100
AcDbLine
 10
321.9937847292619
 20
80.10000000000024
 30
0.0
 11
321.9937847292614
 21
61.90000000000043
 31
0.0
  0
ARC
  5
8936
330
1F
100
AcDbEntity
  8
0
 48
0.5
100
AcDbCircle
 10
322.8937847292615
 20
61.90000000000043
 30
0.0
 40
0.9
100
AcDbArc
 50
180.0
 51
270.0
  0
ARC
  5
8937
330
1F
100
AcDbEntity
  8
0
 48
0.5
100
AcDbCircle
 10
322.8937847292618
 20
80.10000000000024
 30
0.0
 40
0.9
100
AcDbArc
 50
90.0
 51
180.0
  0
LINE
  5
8938
330
1F
100
AcDbEntity
  8
0
 48
0.5
100
AcDbLine
 10
324.3464238184983
 20
81.00000000000035
 30
0.0
 11
324.3464238184983
 21
61.00000000000034
 31
0.0
  0
ARC
  5
893A
330
1F
100
AcDbEntity
  8
0
 48
0.5
100
AcDbCircle
 10
343.5000000000002
 20
57.50000000000034
 30
0.0
 40
0.5
100
AcDbArc
 50
90.0
 51
180.0
  0
LINE
  5
893B
330
1F
100
AcDbEntity
  8
0
 48
0.5
100
AcDbLine
 10
343.0000000000002
 20
56.00000000000034
 30
0.0
 11
343.0000000000002
 21
57.50000000000034
 31
0.0
  0
LINE
  5
893C
330
1F
100
AcDbEntity
  8
0
 48
0.5
100
AcDbLine
 10
397.1062152707385
 20
81.00000000000031
 30
0.0
 11
372.999999999998
 21
81.00000000000031
 31
0.0
  0
LINE
  5
893D
330
1F
100
AcDbEntity
  8
0
 48
0.5
100
AcDbLine
 10
372.9999999999981
 20
81.0000000000002
 30
0.0
 11
372.9999999999981
 21
58.00000000000031
 31
0.0
  0
LINE
  5
893E
330
1F
100
AcDbEntity
  8
0
 48
0.5
100
AcDbLine
 10
398.0062152707385
 20
80.10000000000022
 30
0.0
 11
398.006215270739
 21
61.9000000000004
 31
0.0
  0
ARC
  5
893F
330
1F
100
AcDbEntity
  8
0
 48
0.5
100
AcDbCircle
 10
397.1062152707389
 20
61.9000000000004
 30
0.0
 40
0.9
100
AcDbArc
 50
270.0
 51
0.0
  0
ARC
  5
8940
330
1F
100
AcDbEntity
  8
0
 48
0.5
100
AcDbCircle
 10
397.1062152707385
 20
80.10000000000022
 30
0.0
 40
0.9
100
AcDbArc
 50
0.0
 51
90.0
  0
LINE
  5
8941
330
1F
100
AcDbEntity
  8
0
 48
0.5
100
AcDbLine
 10
395.653576181502
 20
81.00000000000031
 30
0.0
 11
395.653576181502
 21
61.00000000000031
 31
0.0
  0
LINE
  5
8942
330
1F
100
AcDbEntity
  8
0
 48
0.5
100
AcDbLine
 10
397.1062152707389
 20
61.00000000000031
 30
0.0
 11
392.8512344489083
 21
61.00000000000054
 31
0.0
  0
LINE
  5
8943
330
1F
100
AcDbEntity
  8
0
 48
0.5
100
AcDbLine
 10
392.8512344489083
 20
61.00000000000031
 30
0.0
 11
392.8512344489083
 21
56.00000000000031
 31
0.0
  0
LINE
  5
8944
330
1F
100
AcDbEntity
  8
0
 48
0.5
100
AcDbLine
 10
395.4624911971703
 20
61.0000000000002
 30
0.0
 11
395.4624911971703
 21
56.0000000000002
 31
0.0
  0
LINE
  5
8AAB
330
1F
100
AcDbEntity
  8
0
 48
0.5
100
AcDbLine
 10
942.4999999996085
 20
80.00000000000619
 30
0.0
 11
942.4999999996085
 21
81.5000000000062
 31
0.0
  0
LINE
  5
8AAC
330
1F
100
AcDbEntity
  8
0
 48
0.5
100
AcDbLine
 10
941.9999999996086
 20
82.00000000000619
 30
0.0
 11
867.9999999996079
 21
82.00000000000619
 31
0.0
  0
ARC
  5
8AAD
330
1F
100
AcDbEntity
  8
0
 48
0.5
100
AcDbCircle
 10
941.9999999996086
 20
81.5000000000062
 30
0.0
 40
0.5
100
AcDbArc
 50
0.0
 51
90.0
  0
LINE
  5
8AAE
330
1F
100
AcDbEntity
  8
0
 48
0.5
100
AcDbLine
 10
968.499999999589
 20
77.0000000000062
 30
0.0
 11
841.4999999996274
 21
77.0000000000062
 31
0.0
  0
LINE
  5
8AAF
330
1F
100
AcDbEntity
  8
0
 48
0.5
100
AcDbLine
 10
969.9999999995894
 20
80.00000000000619
 30
0.0
 11
839.9999999996268
 21
80.00000000000619
 31
0.0
  0
LINE
  5
8AB0
330
1F
100
AcDbEntity
  8
0
 48
0.5
100
AcDbLine
 10
964.9999999995889
 20
78.50000000000574
 30
0.0
 11
964.9999999995896
 21
80.00000000000619
 31
0.0
  0
ARC
  5
8AB1
330
1F
100
AcDbEntity
  8
0
 48
0.5
100
AcDbCircle
 10
963.4999999995891
 20
78.50000000000619
 30
0.0
 40
1.5
100
AcDbArc
 50
270.0
 51
359.999999999974
  0
LINE
  5
8AB2
330
1F
100
AcDbEntity
  8
0
 48
0.5
100
AcDbLine
 10
969.999999999589
 20
78.50000000000574
 30
0.0
 11
969.9999999995897
 21
80.00000000000619
 31
0.0
  0
ARC
  5
8AB3
330
1F
100
AcDbEntity
  8
0
 48
0.5
100
AcDbCircle
 10
968.499999999589
 20
78.50000000000619
 30
0.0
 40
1.5
100
AcDbArc
 50
270.0
 51
359.999999999974
  0
LINE
  5
8AB4
330
1F
100
AcDbEntity
  8
0
 48
0.5
100
AcDbLine
 10
932.599999999608
 20
110.0000000000062
 30
0.0
 11
932.599999999608
 21
82.00000000000619
 31
0.0
  0
LINE
  5
8AB5
330
1F
100
AcDbEntity
  8
0
  6
CENTER2
 62
     2
 48
0.5
100
AcDbLine
 10
904.9999999996082
 20
74.0000000000062
 30
0.0
 11
904.9999999996082
 21
113.0000000000062
 31
0.0
  0
LINE
  5
8AB6
330
1F
100
AcDbEntity
  8
0
 48
0.5
100
AcDbLine
 10
867.4999999996078
 20
80.00000000000619
 30
0.0
 11
867.4999999996078
 21
81.5000000000062
 31
0.0
  0
ARC
  5
8AB7
330
1F
100
AcDbEntity
  8
0
 48
0.5
100
AcDbCircle
 10
867.9999999996079
 20
81.5000000000062
 30
0.0
 40
0.5
100
AcDbArc
 50
90.0
 51
180.0
  0
LINE
  5
8ABB
330
1F
100
AcDbEntity
  8
0
 48
0.5
100
AcDbLine
 10
844.9999999996274
 20
78.50000000000574
 30
0.0
 11
844.9999999996267
 21
80.00000000000619
 31
0.0
  0
ARC
  5
8ABC
330
1F
100
AcDbEntity
  8
0
 48
0.5
100
AcDbCircle
 10
846.4999999996274
 20
78.50000000000619
 30
0.0
 40
1.5
100
AcDbArc
 50
180.000000000026
 51
270.0
  0
LINE
  5
8ABD
330
1F
100
AcDbEntity
  8
0
 48
0.5
100
AcDbLine
 10
839.9999999996275
 20
78.50000000000574
 30
0.0
 11
839.9999999996268
 21
80.00000000000619
 31
0.0
  0
ARC
  5
8ABE
330
1F
100
AcDbEntity
  8
0
 48
0.5
100
AcDbCircle
 10
841.4999999996274
 20
78.50000000000619
 30
0.0
 40
1.5
100
AcDbArc
 50
180.000000000026
 51
270.0
  0
LINE
  5
8ABF
330
1F
100
AcDbEntity
  8
0
 48
0.5
100
AcDbLine
 10
842.3024025594731
 20
110.0000000000062
 30
0.0
 11
877.3999999996082
 21
110.0000000000062
 31
0.0
  0
LINE
  5
8AC0
330
1F
100
AcDbEntity
  8
0
 48
0.5
100
AcDbLine
 10
842.3024025594736
 20
85.00000000000619
 30
0.0
 11
846.3858742596007
 21
85.00000000000619
 31
0.0
  0
LINE
  5
8AC1
330
1F
100
AcDbEntity
  8
0
 48
0.5
100
AcDbLine
 10
877.3999999996082
 20
110.0000000000062
 30
0.0
 11
877.3999999996082
 21
82.00000000000619
 31
0.0
  0
LINE
  5
8AC2
330
1F
100
AcDbEntity
  8
0
 48
0.5
100
AcDbLine
 10
841.3024025594731
 20
109.0000000000062
 30
0.0
 11
841.3024025594737
 21
86.00000000000619
 31
0.0
  0
ARC
  5
8AC3
330
1F
100
AcDbEntity
  8
0
 48
0.5
100
AcDbCircle
 10
842.3024025594731
 20
109.0000000000062
 30
0.0
 40
1.0
100
AcDbArc
 50
90.0
 51
180.0
  0
ARC
  5
8AC4
330
1F
100
AcDbEntity
  8
0
 48
0.5
100
AcDbCircle
 10
842.3024025594736
 20
86.00000000000619
 30
0.0
 40
1.0
100
AcDbArc
 50
180.0
 51
270.0
  0
LINE
  5
8AC5
330
1F
100
AcDbEntity
  8
0
 48
0.5
100
AcDbLine
 10
843.9999356789737
 20
110.0000000000062
 30
0.0
 11
843.9999356789737
 21
85.00000000000619
 31
0.0
  0
LINE
  5
8AC6
330
1F
100
AcDbEntity
  8
0
 48
0.5
100
AcDbLine
 10
843.436354124239
 20
85.0000000000063
 30
0.0
 11
843.436354124239
 21
80.0000000000063
 31
0.0
  0
LINE
  5
8AC7
330
1F
100
AcDbEntity
  8
0
  6
CENTER2
 62
     2
 48
0.5
100
AcDbLine
 10
904.9999999996082
 20
70.00000000000619
 30
0.0
 11
904.9999999996076
 21
0.0000000000061959
 31
0.0
  0
LINE
  5
8AC9
330
1F
100
AcDbEntity
  8
0
 48
0.5
100
AcDbLine
 10
839.9999999996081
 20
63.60000000000656
 30
0.0
 11
840.0138616029362
 21
10.80000000000637
 31
0.0
  0
ARC
  5
8ACA
330
1F
100
AcDbEntity
  8
0
 48
0.5
100
AcDbCircle
 10
845.813861602936
 20
10.80000000000637
 30
0.0
 40
5.799999999999999
100
AcDbArc
 50
180.0
 51
270.0
  0
LINE
  5
8ACB
330
1F
100
AcDbEntity
  8
0
 48
0.5
100
AcDbLine
 10
969.999999999608
 20
63.60000000000656
 30
0.0
 11
969.9861383962794
 21
10.80000000000637
 31
0.0
  0
ARC
  5
8ACC
330
1F
100
AcDbEntity
  8
0
 48
0.5
100
AcDbCircle
 10
964.1861383962798
 20
10.80000000000637
 30
0.0
 40
5.799999999999999
100
AcDbArc
 50
270.0
 51
0.0
  0
LINE
  5
8ACE
330
1F
100
AcDbEntity
  8
0
 48
0.5
100
AcDbLine
 10
964.9999999996085
 20
65.00000000000619
 30
0.0
 11
844.9999999996082
 21
65.00000000000619
 31
0.0
  0
LINE
  5
8ACF
330
1F
100
AcDbEntity
  8
0
 48
0.5
100
AcDbLine
 10
839.9999999996081
 20
63.60000000000656
 30
0.0
 11
844.999999999608
 21
65.00000000000619
 31
0.0
  0
LINE
  5
8AD0
330
1F
100
AcDbEntity
  8
0
 48
0.5
100
AcDbLine
 10
969.999999999608
 20
63.60000000000656
 30
0.0
 11
964.9999999996081
 21
65.00000000000619
 31
0.0
  0
LINE
  5
8AEC
330
1F
100
AcDbEntity
  8
0
 48
0.5
100
AcDbLine
 10
846.3858742596007
 20
85.00000000000619
 30
0.0
 11
846.3858742596007
 21
80.00000000000619
 31
0.0
  0
LINE
  5
8AED
330
1F
100
AcDbEntity
  8
0
 48
0.5
100
AcDbLine
 10
967.697597439743
 20
110.0000000000062
 30
0.0
 11
932.599999999608
 21
110.0000000000062
 31
0.0
  0
LINE
  5
8AEE
330
1F
100
AcDbEntity
  8
0
 48
0.5
100
AcDbLine
 10
967.6975974397425
 20
85.00000000000619
 30
0.0
 11
963.6141257396154
 21
85.00000000000619
 31
0.0
  0
LINE
  5
8AEF
330
1F
100
AcDbEntity
  8
0
 48
0.5
100
AcDbLine
 10
968.697597439743
 20
109.0000000000062
 30
0.0
 11
968.6975974397425
 21
86.00000000000619
 31
0.0
  0
ARC
  5
8AF0
330
1F
100
AcDbEntity
  8
0
 48
0.5
100
AcDbCircle
 10
967.697597439743
 20
109.0000000000062
 30
0.0
 40
1.0
100
AcDbArc
 50
0.0
 51
90.0
  0
ARC
  5
8AF1
330
1F
100
AcDbEntity
  8
0
 48
0.5
100
AcDbCircle
 10
967.6975974397425
 20
86.00000000000619
 30
0.0
 40
1.0
100
AcDbArc
 50
270.0
 51
0.0
  0
LINE
  5
8AF2
330
1F
100
AcDbEntity
  8
0
 48
0.5
100
AcDbLine
 10
966.0000643202426
 20
110.0000000000062
 30
0.0
 11
966.0000643202426
 21
85.00000000000619
 31
0.0
  0
LINE
  5
8AF3
330
1F
100
AcDbEntity
  8
0
 48
0.5
100
AcDbLine
 10
966.5636458749771
 20
85.0000000000063
 30
0.0
 11
966.5636458749771
 21
80.0000000000063
 31
0.0
  0
LINE
  5
8AF4
330
1F
100
AcDbEntity
  8
0
 48
0.5
100
AcDbLine
 10
963.6141257396154
 20
85.00000000000619
 30
0.0
 11
963.6141257396154
 21
80.00000000000619
 31
0.0
  0
LINE
  5
8B02
330
1F
100
AcDbEntity
  8
0
 48
0.5
100
AcDbLine
 10
927.4999999996081
 20
82.00000000000619
 30
0.0
 11
927.4999999996081
 21
91.00000000000608
 31
0.0
  0
LINE
  5
8B03
330
1F
100
AcDbEntity
  8
0
 48
0.5
100
AcDbLine
 10
926.4999999996081
 20
92.00000000000608
 30
0.0
 11
883.4999999996082
 21
92.00000000000608
 31
0.0
  0
ARC
  5
8B04
330
1F
100
AcDbEntity
  8
0
 48
0.5
100
AcDbCircle
 10
926.4999999996081
 20
91.00000000000608
 30
0.0
 40
1.0
100
AcDbArc
 50
0.0
 51
90.0
  0
LINE
  5
8B05
330
1F
100
AcDbEntity
  8
0
 48
0.5
100
AcDbLine
 10
882.499999999608
 20
82.00000000000608
 30
0.0
 11
882.499999999608
 21
91.00000000000608
 31
0.0
  0
ARC
  5
8B07
330
1F
100
AcDbEntity
  8
0
 48
0.5
100
AcDbCircle
 10
883.4999999996082
 20
91.00000000000608
 30
0.0
 40
1.0
100
AcDbArc
 50
90.0
 51
180.0
  0
LINE
  5
8B60
330
1F
100
AcDbEntity
  8
0
  6
Continuous
 62
     7
 48
0.5
370
    -3
100
AcDbLine
 10
845.813861602936
 20
5.000000000006378
 30
0.0
 11
964.1861383962798
 21
5.000000000006378
 31
0.0
  0
VIEWPORT
  5
2764
102
{ACAD_XDICTIONARY
360
2765
102
}
330
275D
100
AcDbEntity
 67
     1
  8
0
 48
0.5
100
AcDbViewport
 10
157.8707449854704
 20
99.11291408538822
 30
0.0
 40
426.7020996679923
 41
222.1517806396485
 68
     1
 69
     1
 12
157.8707449854704
 22
99.11291408538822
 13
0.0
 23
0.0
 14
10.0
 24
10.0
 15
10.0
 25
10.0
 16
0.0
 26
0.0
 36
1.0
 17
0.0
 27
0.0
 37
0.0
 42
50.0
 43
0.0
 44
0.0
 45
222.1517806396485
 50
0.0
 51
0.0
 72
   100
 90
   557088
  1

281
     0
 71
     1
 74
     0
110
0.0
120
0.0
130
0.0
111
1.0
121
0.0
131
0.0
112
0.0
122
1.0
132
0.0
 79
     0
146
0.0
170
     0
 61
     5
348
1FFD
292
     1
282
     1
141
0.0
142
0.0
 63
   250
421
  3355443
  0
ENDSEC
  0
SECTION
  2
OBJECTS
  0
DICTIONARY
  5
C
330
0
100
AcDbDictionary
281
     1
  3
ACAD_CIP_PREVIOUS_PRODUCT_INFO
350
86D0
  3
ACAD_COLOR
350
2008
  3
ACAD_DETAILVIEWSTYLE
350
86C8
  3
ACAD_GROUP
350
D
  3
ACAD_LAYOUT
350
1A
  3
ACAD_MATERIAL
350
1FDE
  3
ACAD_MLEADERSTYLE
350
202D
  3
ACAD_MLINESTYLE
350
17
  3
ACAD_PLOTSETTINGS
350
19
  3
ACAD_PLOTSTYLENAME
350
E
  3
ACAD_SCALELIST
350
200B
  3
ACAD_SECTIONVIEWSTYLE
350
86C6
  3
ACAD_TABLESTYLE
350
2009
  3
ACAD_VISUALSTYLE
350
1FF7
  3
AcadDim
350
9BD
  3
ACDB_RECOMPOSE_DATA
350
8BA6
  3
AcDbVariableDictionary
350
149
  3
AcDsDecomposeData
350
8BAC
  0
DICTIONARY
  5
2CF5
330
8
100
AcDbDictionary
280
     1
281
     1
  0
DICTIONARY
  5
2044
330
2
100
AcDbDictionary
280
     1
281
     1
  3
ACAD_LAYERFILTERS
360
20EF
  3
ACAD_LAYERSTATES
360
2045
  3
ACLYDICTIONARY
360
20EE
  0
DICTIONARY
  5
20BE
330
10
100
AcDbDictionary
280
     1
281
     1
  3
ADSK_XREC_LAYER_RECONCILED
360
2784
  0
DICTIONARY
  5
286E
330
1F
100
AcDbDictionary
280
     1
281
     1
  3
ACAD_SORTENTS
360
286F
  0
DICTIONARY
  5
2765
330
2764
100
AcDbDictionary
280
     1
281
     1
  3
ASDK_XREC_ANNOTATION_SCALE_INFO
360
2766
  0
XRECORD
  5
86D0
102
{ACAD_REACTORS
330
C
102
}
330
C
100
AcDbXrecord
280
     1
300
ACD
300
2022
300

  0
DICTIONARY
  5
2008
102
{ACAD_REACTORS
330
C
102
}
330
C
100
AcDbDictionary
281
     1
  0
DICTIONARY
  5
86C8
102
{ACAD_REACTORS
330
C
102
}
330
C
100
AcDbDictionary
281
     1
  3
Metric50
350
86C9
  0
DICTIONARY
  5
D
102
{ACAD_REACTORS
330
C
102
}
330
C
100
AcDbDictionary
281
     1
  0
DICTIONARY
  5
1A
102
{ACAD_REACTORS
330
C
102
}
330
C
100
AcDbDictionary
281
     1
  3
Model
350
22
  3
レイアウト1
350
275E
  0
DICTIONARY
  5
1FDE
102
{ACAD_REACTORS
330
C
102
}
330
C
100
AcDbDictionary
281
     1
  3
ByBlock
350
1FE7
  3
ByLayer
350
1FDF
  3
Global
350
1FEF
  0
DICTIONARY
  5
202D
102
{ACAD_REACTORS
330
C
102
}
330
C
100
AcDbDictionary
281
     1
  3
Standard
350
202E
  3
文字列
350
21B6
  0
DICTIONARY
  5
17
102
{ACAD_REACTORS
330
C
102
}
330
C
100
AcDbDictionary
281
     1
  3
Standard
350
18
  0
DICTIONARY
  5
19
102
{ACAD_REACTORS
330
C
102
}
330
C
100
AcDbDictionary
281
     1
  0
ACDBDICTIONARYWDFLT
  5
E
102
{ACAD_REACTORS
330
C
102
}
330
C
100
AcDbDictionary
281
     1
  3
Normal
350
F
100
AcDbDictionaryWithDefault
340
F
  0
DICTIONARY
  5
200B
102
{ACAD_REACTORS
330
C
102
}
330
C
100
AcDbDictionary
281
     1
  3
A0
350
200C
  3
A1
350
200D
  3
A2
350
200E
  3
A3
350
200F
  3
A4
350
2010
  3
A5
350
2011
  3
A6
350
2012
  3
A7
350
2013
  3
A8
350
2014
  3
A9
350
2015
  3
B0
350
2016
  3
B1
350
2017
  3
B2
350
2018
  3
B3
350
2019
  3
B4
350
201A
  3
B5
350
201B
  3
B6
350
201C
  3
B7
350
201D
  3
B8
350
201E
  3
B9
350
201F
  3
C0
350
2020
  3
C1
350
2021
  3
C2
350
2022
  3
C3
350
2023
  3
C4
350
2024
  3
C5
350
2025
  3
C6
350
2026
  3
C7
350
2027
  3
C8
350
2028
  3
C9
350
2029
  3
D0
350
202A
  3
D1
350
202B
  3
D2
350
202C
  0
DICTIONARY
  5
86C6
102
{ACAD_REACTORS
330
C
102
}
330
C
100
AcDbDictionary
281
     1
  3
Metric50
350
86C7
  0
DICTIONARY
  5
2009
102
{ACAD_REACTORS
330
C
102
}
330
C
100
AcDbDictionary
281
     1
  3
Standard
350
200A
  0
DICTIONARY
  5
1FF7
102
{ACAD_REACTORS
330
C
102
}
330
C
100
AcDbDictionary
281
     1
  3
2dWireframe
350
1FFD
  3
3D Hidden
350
1FFF
  3
3dWireframe
350
1FFE
  3
Basic
350
1FFC
  3
Brighten
350
2003
  3
ColorChange
350
2007
  3
Conceptual
350
2000
  3
Dim
350
2002
  3
EdgeColorOff
350
2753
  3
Facepattern
350
2006
  3
Flat
350
1FF8
  3
FlatWithEdges
350
1FF9
  3
Gouraud
350
1FFA
  3
GouraudWithEdges
350
1FFB
  3
Hidden
350
274B
  3
JitterOff
350
2751
  3
Linepattern
350
2005
  3
OverhangOff
350
2752
  3
Realistic
350
2001
  3
Shaded
350
2750
  3
Shaded with edges
350
274F
  3
Shades of Gray
350
274C
  3
Sketchy
350
274D
  3
Thicken
350
2004
  3
Wireframe
350
274A
  3
X-Ray
350
274E
  0
XRECORD
  5
9BD
102
{ACAD_REACTORS
330
C
102
}
330
C
100
AcDbXrecord
280
     1
 90
   990106
  3

 60
     0
 61
     0
 62
     4
 63
     4
 64
     1
 65
     0
 66
     0
 67
     2
 68
     1
 69
     0
 70
     0
 71
     0
 72
     0
 40
46.64942440925108
170
     2
340
0
  0
XRECORD
  5
8BA6
102
{ACAD_REACTORS
330
C
102
}
330
C
100
AcDbXrecord
280
     1
 90
        1
330
200A
330
287B
330
287C
330
4168
330
428F
330
64CF
330
64D0
330
64D1
330
64D2
330
6563
330
6564
330
65F6
330
65F7
330
6753
330
6754
330
679C
330
679D
330
68B2
330
68B3
330
68B4
330
68B5
330
6A59
330
6A5A
330
6AD7
330
6AD8
330
6B9C
330
6B9D
330
6CEA
330
6CEB
330
6D69
330
6D6A
330
6DE9
330
6DEA
330
6EB1
330
6EB2
330
6F2E
330
6F2F
330
6FAC
330
6FAD
330
702C
330
702D
330
70A9
330
70AA
330
7127
330
7128
  0
DICTIONARY
  5
149
102
{ACAD_REACTORS
330
C
102
}
330
C
100
AcDbDictionary
281
     1
  3
CANNOSCALE
350
205A
  3
CMLEADERSTYLE
350
2058
  3
CTABLESTYLE
350
2057
  3
CVIEWDETAILSTYLE
350
8729
  3
CVIEWSECTIONSTYLE
350
872A
  3
DIMASSOC
350
4F0
  3
LAYEREVAL
350
882B
  3
LAYERNOTIFY
350
882C
  3
LIGHTINGUNITS
350
205B
  3
MLEADERSCALE
350
2D35
  3
MSLTSCALE
350
2059
  3
SORTENTS
350
14A
  0
DICTIONARY
  5
8BAC
102
{ACAD_REACTORS
330
C
102
}
330
C
100
AcDbDictionary
281
     1
  3
AcDsRecords
350
8BAE
  3
AcDsSchemas
350
8BAD
1001
ACAD
1070
     2
  0
DICTIONARY
  5
20EF
102
{ACAD_REACTORS
330
2044
102
}
330
2044
100
AcDbDictionary
281
     1
  0
DICTIONARY
  5
2045
102
{ACAD_REACTORS
330
2044
102
}
330
2044
100
AcDbDictionary
281
     1
  0
DICTIONARY
  5
20EE
102
{ACAD_REACTORS
330
2044
102
}
330
2044
100
AcDbDictionary
281
     1
1001
ACAD
1000
<All
  0
XRECORD
  5
2784
102
{ACAD_REACTORS
330
20BE
102
}
330
20BE
100
AcDbXrecord
280
     1
290
     1
  0
SORTENTSTABLE
  5
286F
102
{ACAD_REACTORS
330
286E
102
}
330
286E
100
AcDbSortentsTable
330
1F
331
287B
  5
287C
331
287C
  5
291C
331
6353
  5
6354
331
6354
  5
6355
331
6355
  5
6356
331
6356
  5
6357
331
6357
  5
6358
331
6358
  5
6359
331
6359
  5
635A
331
635A
  5
635B
331
635B
  5
635C
331
635C
  5
635D
331
635D
  5
635E
331
635E
  5
635F
331
635F
  5
6360
331
6360
  5
6361
331
6361
  5
6362
331
6362
  5
6363
331
6363
  5
6364
331
636D
  5
636E
331
636E
  5
636F
331
6377
  5
6379
331
6378
  5
637A
331
6379
  5
637B
331
637A
  5
637C
331
637B
  5
637D
331
637C
  5
637E
331
637D
  5
637F
331
637E
  5
6380
331
637F
  5
6381
331
6380
  5
6382
331
6381
  5
6383
331
6382
  5
6384
331
6383
  5
6385
331
6384
  5
6386
331
638E
  5
6390
331
638F
  5
6391
331
63CF
  5
63D0
331
63D0
  5
63D1
331
63D1
  5
63D2
331
63D2
  5
63D3
331
63D3
  5
63D4
331
63D4
  5
63D5
331
63D5
  5
63D6
331
63D6
  5
63D7
331
63D7
  5
63D8
331
63D8
  5
63D9
331
63E2
  5
63E3
331
63E3
  5
63E4
331
63E4
  5
63E5
331
63E5
  5
63E6
331
63E6
  5
63E7
331
63E7
  5
63E8
331
63E8
  5
63E9
331
63E9
  5
63EA
331
63EA
  5
63EB
331
63EB
  5
63EC
331
63EC
  5
63ED
331
63ED
  5
63EE
331
63F3
  5
63F4
331
63F4
  5
63F6
331
63F5
  5
63F7
331
63F6
  5
63F8
331
63F7
  5
63F9
331
63F8
  5
63FA
331
63F9
  5
63FB
331
6403
  5
6405
331
6404
  5
6406
331
6405
  5
6407
331
6406
  5
6408
331
6407
  5
6409
331
6408
  5
640A
331
6409
  5
640B
331
640A
  5
640C
331
640B
  5
640D
331
640C
  5
640E
331
640D
  5
640F
331
640E
  5
6410
331
648E
  5
648F
331
6498
  5
6499
331
6499
  5
649A
331
649A
  5
649B
331
649B
  5
649C
331
649C
  5
649D
331
649D
  5
649E
331
649E
  5
649F
331
649F
  5
64A0
331
64A0
  5
64A1
331
64A1
  5
64A2
331
64A2
  5
64A3
331
64A3
  5
64A4
331
64A4
  5
64A5
331
64A5
  5
64A6
331
64A6
  5
64A7
331
64A7
  5
64A8
331
64A8
  5
64A9
331
64A9
  5
64AA
331
64AA
  5
64AB
331
64AB
  5
64AC
331
64B1
  5
64B2
331
64B2
  5
64B3
331
64BC
  5
64BD
331
64BD
  5
64BE
331
64BE
  5
64BF
331
64BF
  5
64C0
331
64C0
  5
64C1
331
64C1
  5
64C2
331
64C2
  5
64C3
331
64C3
  5
64C4
331
64C4
  5
64C5
331
64C5
  5
64C6
331
64C6
  5
64C7
331
64C7
  5
64C8
331
64C8
  5
64C9
331
64C9
  5
64CA
331
64CA
  5
64CB
331
64CB
  5
64CC
331
64CF
  5
64D0
331
64D0
  5
64D1
331
64D1
  5
64D2
331
64D2
  5
64D3
331
650F
  5
6510
331
6510
  5
6511
331
6511
  5
6512
331
6512
  5
6513
331
6513
  5
6514
331
651D
  5
651E
331
651E
  5
651F
331
651F
  5
6520
331
6520
  5
6521
331
6521
  5
6522
331
6522
  5
6523
331
6523
  5
6524
331
6524
  5
6525
331
6525
  5
6527
331
6526
  5
6528
331
6527
  5
6529
331
6528
  5
652A
331
6529
  5
652B
331
652A
  5
652C
331
652B
  5
652D
331
652C
  5
652E
331
652D
  5
652F
331
652E
  5
6530
331
652F
  5
6531
331
6530
  5
6544
331
6544
  5
6546
331
6545
  5
6547
331
6546
  5
6551
331
6550
  5
6552
331
6551
  5
6553
331
6552
  5
6554
331
6553
  5
6555
331
6554
  5
6556
331
6555
  5
6557
331
6556
  5
6558
331
6557
  5
6559
331
6558
  5
655A
331
6559
  5
655B
331
655A
  5
655C
331
655B
  5
655D
331
655C
  5
655E
331
655D
  5
655F
331
655E
  5
6560
331
655F
  5
6564
331
6563
  5
6590
331
6564
  5
6592
331
65F6
  5
663D
331
65F7
  5
66C6
331
66C6
  5
66CA
331
66CA
  5
66CB
331
66CB
  5
66CC
331
66CC
  5
66CD
331
66CD
  5
66CF
331
66CE
  5
66DB
331
66DA
  5
66DC
331
66DB
  5
66DD
331
66DC
  5
66DE
331
66DD
  5
66DF
331
66DE
  5
66E0
331
66DF
  5
66E1
331
66E0
  5
66E2
331
66E1
  5
66E3
331
66E2
  5
66E4
331
66E3
  5
66E5
331
66E4
  5
66E6
331
66E5
  5
66E7
331
66E6
  5
66E8
331
66E7
  5
66E9
331
66E8
  5
66EA
331
66E9
  5
66EB
331
66EA
  5
66EC
331
66EB
  5
66ED
331
66EC
  5
6733
331
66ED
  5
6737
331
6737
  5
6738
331
6738
  5
6739
331
6739
  5
6743
331
6743
  5
6744
331
6744
  5
6745
331
6745
  5
6746
331
6746
  5
6747
331
6747
  5
6748
331
6748
  5
6749
331
6749
  5
674A
331
674A
  5
674B
331
674B
  5
674C
331
674C
  5
674D
331
674D
  5
674E
331
674E
  5
674F
331
674F
  5
6750
331
6750
  5
6751
331
6751
  5
6752
331
6752
  5
6753
331
6753
  5
6754
331
6754
  5
6755
331
6755
  5
6759
331
6759
  5
675A
331
675A
  5
675B
331
675B
  5
675C
331
675C
  5
675D
331
675D
  5
6769
331
6769
  5
676A
331
676A
  5
676B
331
676B
  5
676C
331
676C
  5
676D
331
676D
  5
676E
331
676E
  5
676F
331
676F
  5
6770
331
6770
  5
6771
331
6771
  5
6772
331
6772
  5
6773
331
6773
  5
6774
331
6774
  5
6775
331
6775
  5
6776
331
6776
  5
6777
331
6777
  5
6778
331
6778
  5
6779
331
6779
  5
677A
331
677A
  5
677B
331
677B
  5
677C
331
677C
  5
6780
331
6780
  5
6782
331
6781
  5
6783
331
6782
  5
678D
331
678C
  5
678E
331
678D
  5
678F
331
678E
  5
6790
331
678F
  5
6791
331
6790
  5
6792
331
6791
  5
6793
331
6792
  5
6794
331
6793
  5
6795
331
6794
  5
6796
331
6795
  5
6797
331
6796
  5
6798
331
6797
  5
6799
331
6798
  5
679A
331
6799
  5
679B
331
679A
  5
679C
331
679B
  5
679D
331
679C
  5
679E
331
679D
  5
67BD
331
67BD
  5
67BF
331
67BE
  5
67C1
331
67C0
  5
67C2
331
67C1
  5
67C3
331
67C2
  5
67C4
331
67C3
  5
67C6
331
67C5
  5
67C7
331
67C6
  5
67C8
331
67C7
  5
67C9
331
67C8
  5
67CA
331
67C9
  5
67CB
331
67CA
  5
67D2
331
67D2
  5
67D3
331
67D3
  5
67D4
331
67D4
  5
67D7
331
67D6
  5
67D8
331
67D7
  5
684A
331
68B2
  5
68B4
331
68B3
  5
68B5
331
68B4
  5
6940
331
68B5
  5
6A5C
331
6A59
  5
6A5D
331
6A5A
  5
6AD9
331
6AD7
  5
6ADA
331
6AD8
  5
6C5D
331
6B9C
  5
6C5E
331
6B9D
  5
6CED
331
6CEA
  5
6CEF
331
6CEB
  5
6D46
331
6D43
  5
6D47
331
6D44
  5
6D48
331
6D45
  5
6D49
331
6D46
  5
6D4A
331
6D47
  5
6D4B
331
6D48
  5
6D4C
331
6D49
  5
6D4D
331
6D4A
  5
6D4E
331
6D4B
  5
6D4F
331
6D4C
  5
6D50
331
6D4D
  5
6D51
331
6D4E
  5
6D52
331
6D4F
  5
6D53
331
6D50
  5
6D54
331
6D51
  5
6D55
331
6D52
  5
6D56
331
6D53
  5
6D57
331
6D54
  5
6D58
331
6D55
  5
6D59
331
6D56
  5
6D5A
331
6D57
  5
6D5B
331
6D58
  5
6D5C
331
6D59
  5
6D5D
331
6D5A
  5
6D5E
331
6D5B
  5
6D5F
331
6D5C
  5
6D60
331
6D5D
  5
6D61
331
6D5E
  5
6D62
331
6D5F
  5
6D63
331
6D60
  5
6D64
331
6D61
  5
6D65
331
6D62
  5
6D66
331
6D63
  5
6D67
331
6D64
  5
6D68
331
6D65
  5
6D69
331
6D66
  5
6D6A
331
6D67
  5
6D6B
331
6D68
  5
6D6C
331
6D69
  5
6D6E
331
6D6A
  5
6DC5
331
6DC3
  5
6DC6
331
6DC4
  5
6DC7
331
6DC5
  5
6DC8
331
6DC6
  5
6DC9
331
6DC7
  5
6DCA
331
6DC8
  5
6DCB
331
6DC9
  5
6DCC
331
6DCA
  5
6DCD
331
6DCB
  5
6DCE
331
6DCC
  5
6DCF
331
6DCD
  5
6DD0
331
6DCE
  5
6DD1
331
6DCF
  5
6DD2
331
6DD0
  5
6DD3
331
6DD1
  5
6DD4
331
6DD2
  5
6DD5
331
6DD3
  5
6DD6
331
6DD4
  5
6DD7
331
6DD5
  5
6DD8
331
6DD6
  5
6DD9
331
6DD7
  5
6DDA
331
6DD8
  5
6DDB
331
6DD9
  5
6DDC
331
6DDA
  5
6DDD
331
6DDB
  5
6DDE
331
6DDC
  5
6DDF
331
6DDD
  5
6DE0
331
6DDE
  5
6DE1
331
6DDF
  5
6DE2
331
6DE0
  5
6DE3
331
6DE1
  5
6DE4
331
6DE2
  5
6DE5
331
6DE3
  5
6DE6
331
6DE4
  5
6DE7
331
6DE5
  5
6DE8
331
6DE6
  5
6DE9
331
6DE7
  5
6DEA
331
6DE8
  5
6DEB
331
6DE9
  5
6E35
331
6DEA
  5
6E8D
331
6E8B
  5
6E8E
331
6E8C
  5
6E8F
331
6E8D
  5
6E90
331
6E8E
  5
6E91
331
6E8F
  5
6E92
331
6E90
  5
6E93
331
6E91
  5
6E94
331
6E92
  5
6E95
331
6E93
  5
6E96
331
6E94
  5
6E97
331
6E95
  5
6E98
331
6E96
  5
6E99
331
6E97
  5
6E9A
331
6E98
  5
6E9B
331
6E99
  5
6E9C
331
6E9A
  5
6E9D
331
6E9B
  5
6E9E
331
6E9C
  5
6E9F
331
6E9D
  5
6EA0
331
6E9E
  5
6EA1
331
6E9F
  5
6EA2
331
6EA0
  5
6EA3
331
6EA1
  5
6EA4
331
6EA2
  5
6EA5
331
6EA3
  5
6EA6
331
6EA4
  5
6EA7
331
6EA5
  5
6EA8
331
6EA6
  5
6EA9
331
6EA7
  5
6EAA
331
6EA8
  5
6EAB
331
6EA9
  5
6EAC
331
6EAA
  5
6EAD
331
6EAB
  5
6EAE
331
6EAC
  5
6EAF
331
6EAD
  5
6EB0
331
6EAE
  5
6EB1
331
6EAF
  5
6EB2
331
6EB0
  5
6EB3
331
6EB1
  5
6EB4
331
6EB2
  5
6F0A
331
6F08
  5
6F0B
331
6F09
  5
6F0C
331
6F0A
  5
6F0D
331
6F0B
  5
6F0E
331
6F0C
  5
6F0F
331
6F0D
  5
6F10
331
6F0E
  5
6F11
331
6F0F
  5
6F12
331
6F10
  5
6F13
331
6F11
  5
6F14
331
6F12
  5
6F15
331
6F13
  5
6F16
331
6F14
  5
6F17
331
6F15
  5
6F18
331
6F16
  5
6F19
331
6F17
  5
6F1A
331
6F18
  5
6F1B
331
6F19
  5
6F1C
331
6F1A
  5
6F1D
331
6F1B
  5
6F1E
331
6F1C
  5
6F1F
331
6F1D
  5
6F20
331
6F1E
  5
6F21
331
6F1F
  5
6F22
331
6F20
  5
6F23
331
6F21
  5
6F24
331
6F22
  5
6F25
331
6F23
  5
6F26
331
6F24
  5
6F27
331
6F25
  5
6F28
331
6F26
  5
6F29
331
6F27
  5
6F2A
331
6F28
  5
6F2B
331
6F29
  5
6F2C
331
6F2A
  5
6F2D
331
6F2B
  5
6F2E
331
6F2C
  5
6F2F
331
6F2D
  5
6F30
331
6F2E
  5
6F31
331
6F2F
  5
6F88
331
6F86
  5
6F89
331
6F87
  5
6F8A
331
6F88
  5
6F8B
331
6F89
  5
6F8C
331
6F8A
  5
6F8D
331
6F8B
  5
6F8E
331
6F8C
  5
6F8F
331
6F8D
  5
6F90
331
6F8E
  5
6F91
331
6F8F
  5
6F92
331
6F90
  5
6F93
331
6F91
  5
6F94
331
6F92
  5
6F95
331
6F93
  5
6F96
331
6F94
  5
6F97
331
6F95
  5
6F98
331
6F96
  5
6F99
331
6F97
  5
6F9A
331
6F98
  5
6F9B
331
6F99
  5
6F9C
331
6F9A
  5
6F9D
331
6F9B
  5
6F9E
331
6F9C
  5
6F9F
331
6F9D
  5
6FA0
331
6F9E
  5
6FA1
331
6F9F
  5
6FA2
331
6FA0
  5
6FA3
331
6FA1
  5
6FA4
331
6FA2
  5
6FA5
331
6FA3
  5
6FA6
331
6FA4
  5
6FA7
331
6FA5
  5
6FA8
331
6FA6
  5
6FA9
331
6FA7
  5
6FAA
331
6FA8
  5
6FAB
331
6FA9
  5
6FAC
331
6FAA
  5
6FAD
331
6FAB
  5
6FAE
331
6FAC
  5
6FB0
331
6FAD
  5
7008
331
7006
  5
7009
331
7007
  5
700A
331
7008
  5
700B
331
7009
  5
700C
331
700A
  5
700D
331
700B
  5
700E
331
700C
  5
700F
331
700D
  5
7010
331
700E
  5
7011
331
700F
  5
7012
331
7010
  5
7013
331
7011
  5
7014
331
7012
  5
7015
331
7013
  5
7016
331
7014
  5
7017
331
7015
  5
7018
331
7016
  5
7019
331
7017
  5
701A
331
7018
  5
701B
331
7019
  5
701C
331
701A
  5
701D
331
701B
  5
701E
331
701C
  5
701F
331
701D
  5
7020
331
701E
  5
7021
331
701F
  5
7022
331
7020
  5
7023
331
7021
  5
7024
331
7022
  5
7025
331
7023
  5
7026
331
7024
  5
7027
331
7025
  5
7028
331
7026
  5
7029
331
7027
  5
702A
331
7028
  5
702B
331
7029
  5
702C
331
702A
  5
702D
331
702B
  5
702E
331
702C
  5
7030
331
702D
  5
7086
331
7083
  5
7087
331
7084
  5
7088
331
7085
  5
7089
331
7086
  5
708A
331
7087
  5
708B
331
7088
  5
708C
331
7089
  5
708D
331
708A
  5
708E
331
708B
  5
708F
331
708C
  5
7090
331
708D
  5
7091
331
708E
  5
7092
331
708F
  5
7093
331
7090
  5
7094
331
7091
  5
7095
331
7092
  5
7096
331
7093
  5
7097
331
7094
  5
7098
331
7095
  5
7099
331
7096
  5
709A
331
7097
  5
709B
331
7098
  5
709C
331
7099
  5
709D
331
709A
  5
709E
331
709B
  5
709F
331
709C
  5
70A0
331
709D
  5
70A1
331
709E
  5
70A2
331
709F
  5
70A3
331
70A0
  5
70A4
331
70A1
  5
70A5
331
70A2
  5
70A6
331
70A3
  5
70A7
331
70A4
  5
70A8
331
70A5
  5
70A9
331
70A6
  5
70AA
331
70A7
  5
70AB
331
70A8
  5
70AC
331
70A9
  5
70AD
331
70AA
  5
7104
331
7101
  5
7105
331
7102
  5
7106
331
7103
  5
7107
331
7104
  5
7108
331
7105
  5
7109
331
7106
  5
710A
331
7107
  5
710B
331
7108
  5
710C
331
7109
  5
710D
331
710A
  5
710E
331
710B
  5
710F
331
710C
  5
7110
331
710D
  5
7111
331
710E
  5
7112
331
710F
  5
7113
331
7110
  5
7114
331
7111
  5
7115
331
7112
  5
7116
331
7113
  5
7117
331
7114
  5
7118
331
7115
  5
7119
331
7116
  5
711A
331
7117
  5
711B
331
7118
  5
711C
331
7119
  5
711D
331
711A
  5
711E
331
711B
  5
711F
331
711C
  5
7120
331
711D
  5
7121
331
711E
  5
7122
331
711F
  5
7123
331
7120
  5
7124
331
7121
  5
7125
331
7122
  5
7126
331
7123
  5
7127
331
7124
  5
7128
331
7125
  5
7129
331
7126
  5
7177
331
7127
  5
725D
331
7128
  5
725F
331
725D
  5
7260
331
725E
  5
7261
331
725F
  5
7262
331
7260
  5
7271
331
7261
  5
7272
331
7262
  5
7273
331
7271
  5
7280
331
7272
  5
7281
331
7273
  5
74F1
331
74EF
  5
74F2
331
74F0
  5
74F6
331
74F4
  5
751F
331
751D
  5
7520
331
751E
  5
7522
331
7520
  5
7547
331
7545
  5
7548
331
7546
  5
754C
331
754A
  5
7575
331
7573
  5
7576
331
7574
  5
7578
331
7576
  5
759D
331
759B
  5
759E
331
759C
  5
75A2
331
75A0
  5
75CB
331
75C9
  5
75CC
331
75CA
  5
75CE
331
75CC
  5
75F3
331
75F1
  5
75F4
331
75F2
  5
75F8
331
75F6
  5
7621
331
761F
  5
7622
331
7620
  5
7624
331
7622
  5
7649
331
7647
  5
764A
331
7648
  5
764E
331
764C
  5
7677
331
7675
  5
7678
331
7676
  5
767A
331
7678
  5
769F
331
769D
  5
76A0
331
769E
  5
76A4
331
76A2
  5
76CD
331
76CB
  5
76CE
331
76CC
  5
76D0
331
76CE
  5
76F5
331
76F3
  5
76F6
331
76F4
  5
76FA
331
76F8
  5
7723
331
7721
  5
7724
331
7722
  5
7726
331
7724
  5
774B
331
7749
  5
774C
331
774A
  5
7750
331
774E
  5
7779
331
7777
  5
777A
331
7778
  5
777C
331
777A
  5
77B6
331
77B6
  5
77B7
331
77B7
  5
77B8
331
77B8
  5
77BC
331
77BC
  5
77BD
331
77BD
  5
77BE
331
77BE
  5
77C2
331
77C2
  5
77C3
331
77C3
  5
77C4
331
77C4
  5
77C8
331
77C8
  5
77C9
331
77C9
  5
77CA
331
77CA
  5
77CE
331
77CE
  5
77CF
331
77CF
  5
77D0
331
77D0
  5
77DD
331
77DD
  5
77DE
331
77DE
  5
77DF
331
77DF
  5
77E4
331
77E4
  5
77E5
331
77E5
  5
77E6
331
77E6
  5
77EA
331
77EA
  5
77EB
331
77EB
  5
77EC
331
77EC
  5
7A25
331
7A25
  5
7A26
331
7A26
  5
7A29
331
7A29
  5
7A2A
331
7A2A
  5
7A2B
331
7A2B
  5
7A2C
331
7A2C
  5
7A2D
331
7A2D
  5
7A2E
331
7A2E
  5
7A34
331
7A34
  5
7A35
331
7A35
  5
7A36
331
7A36
  5
7A39
331
7A39
  5
7A4A
331
7A4A
  5
7A63
331
7A63
  5
7A64
331
7A64
  5
7A65
331
7A65
  5
7A66
331
7A66
  5
7A67
331
7A67
  5
7A68
331
7A68
  5
7A69
331
7A69
  5
7A6A
331
7A6A
  5
7A6B
331
7A6B
  5
7A6C
331
7A6C
  5
7A6D
331
7A6D
  5
7A6E
331
7A6E
  5
7A6F
331
7A6F
  5
7A70
331
7A70
  5
7A71
331
7A71
  5
7A72
331
7A72
  5
7A73
331
7A73
  5
7A74
331
7A74
  5
7A75
331
7A75
  5
7A7A
331
7A7A
  5
7A7F
331
7A7F
  5
7A80
331
7A80
  5
7A81
331
7A81
  5
7A82
331
7A82
  5
7A83
331
7A83
  5
7A84
331
7A84
  5
7A85
331
7A85
  5
7A86
331
7A86
  5
7A87
331
7A87
  5
7A88
331
7A88
  5
7A89
331
7A89
  5
7A8A
331
7A8A
  5
7A8B
331
7A8B
  5
7A8C
331
7A8C
  5
7A8D
331
7A8D
  5
7A8E
331
7A8E
  5
7A8F
331
7A8F
  5
7A90
331
7A90
  5
7A91
331
7A91
  5
7A97
331
7A97
  5
7A98
331
7A98
  5
7DAF
331
7DAF
  5
7DB0
331
7DB0
  5
7DB1
331
7DB1
  5
7DB2
331
7DB2
  5
7DB3
331
7DB3
  5
7DB4
331
7DB4
  5
7DB5
331
7DB5
  5
7DB6
331
7DB6
  5
7DB9
331
7DB9
  5
7DBA
331
7DBA
  5
7DBB
331
7DBB
  5
7DBC
331
7DBC
  5
7DCB
331
7DCB
  5
7E03
331
7E03
  5
7E04
331
7E04
  5
7E05
331
7E05
  5
7E06
331
7E06
  5
7E07
331
7E07
  5
7E08
331
7E08
  5
7E09
331
7E09
  5
7E0A
331
7E0A
  5
7E0B
331
7E0B
  5
7E0C
331
7E0C
  5
7E0D
331
7E0D
  5
7E0E
331
7E0E
  5
7E0F
331
7E0F
  5
7E10
331
7E10
  5
7E11
331
7E11
  5
7E12
331
7E12
  5
7E13
331
7E13
  5
7E14
331
7E14
  5
7E15
331
7E15
  5
7E17
331
7E17
  5
7E18
331
7E18
  5
7E19
331
7E19
  5
7E1A
331
7E1A
  5
7E1B
331
7E1B
  5
7E1C
331
7E1C
  5
7E1D
331
7E1D
  5
7E1E
331
7E1E
  5
7E1F
331
7E1F
  5
7E20
331
7E20
  5
7E21
331
7E21
  5
7E22
331
7E22
  5
7E23
331
7E23
  5
7E24
331
7E24
  5
7E25
331
7E25
  5
7E26
331
7E26
  5
7E27
331
7E27
  5
7E28
331
7E28
  5
7E29
331
7E29
  5
7E2A
331
7E2A
  5
810A
331
810A
  5
810B
331
810B
  5
810E
331
810E
  5
810F
331
810F
  5
8110
331
8110
  5
8111
331
8111
  5
8112
331
8112
  5
8113
331
8113
  5
8119
331
8119
  5
811A
331
811A
  5
811B
331
811B
  5
811E
331
811E
  5
8133
331
8133
  5
8148
331
8148
  5
8149
331
8149
  5
814A
331
814A
  5
814B
331
814B
  5
814C
331
814C
  5
814D
331
814D
  5
814E
331
814E
  5
814F
331
814F
  5
8150
331
8150
  5
8151
331
8151
  5
8152
331
8152
  5
8153
331
8153
  5
8154
331
8154
  5
8155
331
8155
  5
8156
331
8156
  5
8157
331
8157
  5
8158
331
8158
  5
8159
331
8159
  5
815A
331
815A
  5
815F
331
815F
  5
8164
331
8164
  5
8165
331
8165
  5
8166
331
8166
  5
8167
331
8167
  5
8168
331
8168
  5
8169
331
8169
  5
816A
331
816A
  5
816B
331
816B
  5
816C
331
816C
  5
816D
331
816D
  5
816E
331
816E
  5
816F
331
816F
  5
8170
331
8170
  5
8171
331
8171
  5
8172
331
8172
  5
8173
331
8173
  5
8174
331
8174
  5
8175
331
8175
  5
8176
331
8176
  5
817C
331
817C
  5
817D
331
817D
  5
8476
331
8476
  5
8477
331
8477
  5
847A
331
847A
  5
847B
331
847B
  5
847C
331
847C
  5
847D
331
847D
  5
847E
331
847E
  5
847F
331
847F
  5
8486
331
8486
  5
8487
331
8487
  5
8488
331
8488
  5
848A
331
848A
  5
849A
331
849A
  5
84AC
331
84AC
  5
84C7
331
84C7
  5
84C8
331
84C8
  5
84C9
331
84C9
  5
84CA
331
84CA
  5
84CB
331
84CB
  5
84CC
331
84CC
  5
84CD
331
84CD
  5
84CE
331
84CE
  5
84CF
331
84CF
  5
84D0
331
84D0
  5
84D1
331
84D1
  5
84D2
331
84D2
  5
84D3
331
84D3
  5
84D4
331
84D4
  5
84D5
331
84D5
  5
84D6
331
84D6
  5
84D7
331
84D7
  5
84D8
331
84D8
  5
84D9
331
84D9
  5
84DA
331
84DA
  5
84DB
331
84DB
  5
84DC
331
84DC
  5
84DD
331
84DD
  5
84DE
331
84DE
  5
84DF
331
84DF
  5
84E0
331
84E0
  5
84E1
331
84E1
  5
84E2
331
84E2
  5
84E3
331
84E3
  5
84E4
331
84E4
  5
84E5
331
84E5
  5
84E6
331
84E6
  5
84E7
331
84E7
  5
84E8
331
84E8
  5
84E9
331
84E9
  5
84EA
331
84EA
  5
84EB
331
84EB
  5
84EC
331
84EC
  5
84ED
331
84ED
  5
84EE
331
84EE
  5
86D7
  0
XRECORD
  5
2766
102
{ACAD_REACTORS
330
2765
102
}
330
2765
100
AcDbXrecord
280
     1
 90
        1
340
200C
  0
ACDBDETAILVIEWSTYLE
  5
86C9
102
{ACAD_XDICTIONARY
360
8BB1
102
}
102
{ACAD_REACTORS
330
86C8
102
}
330
86C8
100
AcDbModelDocViewStyle
 70
     0
  3
Metric50
290
     0
100
AcDbDetailViewStyle
 70
     0
 71
     0
 90
        3
 71
     1
340
11
 62
   256
 40
5.0
340
0
 62
   256
 40
5.0
300

 40
0.0
280
     1
 71
     2
340
16
 90
       25
 62
   256
 71
     3
340
11
 62
   256
 40
5.0
 90
        0
 40
15.0
 90
        1
300
%<\AcVar ViewDetailId>% (%<\AcVar ViewScale \f "%sn">%)
 71
     4
340
16
 90
       25
 62
   256
340
16
 90
       25
 62
   256
280
     0
  0
LAYOUT
  5
22
102
{ACAD_XDICTIONARY
360
277B
102
}
102
{ACAD_REACTORS
330
1A
102
}
330
1A
100
AcDbPlotSettings
  1

  2
\\8FCL3\IPSIO NX710
  4
A4
  6

 40
5.831416606903076
 41
4.942422866821289
 42
7.609405517578125
 43
5.789093017578125
 44
209.9733276367187
 45
296.9683227539062
 46
0.0
 47
0.0
 48
0.0
 49
0.0
140
0.0
141
0.0
142
1.0
143
1.334254467352194
 70
 11952
 72
     1
 73
     1
 74
     0
  7

 75
     0
147
0.7494822198230922
 76
     0
 77
     2
 78
   300
148
-57.88030180184231
149
202.7182899524258
100
AcDbLayout
  1
Model
 70
     1
 71
     0
 10
0.0
 20
0.0
 11
12.0
 21
9.0
 12
0.0
 22
0.0
 32
0.0
 14
0.0
 24
0.0
 34
0.0
 15
0.0
 25
0.0
 35
0.0
146
0.0
 13
0.0
 23
0.0
 33
0.0
 16
1.0
 26
0.0
 36
0.0
 17
0.0
 27
1.0
 37
0.0
 76
     0
330
1F
331
1D8F
  0
LAYOUT
  5
275E
102
{ACAD_XDICTIONARY
360
2772
102
}
102
{ACAD_REACTORS
330
1A
102
}
330
1A
100
AcDbPlotSettings
  1

  2
HMYPR07
  4
A4
  6

 40
5.873749732971191
 41
5.873747825622558
 42
5.873748779296875
 43
5.873748779296875
 44
209.9733276367187
 45
296.9259948730469
 46
0.0
 47
0.0
 48
0.0
 49
0.0
140
0.0
141
0.0
142
1.0
143
1.0
 70
   688
 72
     1
 73
     1
 74
     5
  7

 75
    16
147
1.0
 76
     0
 77
     2
 78
   300
148
0.0
149
0.0
100
AcDbLayout
  1
レイアウト1
 70
     1
 71
     1
 10
-5.873748779296875
 20
-5.873749732971191
 11
291.05224609375
 21
204.0995779037475
 12
0.0
 22
0.0
 32
0.0
 14
1.000000000000000E+20
 24
1.000000000000000E+20
 34
1.000000000000000E+20
 15
-1.000000000000000E+20
 25
-1.000000000000000E+20
 35
-1.000000000000000E+20
146
0.0
 13
0.0
 23
0.0
 33
0.0
 16
1.0
 26
0.0
 36
0.0
 17
0.0
 27
1.0
 37
0.0
 76
     0
330
275D
331
2764
1001
ACAD_PSEXT
1000
HMYPR07
1000
Canon LBP3920/3970 LIPS
1000
192.168.32.57
1000

1070
     0
  0
MATERIAL
  5
1FE7
102
{ACAD_XDICTIONARY
360
1FE8
102
}
102
{ACAD_REACTORS
330
1FDE
102
}
330
1FDE
100
AcDbMaterial
  1
ByBlock
 72
     0
 43
0.0008202099737533
 43
0.0
 43
0.0
 43
0.0
 43
0.0
 43
0.0008202099737533
 43
0.0
 43
0.0
 43
0.0
 43
0.0
 43
1.0
 43
0.0
 43
0.0
 43
0.0
 43
0.0
 43
1.0
 77
     0
 47
0.0008202099737533
 47
0.0
 47
0.0
 47
0.0
 47
0.0
 47
0.0008202099737533
 47
0.0
 47
0.0
 47
0.0
 47
0.0
 47
1.0
 47
0.0
 47
0.0
 47
0.0
 47
0.0
 47
1.0
171
     0
 49
0.0008202099737533
 49
0.0
 49
0.0
 49
0.0
 49
0.0
 49
0.0008202099737533
 49
0.0
 49
0.0
 49
0.0
 49
0.0
 49
1.0
 49
0.0
 49
0.0
 49
0.0
 49
0.0
 49
1.0
175
     0
142
0.0008202099737533
142
0.0
142
0.0
142
0.0
142
0.0
142
0.0008202099737533
142
0.0
142
0.0
142
0.0
142
0.0
142
1.0
142
0.0
142
0.0
142
0.0
142
0.0
142
1.0
179
     0
144
0.0008202099737533
144
0.0
144
0.0
144
0.0
144
0.0
144
0.0008202099737533
144
0.0
144
0.0
144
0.0
144
0.0
144
1.0
144
0.0
144
0.0
144
0.0
144
0.0
144
1.0
147
0.0008202099737533
147
0.0
147
0.0
147
0.0
147
0.0
147
0.0008202099737533
147
0.0
147
0.0
147
0.0
147
0.0
147
1.0
147
0.0
147
0.0
147
0.0
147
0.0
147
1.0
  0
MATERIAL
  5
1FDF
102
{ACAD_XDICTIONARY
360
1FE0
102
}
102
{ACAD_REACTORS
330
1FDE
102
}
330
1FDE
100
AcDbMaterial
  1
ByLayer
 72
     0
 43
0.0008202099737533
 43
0.0
 43
0.0
 43
0.0
 43
0.0
 43
0.0008202099737533
 43
0.0
 43
0.0
 43
0.0
 43
0.0
 43
1.0
 43
0.0
 43
0.0
 43
0.0
 43
0.0
 43
1.0
 77
     0
 47
0.0008202099737533
 47
0.0
 47
0.0
 47
0.0
 47
0.0
 47
0.0008202099737533
 47
0.0
 47
0.0
 47
0.0
 47
0.0
 47
1.0
 47
0.0
 47
0.0
 47
0.0
 47
0.0
 47
1.0
171
     0
 49
0.0008202099737533
 49
0.0
 49
0.0
 49
0.0
 49
0.0
 49
0.0008202099737533
 49
0.0
 49
0.0
 49
0.0
 49
0.0
 49
1.0
 49
0.0
 49
0.0
 49
0.0
 49
0.0
 49
1.0
175
     0
142
0.0008202099737533
142
0.0
142
0.0
142
0.0
142
0.0
142
0.0008202099737533
142
0.0
142
0.0
142
0.0
142
0.0
142
1.0
142
0.0
142
0.0
142
0.0
142
0.0
142
1.0
179
     0
144
0.0008202099737533
144
0.0
144
0.0
144
0.0
144
0.0
144
0.0008202099737533
144
0.0
144
0.0
144
0.0
144
0.0
144
1.0
144
0.0
144
0.0
144
0.0
144
0.0
144
1.0
147
0.0008202099737533
147
0.0
147
0.0
147
0.0
147
0.0
147
0.0008202099737533
147
0.0
147
0.0
147
0.0
147
0.0
147
1.0
147
0.0
147
0.0
147
0.0
147
0.0
147
1.0
  0
MATERIAL
  5
1FEF
102
{ACAD_XDICTIONARY
360
1FF0
102
}
102
{ACAD_REACTORS
330
1FDE
102
}
330
1FDE
100
AcDbMaterial
  1
Global
 72
     0
 43
0.0008202099737533
 43
0.0
 43
0.0
 43
0.0
 43
0.0
 43
0.0008202099737533
 43
0.0
 43
0.0
 43
0.0
 43
0.0
 43
1.0
 43
0.0
 43
0.0
 43
0.0
 43
0.0
 43
1.0
 77
     0
 47
0.0008202099737533
 47
0.0
 47
0.0
 47
0.0
 47
0.0
 47
0.0008202099737533
 47
0.0
 47
0.0
 47
0.0
 47
0.0
 47
1.0
 47
0.0
 47
0.0
 47
0.0
 47
0.0
 47
1.0
171
     0
 49
0.0008202099737533
 49
0.0
 49
0.0
 49
0.0
 49
0.0
 49
0.0008202099737533
 49
0.0
 49
0.0
 49
0.0
 49
0.0
 49
1.0
 49
0.0
 49
0.0
 49
0.0
 49
0.0
 49
1.0
175
     0
142
0.0008202099737533
142
0.0
142
0.0
142
0.0
142
0.0
142
0.0008202099737533
142
0.0
142
0.0
142
0.0
142
0.0
142
1.0
142
0.0
142
0.0
142
0.0
142
0.0
142
1.0
179
     0
144
0.0008202099737533
144
0.0
144
0.0
144
0.0
144
0.0
144
0.0008202099737533
144
0.0
144
0.0
144
0.0
144
0.0
144
1.0
144
0.0
144
0.0
144
0.0
144
0.0
144
1.0
147
0.0008202099737533
147
0.0
147
0.0
147
0.0
147
0.0
147
0.0008202099737533
147
0.0
147
0.0
147
0.0
147
0.0
147
1.0
147
0.0
147
0.0
147
0.0
147
0.0
147
1.0
  0
MLEADERSTYLE
  5
202E
102
{ACAD_REACTORS
330
202D
102
}
330
202D
100
AcDbMLeaderStyle
179
     2
170
     2
171
     1
172
     0
 90
        2
 40
0.0
 41
0.0
173
     1
 91
-1056964608
340
14
 92
       -2
290
     1
 42
2.0
291
     1
 43
0.36
  3
Standard
 44
4.0
300

342
11
174
     1
178
     6
175
     1
176
     0
 93
-1056964608
 45
4.0
292
     0
297
     0
 46
4.0
 94
-1056964608
 47
1.0
 49
1.0
140
1.0
293
     1
141
0.0
294
     1
177
     0
142
1.0
295
     0
296
     0
143
0.125
271
     0
272
     9
273
     9
298
     0
  0
MLEADERSTYLE
  5
21B6
102
{ACAD_REACTORS
330
202D
102
}
330
202D
100
AcDbMLeaderStyle
179
     2
170
     2
171
     1
172
     0
 90
        2
 40
0.0
 41
0.0
173
     1
 91
-1073741824
340
15
 92
       -1
290
     1
 42
1.0
291
     1
 43
0.5
  3
Standard
 44
2.5
300

342
DE0
174
     5
178
     5
175
     1
176
     0
 93
-1073741824
 45
2.5
292
     0
297
     0
 46
4.0
 94
-1056964608
 47
1.0
 49
1.0
140
1.0
293
     1
141
0.0
294
     1
177
     0
142
0.0
295
     0
296
     0
143
0.125
271
     0
272
     9
273
     9
298
     0
  0
MLINESTYLE
  5
18
102
{ACAD_REACTORS
330
17
102
}
330
17
100
AcDbMlineStyle
  2
STANDARD
 70
     0
  3

 62
   256
 51
90.0
 52
90.0
 71
     2
 49
0.5
 62
   256
  6
BYLAYER
 49
-0.5
 62
   256
  6
BYLAYER
  0
ACDBPLACEHOLDER
  5
F
102
{ACAD_REACTORS
330
E
102
}
330
E
  0
SCALE
  5
200C
102
{ACAD_REACTORS
330
200B
102
}
330
200B
100
AcDbScale
 70
     0
300
1:1
140
1.0
141
1.0
290
     1
  0
SCALE
  5
200D
102
{ACAD_REACTORS
330
200B
102
}
330
200B
100
AcDbScale
 70
     0
300
1:2
140
1.0
141
2.0
290
     0
  0
SCALE
  5
200E
102
{ACAD_REACTORS
330
200B
102
}
330
200B
100
AcDbScale
 70
     0
300
1:4
140
1.0
141
4.0
290
     0
  0
SCALE
  5
200F
102
{ACAD_REACTORS
330
200B
102
}
330
200B
100
AcDbScale
 70
     0
300
1:5
140
1.0
141
5.0
290
     0
  0
SCALE
  5
2010
102
{ACAD_REACTORS
330
200B
102
}
330
200B
100
AcDbScale
 70
     0
300
1:8
140
1.0
141
8.0
290
     0
  0
SCALE
  5
2011
102
{ACAD_REACTORS
330
200B
102
}
330
200B
100
AcDbScale
 70
     0
300
1:10
140
1.0
141
10.0
290
     0
  0
SCALE
  5
2012
102
{ACAD_REACTORS
330
200B
102
}
330
200B
100
AcDbScale
 70
     0
300
1:16
140
1.0
141
16.0
290
     0
  0
SCALE
  5
2013
102
{ACAD_REACTORS
330
200B
102
}
330
200B
100
AcDbScale
 70
     0
300
1:20
140
1.0
141
20.0
290
     0
  0
SCALE
  5
2014
102
{ACAD_REACTORS
330
200B
102
}
330
200B
100
AcDbScale
 70
     0
300
1:30
140
1.0
141
30.0
290
     0
  0
SCALE
  5
2015
102
{ACAD_REACTORS
330
200B
102
}
330
200B
100
AcDbScale
 70
     0
300
1:40
140
1.0
141
40.0
290
     0
  0
SCALE
  5
2016
102
{ACAD_REACTORS
330
200B
102
}
330
200B
100
AcDbScale
 70
     0
300
1:50
140
1.0
141
50.0
290
     0
  0
SCALE
  5
2017
102
{ACAD_REACTORS
330
200B
102
}
330
200B
100
AcDbScale
 70
     0
300
1:100
140
1.0
141
100.0
290
     0
  0
SCALE
  5
2018
102
{ACAD_REACTORS
330
200B
102
}
330
200B
100
AcDbScale
 70
     0
300
2:1
140
2.0
141
1.0
290
     0
  0
SCALE
  5
2019
102
{ACAD_REACTORS
330
200B
102
}
330
200B
100
AcDbScale
 70
     0
300
4:1
140
4.0
141
1.0
290
     0
  0
SCALE
  5
201A
102
{ACAD_REACTORS
330
200B
102
}
330
200B
100
AcDbScale
 70
     0
300
8:1
140
8.0
141
1.0
290
     0
  0
SCALE
  5
201B
102
{ACAD_REACTORS
330
200B
102
}
330
200B
100
AcDbScale
 70
     0
300
10:1
140
10.0
141
1.0
290
     0
  0
SCALE
  5
201C
102
{ACAD_REACTORS
330
200B
102
}
330
200B
100
AcDbScale
 70
     0
300
100:1
140
100.0
141
1.0
290
     0
  0
SCALE
  5
201D
102
{ACAD_REACTORS
330
200B
102
}
330
200B
100
AcDbScale
 70
     0
300
1/128" = 1'-0"
140
0.0078125
141
12.0
290
     0
  0
SCALE
  5
201E
102
{ACAD_REACTORS
330
200B
102
}
330
200B
100
AcDbScale
 70
     0
300
1/64" = 1'-0"
140
0.015625
141
12.0
290
     0
  0
SCALE
  5
201F
102
{ACAD_REACTORS
330
200B
102
}
330
200B
100
AcDbScale
 70
     0
300
1/32" = 1'-0"
140
0.03125
141
12.0
290
     0
  0
SCALE
  5
2020
102
{ACAD_REACTORS
330
200B
102
}
330
200B
100
AcDbScale
 70
     0
300
1/16" = 1'-0"
140
0.0625
141
12.0
290
     0
  0
SCALE
  5
2021
102
{ACAD_REACTORS
330
200B
102
}
330
200B
100
AcDbScale
 70
     0
300
3/32" = 1'-0"
140
0.09375
141
12.0
290
     0
  0
SCALE
  5
2022
102
{ACAD_REACTORS
330
200B
102
}
330
200B
100
AcDbScale
 70
     0
300
1/8" = 1'-0"
140
0.125
141
12.0
290
     0
  0
SCALE
  5
2023
102
{ACAD_REACTORS
330
200B
102
}
330
200B
100
AcDbScale
 70
     0
300
3/16" = 1'-0"
140
0.1875
141
12.0
290
     0
  0
SCALE
  5
2024
102
{ACAD_REACTORS
330
200B
102
}
330
200B
100
AcDbScale
 70
     0
300
1/4" = 1'-0"
140
0.25
141
12.0
290
     0
  0
SCALE
  5
2025
102
{ACAD_REACTORS
330
200B
102
}
330
200B
100
AcDbScale
 70
     0
300
3/8" = 1'-0"
140
0.375
141
12.0
290
     0
  0
SCALE
  5
2026
102
{ACAD_REACTORS
330
200B
102
}
330
200B
100
AcDbScale
 70
     0
300
1/2" = 1'-0"
140
0.5
141
12.0
290
     0
  0
SCALE
  5
2027
102
{ACAD_REACTORS
330
200B
102
}
330
200B
100
AcDbScale
 70
     0
300
3/4" = 1'-0"
140
0.75
141
12.0
290
     0
  0
SCALE
  5
2028
102
{ACAD_REACTORS
330
200B
102
}
330
200B
100
AcDbScale
 70
     0
300
1" = 1'-0"
140
1.0
141
12.0
290
     0
  0
SCALE
  5
2029
102
{ACAD_REACTORS
330
200B
102
}
330
200B
100
AcDbScale
 70
     0
300
1-1/2" = 1'-0"
140
1.5
141
12.0
290
     0
  0
SCALE
  5
202A
102
{ACAD_REACTORS
330
200B
102
}
330
200B
100
AcDbScale
 70
     0
300
3" = 1'-0"
140
3.0
141
12.0
290
     0
  0
SCALE
  5
202B
102
{ACAD_REACTORS
330
200B
102
}
330
200B
100
AcDbScale
 70
     0
300
6" = 1'-0"
140
6.0
141
12.0
290
     0
  0
SCALE
  5
202C
102
{ACAD_REACTORS
330
200B
102
}
330
200B
100
AcDbScale
 70
     0
300
1'-0" = 1'-0"
140
12.0
141
12.0
290
     0
  0
ACDBSECTIONVIEWSTYLE
  5
86C7
102
{ACAD_XDICTIONARY
360
8BAF
102
}
102
{ACAD_REACTORS
330
86C6
102
}
330
86C6
100
AcDbModelDocViewStyle
 70
     0
  3
Metric50
290
     0
100
AcDbSectionViewStyle
 70
     0
 71
     0
 90
      102
 71
     1
340
11
 62
   256
 40
5.0
340
0
340
0
 62
   256
 40
5.0
300
I, O, Q, S, X, Z
 40
10.0
 90
        0
 40
2.5
 90
        0
 71
     2
340
16
 90
       25
 62
   256
340
16
 90
       50
 62
   256
 40
5.0
 40
2.5
 40
5.0
 71
     3
340
11
 62
   256
 40
5.0
 90
        0
 40
15.0
 90
        1
300
%<\AcVar ViewSectionStartId>%-%<\AcVar ViewSectionEndId>% (%<\AcVar ViewScale \f "%sn">%)
 71
     4
 62
   256
 62
   257
300
ANSI31
 40
1.0
 90
        0
290
     0
290
     0
 90
        6
 40
0.0
 40
1.570796326794896
 40
0.2617993877991494
 40
1.308996938995747
 40
-0.2617993877991494
 40
1.832595714594046
  0
TABLESTYLE
  5
200A
102
{ACAD_XDICTIONARY
360
2054
102
}
102
{ACAD_REACTORS
330
2009
102
}
330
2009
100
AcDbTableStyle
280
     0
  3
Standard
 70
     0
 71
     0
 40
1.5
 41
1.5
280
     0
281
     0
  7
Standard
140
4.5
170
     2
 62
     0
 63
     7
283
     0
 90
      512
 91
        0
  1

274
    -2
284
     1
 64
     0
275
    -2
285
     1
 65
     0
276
    -2
286
     1
 66
     0
277
    -2
287
     1
 67
     0
278
    -2
288
     1
 68
     0
279
    -2
289
     1
 69
     0
  7
Standard
140
6.0
170
     5
 62
     0
 63
     7
283
     0
 90
      512
 91
        0
  1

274
    -2
284
     1
 64
     0
275
    -2
285
     1
 65
     0
276
    -2
286
     1
 66
     0
277
    -2
287
     1
 67
     0
278
    -2
288
     1
 68
     0
279
    -2
289
     1
 69
     0
  7
Standard
140
4.5
170
     5
 62
     0
 63
     7
283
     0
 90
      512
 91
        0
  1

274
    -2
284
     1
 64
     0
275
    -2
285
     1
 65
     0
276
    -2
286
     1
 66
     0
277
    -2
287
     1
 67
     0
278
    -2
288
     1
 68
     0
279
    -2
289
     1
 69
     0
  0
VISUALSTYLE
  5
1FFD
102
{ACAD_REACTORS
330
1FF7
102
}
330
1FF7
100
AcDbVisualStyle
  2
2dWireframe
 70
     4
177
     3
291
     0
 70
    58
 90
        0
176
     1
 90
        2
176
     1
 90
        0
176
     1
 90
        0
176
     1
 40
0.6
176
     1
 40
30.0
176
     1
 62
     7
420
 16777215
176
     1
 90
        1
176
     1
 90
        4
176
     1
 62
     7
176
     1
 62
   257
176
     1
 90
        1
176
     1
 90
        1
176
     1
 40
1.0
176
     1
 90
        0
176
     1
 62
   257
176
     1
 40
1.0
176
     1
 90
        1
176
     1
 90
        6
176
     1
 90
        2
176
     1
 62
     7
176
     1
 90
        5
176
     1
 90
        0
176
     1
 90
        0
176
     1
290
     0
176
     1
 90
        1
176
     1
 40
0.0
176
     1
 90
        0
176
     1
290
     1
176
     1
290
     1
176
     1
290
     0
176
     1
290
     0
176
     1
290
     0
176
     1
290
     0
176
     1
290
     0
176
     1
290
     0
176
     1
290
     0
176
     1
 90
       50
176
     1
 40
0.0
176
     1
 40
1.0
176
     1
 90
        0
176
     1
 62
    18
420
        0
176
     1
 90
       50
176
     1
 90
        3
176
     1
 62
     5
420
      255
176
     1
290
     0
176
     1
 90
       50
176
     1
 90
       50
176
     1
 90
       50
176
     1
290
     0
176
     1
 90
       50
176
     1
 62
   256
176
     0
 40
1.0
176
     0
 90
        2
176
     1
  1
strokes_ogs.tif
176
     1
290
     0
176
     1
 40
1.0
176
     1
 40
1.0
176
     1
1001
ACAD
1000
AcDbSavedByObjectVersion
1070
     0
  0
VISUALSTYLE
  5
1FFF
102
{ACAD_REACTORS
330
1FF7
102
}
330
1FF7
100
AcDbVisualStyle
  2
3D Hidden
 70
     6
177
     3
291
     0
 70
    58
 90
        1
176
     1
 90
        2
176
     1
 90
        2
176
     1
 90
        0
176
     1
 40
0.6
176
     1
 40
30.0
176
     1
 62
     7
420
 16777215
176
     1
 90
        2
176
     1
 90
        2
176
     1
 62
     7
176
     1
 62
   257
176
     1
 90
        2
176
     1
 90
        1
176
     1
 40
40.0
176
     1
 90
        0
176
     1
 62
   257
176
     1
 40
1.0
176
     1
 90
        1
176
     1
 90
        6
176
     1
 90
        2
176
     1
 62
     7
176
     1
 90
        3
176
     1
 90
        0
176
     1
 90
        0
176
     1
290
     0
176
     1
 90
        1
176
     1
 40
0.0
176
     1
 90
        0
176
     1
290
     0
176
     1
290
     1
176
     1
290
     1
176
     1
290
     0
176
     1
290
     0
176
     1
290
     0
176
     1
290
     0
176
     1
290
     0
176
     1
290
     0
176
     1
 90
       50
176
     1
 40
0.0
176
     1
 40
1.0
176
     1
 90
        0
176
     1
 62
    18
420
        0
176
     1
 90
       50
176
     1
 90
        3
176
     1
 62
     5
420
      255
176
     1
290
     0
176
     1
 90
       50
176
     1
 90
       50
176
     1
 90
       50
176
     1
290
     0
176
     1
 90
       50
176
     1
 62
   256
176
     0
 40
1.0
176
     0
 90
        2
176
     1
  1
strokes_ogs.tif
176
     1
290
     0
176
     1
 40
1.0
176
     1
 40
1.0
176
     1
1001
ACAD
1000
AcDbSavedByObjectVersion
1070
     0
  0
VISUALSTYLE
  5
1FFE
102
{ACAD_REACTORS
330
1FF7
102
}
330
1FF7
100
AcDbVisualStyle
  2
3dWireframe
 70
     5
177
     3
291
     0
 70
    58
 90
        0
176
     1
 90
        2
176
     1
 90
        0
176
     1
 90
        0
176
     1
 40
0.6
176
     1
 40
30.0
176
     1
 62
     7
420
 16777215
176
     1
 90
        1
176
     1
 90
        4
176
     1
 62
     7
176
     1
 62
   257
176
     1
 90
        1
176
     1
 90
        1
176
     1
 40
1.0
176
     1
 90
        0
176
     1
 62
   257
176
     1
 40
1.0
176
     1
 90
        1
176
     1
 90
        6
176
     1
 90
        2
176
     1
 62
     7
176
     1
 90
        5
176
     1
 90
        0
176
     1
 90
        0
176
     1
290
     0
176
     1
 90
        1
176
     1
 40
0.0
176
     1
 90
        0
176
     1
290
     0
176
     1
290
     1
176
     1
290
     1
176
     1
290
     0
176
     1
290
     0
176
     1
290
     0
176
     1
290
     0
176
     1
290
     0
176
     1
290
     0
176
     1
 90
       50
176
     1
 40
0.0
176
     1
 40
1.0
176
     1
 90
        0
176
     1
 62
    18
420
        0
176
     1
 90
       50
176
     1
 90
        3
176
     1
 62
     5
420
      255
176
     1
290
     0
176
     1
 90
       50
176
     1
 90
       50
176
     1
 90
       50
176
     1
290
     0
176
     1
 90
       50
176
     1
 62
   256
176
     0
 40
1.0
176
     0
 90
        2
176
     1
  1
strokes_ogs.tif
176
     1
290
     0
176
     1
 40
1.0
176
     1
 40
1.0
176
     1
1001
ACAD
1000
AcDbSavedByObjectVersion
1070
     0
  0
VISUALSTYLE
  5
1FFC
102
{ACAD_REACTORS
330
1FF7
102
}
330
1FF7
100
AcDbVisualStyle
  2
Basic
 70
     7
177
     3
291
     1
 70
    58
 90
        1
176
     1
 90
        0
176
     1
 90
        1
176
     1
 90
        0
176
     1
 40
0.6
176
     1
 40
30.0
176
     1
 62
     7
420
 16777215
176
     1
 90
        0
176
     1
 90
        4
176
     1
 62
     7
176
     1
 62
   257
176
     1
 90
        1
176
     1
 90
        1
176
     1
 40
1.0
176
     1
 90
        8
176
     1
 62
     7
176
     1
 40
1.0
176
     1
 90
        1
176
     1
 90
        6
176
     1
 90
        2
176
     1
 62
     7
176
     1
 90
        5
176
     1
 90
        0
176
     1
 90
        0
176
     1
290
     0
176
     1
 90
        1
176
     1
 40
0.0
176
     1
 90
        0
176
     1
290
     0
176
     1
290
     1
176
     1
290
     1
176
     1
290
     0
176
     1
290
     0
176
     1
290
     0
176
     1
290
     0
176
     1
290
     0
176
     1
290
     0
176
     1
 90
       50
176
     1
 40
0.0
176
     1
 40
1.0
176
     1
 90
        0
176
     1
 62
    18
420
        0
176
     1
 90
       50
176
     1
 90
        3
176
     1
 62
     5
420
      255
176
     1
290
     0
176
     1
 90
       50
176
     1
 90
       50
176
     1
 90
       50
176
     1
290
     0
176
     1
 90
       50
176
     1
 62
   256
176
     0
 40
1.0
176
     0
 90
        2
176
     1
  1
strokes_ogs.tif
176
     1
290
     0
176
     1
 40
1.0
176
     1
 40
1.0
176
     1
1001
ACAD
1000
AcDbSavedByObjectVersion
1070
     0
  0
VISUALSTYLE
  5
2003
102
{ACAD_REACTORS
330
1FF7
102
}
330
1FF7
100
AcDbVisualStyle
  2
Brighten
 70
    12
177
     3
291
     1
 70
    58
 90
        2
176
     1
 90
        2
176
     1
 90
        0
176
     1
 90
        0
176
     1
 40
0.6
176
     1
 40
30.0
176
     1
 62
     7
420
 16777215
176
     1
 90
        1
176
     1
 90
        4
176
     1
 62
     7
176
     1
 62
   257
176
     1
 90
        1
176
     1
 90
        1
176
     1
 40
1.0
176
     1
 90
        8
176
     1
 62
     7
176
     1
 40
1.0
176
     1
 90
        1
176
     1
 90
        6
176
     1
 90
        2
176
     1
 62
     7
176
     1
 90
        5
176
     1
 90
        0
176
     1
 90
        0
176
     1
290
     0
176
     1
 90
        1
176
     1
 40
50.0
176
     1
 90
        0
176
     1
290
     0
176
     1
290
     1
176
     1
290
     1
176
     1
290
     0
176
     1
290
     0
176
     1
290
     0
176
     1
290
     0
176
     1
290
     0
176
     1
290
     0
176
     1
 90
       50
176
     1
 40
0.0
176
     1
 40
1.0
176
     1
 90
        0
176
     1
 62
    18
420
        0
176
     1
 90
       50
176
     1
 90
        3
176
     1
 62
     5
420
      255
176
     1
290
     0
176
     1
 90
       50
176
     1
 90
       50
176
     1
 90
       50
176
     1
290
     0
176
     1
 90
       50
176
     1
 62
   256
176
     0
 40
1.0
176
     0
 90
        2
176
     1
  1
strokes_ogs.tif
176
     1
290
     0
176
     1
 40
1.0
176
     1
 40
1.0
176
     1
1001
ACAD
1000
AcDbSavedByObjectVersion
1070
     0
  0
VISUALSTYLE
  5
2007
102
{ACAD_REACTORS
330
1FF7
102
}
330
1FF7
100
AcDbVisualStyle
  2
ColorChange
 70
    16
177
     3
291
     1
 70
    58
 90
        2
176
     1
 90
        2
176
     1
 90
        3
176
     1
 90
        0
176
     1
 40
0.6
176
     1
 40
30.0
176
     1
 62
     8
420
  8421504
176
     1
 90
        1
176
     1
 90
        4
176
     1
 62
     7
176
     1
 62
   257
176
     1
 90
        1
176
     1
 90
        1
176
     1
 40
1.0
176
     1
 90
        8
176
     1
 62
     8
420
  8421504
176
     1
 40
1.0
176
     1
 90
        1
176
     1
 90
        6
176
     1
 90
        2
176
     1
 62
     7
176
     1
 90
        5
176
     1
 90
        0
176
     1
 90
        0
176
     1
290
     0
176
     1
 90
        1
176
     1
 40
0.0
176
     1
 90
        0
176
     1
290
     0
176
     1
290
     1
176
     1
290
     1
176
     1
290
     0
176
     1
290
     0
176
     1
290
     0
176
     1
290
     0
176
     1
290
     0
176
     1
290
     0
176
     1
 90
       50
176
     1
 40
0.0
176
     1
 40
1.0
176
     1
 90
        0
176
     1
 62
    18
420
        0
176
     1
 90
       50
176
     1
 90
        3
176
     1
 62
     5
420
      255
176
     1
290
     0
176
     1
 90
       50
176
     1
 90
       50
176
     1
 90
       50
176
     1
290
     0
176
     1
 90
       50
176
     1
 62
   256
176
     0
 40
1.0
176
     0
 90
        2
176
     1
  1
strokes_ogs.tif
176
     1
290
     0
176
     1
 40
1.0
176
     1
 40
1.0
176
     1
1001
ACAD
1000
AcDbSavedByObjectVersion
1070
     0
  0
VISUALSTYLE
  5
2000
102
{ACAD_REACTORS
330
1FF7
102
}
330
1FF7
100
AcDbVisualStyle
  2
Conceptual
 70
     9
177
     3
291
     0
 70
    58
 90
        3
176
     1
 90
        2
176
     1
 90
        0
176
     1
 90
        0
176
     1
 40
0.6
176
     1
 40
30.0
176
     1
 62
     7
420
 16777215
176
     1
 90
        2
176
     1
 90
        2
176
     1
 62
     7
176
     1
 62
   257
176
     1
 90
        1
176
     1
 90
        1
176
     1
 40
40.0
176
     1
 90
        8
176
     1
 62
     7
176
     1
 40
1.0
176
     1
 90
        1
176
     1
 90
        6
176
     1
 90
        2
176
     1
 62
     7
176
     1
 90
        3
176
     1
 90
        0
176
     1
 90
        0
176
     1
290
     0
176
     1
 90
        1
176
     1
 40
0.0
176
     1
 90
        0
176
     1
290
     0
176
     1
290
     1
176
     1
290
     1
176
     1
290
     0
176
     1
290
     0
176
     1
290
     0
176
     1
290
     0
176
     1
290
     0
176
     1
290
     0
176
     1
 90
       50
176
     1
 40
0.0
176
     1
 40
1.0
176
     1
 90
        0
176
     1
 62
    18
420
        0
176
     1
 90
       50
176
     1
 90
        3
176
     1
 62
     5
420
      255
176
     1
290
     0
176
     1
 90
       50
176
     1
 90
       50
176
     1
 90
       50
176
     1
290
     0
176
     1
 90
       50
176
     1
 62
   256
176
     0
 40
1.0
176
     0
 90
        2
176
     1
  1
strokes_ogs.tif
176
     1
290
     0
176
     1
 40
1.0
176
     1
 40
1.0
176
     1
1001
ACAD
1000
AcDbSavedByObjectVersion
1070
     0
  0
VISUALSTYLE
  5
2002
102
{ACAD_REACTORS
330
1FF7
102
}
330
1FF7
100
AcDbVisualStyle
  2
Dim
 70
    11
177
     3
291
     1
 70
    58
 90
        2
176
     1
 90
        2
176
     1
 90
        0
176
     1
 90
        0
176
     1
 40
0.6
176
     1
 40
30.0
176
     1
 62
     7
420
 16777215
176
     1
 90
        1
176
     1
 90
        4
176
     1
 62
     7
176
     1
 62
   257
176
     1
 90
        1
176
     1
 90
        1
176
     1
 40
1.0
176
     1
 90
        8
176
     1
 62
     7
176
     1
 40
1.0
176
     1
 90
        1
176
     1
 90
        6
176
     1
 90
        2
176
     1
 62
     7
176
     1
 90
        5
176
     1
 90
        0
176
     1
 90
        0
176
     1
290
     0
176
     1
 90
        1
176
     1
 40
-50.0
176
     1
 90
        0
176
     1
290
     0
176
     1
290
     1
176
     1
290
     1
176
     1
290
     0
176
     1
290
     0
176
     1
290
     0
176
     1
290
     0
176
     1
290
     0
176
     1
290
     0
176
     1
 90
       50
176
     1
 40
0.0
176
     1
 40
1.0
176
     1
 90
        0
176
     1
 62
    18
420
        0
176
     1
 90
       50
176
     1
 90
        3
176
     1
 62
     5
420
      255
176
     1
290
     0
176
     1
 90
       50
176
     1
 90
       50
176
     1
 90
       50
176
     1
290
     0
176
     1
 90
       50
176
     1
 62
   256
176
     0
 40
1.0
176
     0
 90
        2
176
     1
  1
strokes_ogs.tif
176
     1
290
     0
176
     1
 40
1.0
176
     1
 40
1.0
176
     1
1001
ACAD
1000
AcDbSavedByObjectVersion
1070
     0
  0
VISUALSTYLE
  5
2753
102
{ACAD_REACTORS
330
1FF7
102
}
330
1FF7
100
AcDbVisualStyle
  2
EdgeColorOff
 70
    22
177
     3
291
     1
 70
    58
 90
        2
176
     0
 90
        2
176
     0
 90
        0
176
     0
 90
        0
176
     0
 40
0.6
176
     0
 40
30.0
176
     0
 62
     7
420
 16777215
176
     0
 90
        1
176
     0
 90
        4
176
     0
 62
     7
176
     0
 62
   257
176
     0
 90
        1
176
     0
 90
        1
176
     0
 40
1.0
176
     0
 90
        8
176
     2
 62
     7
176
     0
 40
1.0
176
     0
 90
        1
176
     0
 90
        6
176
     0
 90
        2
176
     0
 62
     7
176
     0
 90
        5
176
     0
 90
        0
176
     0
 90
        0
176
     0
290
     0
176
     0
 90
        1
176
     0
 40
0.0
176
     0
 90
        0
176
     0
290
     0
176
     0
290
     1
176
     0
290
     1
176
     0
290
     0
176
     0
290
     0
176
     0
290
     0
176
     1
290
     0
176
     1
290
     0
176
     1
290
     0
176
     1
 90
       50
176
     1
 40
0.0
176
     1
 40
1.0
176
     1
 90
        0
176
     1
 62
    18
420
        0
176
     1
 90
       50
176
     1
 90
        3
176
     1
 62
     5
420
      255
176
     1
290
     0
176
     1
 90
       50
176
     1
 90
       50
176
     1
 90
       50
176
     1
290
     0
176
     1
 90
       50
176
     1
 62
   256
176
     0
 40
1.0
176
     0
 90
        2
176
     1
  1
strokes_ogs.tif
176
     1
290
     0
176
     1
 40
1.0
176
     1
 40
1.0
176
     1
1001
ACAD
1000
AcDbSavedByObjectVersion
1070
     0
  0
VISUALSTYLE
  5
2006
102
{ACAD_REACTORS
330
1FF7
102
}
330
1FF7
100
AcDbVisualStyle
  2
Facepattern
 70
    15
177
     3
291
     1
 70
    58
 90
        2
176
     1
 90
        2
176
     1
 90
        0
176
     1
 90
        0
176
     1
 40
0.6
176
     1
 40
30.0
176
     1
 62
     7
420
 16777215
176
     1
 90
        1
176
     1
 90
        4
176
     1
 62
     7
176
     1
 62
   257
176
     1
 90
        1
176
     1
 90
        1
176
     1
 40
1.0
176
     1
 90
        8
176
     1
 62
     7
176
     1
 40
1.0
176
     1
 90
        1
176
     1
 90
        6
176
     1
 90
        2
176
     1
 62
     7
176
     1
 90
        5
176
     1
 90
        0
176
     1
 90
        0
176
     1
290
     0
176
     1
 90
        1
176
     1
 40
0.0
176
     1
 90
        0
176
     1
290
     0
176
     1
290
     1
176
     1
290
     1
176
     1
290
     0
176
     1
290
     0
176
     1
290
     0
176
     1
290
     0
176
     1
290
     0
176
     1
290
     0
176
     1
 90
       50
176
     1
 40
0.0
176
     1
 40
1.0
176
     1
 90
        0
176
     1
 62
    18
420
        0
176
     1
 90
       50
176
     1
 90
        3
176
     1
 62
     5
420
      255
176
     1
290
     0
176
     1
 90
       50
176
     1
 90
       50
176
     1
 90
       50
176
     1
290
     0
176
     1
 90
       50
176
     1
 62
   256
176
     0
 40
1.0
176
     0
 90
        2
176
     1
  1
strokes_ogs.tif
176
     1
290
     0
176
     1
 40
1.0
176
     1
 40
1.0
176
     1
1001
ACAD
1000
AcDbSavedByObjectVersion
1070
     0
  0
VISUALSTYLE
  5
1FF8
102
{ACAD_REACTORS
330
1FF7
102
}
330
1FF7
100
AcDbVisualStyle
  2
Flat
 70
     0
177
     3
291
     1
 70
    58
 90
        2
176
     1
 90
        1
176
     1
 90
        1
176
     1
 90
        2
176
     1
 40
0.6
176
     1
 40
30.0
176
     1
 62
     7
420
 16777215
176
     1
 90
        0
176
     1
 90
        4
176
     1
 62
     7
176
     1
 62
   257
176
     1
 90
        1
176
     1
 90
        1
176
     1
 40
1.0
176
     1
 90
        8
176
     1
 62
     7
176
     1
 40
1.0
176
     1
 90
        1
176
     1
 90
        6
176
     1
 90
        2
176
     1
 62
     7
176
     1
 90
        5
176
     1
 90
        0
176
     1
 90
        0
176
     1
290
     0
176
     1
 90
       13
176
     1
 40
0.0
176
     1
 90
        0
176
     1
290
     0
176
     1
290
     1
176
     1
290
     1
176
     1
290
     0
176
     1
290
     0
176
     1
290
     0
176
     1
290
     0
176
     1
290
     0
176
     1
290
     0
176
     1
 90
       50
176
     1
 40
0.0
176
     1
 40
1.0
176
     1
 90
        0
176
     1
 62
    18
420
        0
176
     1
 90
       50
176
     1
 90
        3
176
     1
 62
     5
420
      255
176
     1
290
     0
176
     1
 90
       50
176
     1
 90
       50
176
     1
 90
       50
176
     1
290
     0
176
     1
 90
       50
176
     1
 62
   256
176
     0
 40
1.0
176
     0
 90
        2
176
     1
  1
strokes_ogs.tif
176
     1
290
     0
176
     1
 40
1.0
176
     1
 40
1.0
176
     1
1001
ACAD
1000
AcDbSavedByObjectVersion
1070
     0
  0
VISUALSTYLE
  5
1FF9
102
{ACAD_REACTORS
330
1FF7
102
}
330
1FF7
100
AcDbVisualStyle
  2
FlatWithEdges
 70
     1
177
     3
291
     1
 70
    58
 90
        2
176
     1
 90
        1
176
     1
 90
        1
176
     1
 90
        2
176
     1
 40
0.6
176
     1
 40
30.0
176
     1
 62
     7
420
 16777215
176
     1
 90
        1
176
     1
 90
        4
176
     1
 62
     7
176
     1
 62
   257
176
     1
 90
        1
176
     1
 90
        1
176
     1
 40
1.0
176
     1
 90
        0
176
     1
 62
   257
176
     1
 40
1.0
176
     1
 90
        1
176
     1
 90
        6
176
     1
 90
        2
176
     1
 62
     7
176
     1
 90
        5
176
     1
 90
        0
176
     1
 90
        0
176
     1
290
     0
176
     1
 90
       13
176
     1
 40
0.0
176
     1
 90
        0
176
     1
290
     0
176
     1
290
     1
176
     1
290
     1
176
     1
290
     0
176
     1
290
     0
176
     1
290
     0
176
     1
290
     0
176
     1
290
     0
176
     1
290
     0
176
     1
 90
       50
176
     1
 40
0.0
176
     1
 40
1.0
176
     1
 90
        0
176
     1
 62
    18
420
        0
176
     1
 90
       50
176
     1
 90
        3
176
     1
 62
     5
420
      255
176
     1
290
     0
176
     1
 90
       50
176
     1
 90
       50
176
     1
 90
       50
176
     1
290
     0
176
     1
 90
       50
176
     1
 62
   256
176
     0
 40
1.0
176
     0
 90
        2
176
     1
  1
strokes_ogs.tif
176
     1
290
     0
176
     1
 40
1.0
176
     1
 40
1.0
176
     1
1001
ACAD
1000
AcDbSavedByObjectVersion
1070
     0
  0
VISUALSTYLE
  5
1FFA
102
{ACAD_REACTORS
330
1FF7
102
}
330
1FF7
100
AcDbVisualStyle
  2
Gouraud
 70
     2
177
     3
291
     1
 70
    58
 90
        2
176
     1
 90
        2
176
     1
 90
        1
176
     1
 90
        2
176
     1
 40
0.6
176
     1
 40
30.0
176
     1
 62
     7
420
 16777215
176
     1
 90
        0
176
     1
 90
        4
176
     1
 62
     7
176
     1
 62
   257
176
     1
 90
        1
176
     1
 90
        1
176
     1
 40
1.0
176
     1
 90
        0
176
     1
 62
     7
176
     1
 40
1.0
176
     1
 90
        1
176
     1
 90
        6
176
     1
 90
        2
176
     1
 62
     7
176
     1
 90
        5
176
     1
 90
        0
176
     1
 90
        0
176
     1
290
     0
176
     1
 90
       13
176
     1
 40
0.0
176
     1
 90
        0
176
     1
290
     0
176
     1
290
     1
176
     1
290
     1
176
     1
290
     0
176
     1
290
     0
176
     1
290
     0
176
     1
290
     0
176
     1
290
     0
176
     1
290
     0
176
     1
 90
       50
176
     1
 40
0.0
176
     1
 40
1.0
176
     1
 90
        0
176
     1
 62
    18
420
        0
176
     1
 90
       50
176
     1
 90
        3
176
     1
 62
     5
420
      255
176
     1
290
     0
176
     1
 90
       50
176
     1
 90
       50
176
     1
 90
       50
176
     1
290
     0
176
     1
 90
       50
176
     1
 62
   256
176
     0
 40
1.0
176
     0
 90
        2
176
     1
  1
strokes_ogs.tif
176
     1
290
     0
176
     1
 40
1.0
176
     1
 40
1.0
176
     1
1001
ACAD
1000
AcDbSavedByObjectVersion
1070
     0
  0
VISUALSTYLE
  5
1FFB
102
{ACAD_REACTORS
330
1FF7
102
}
330
1FF7
100
AcDbVisualStyle
  2
GouraudWithEdges
 70
     3
177
     3
291
     1
 70
    58
 90
        2
176
     1
 90
        2
176
     1
 90
        1
176
     1
 90
        2
176
     1
 40
0.6
176
     1
 40
30.0
176
     1
 62
     7
420
 16777215
176
     1
 90
        1
176
     1
 90
        4
176
     1
 62
     7
176
     1
 62
   257
176
     1
 90
        1
176
     1
 90
        1
176
     1
 40
1.0
176
     1
 90
        0
176
     1
 62
   257
176
     1
 40
1.0
176
     1
 90
        1
176
     1
 90
        6
176
     1
 90
        2
176
     1
 62
     7
176
     1
 90
        5
176
     1
 90
        0
176
     1
 90
        0
176
     1
290
     0
176
     1
 90
       13
176
     1
 40
0.0
176
     1
 90
        0
176
     1
290
     0
176
     1
290
     1
176
     1
290
     1
176
     1
290
     0
176
     1
290
     0
176
     1
290
     0
176
     1
290
     0
176
     1
290
     0
176
     1
290
     0
176
     1
 90
       50
176
     1
 40
0.0
176
     1
 40
1.0
176
     1
 90
        0
176
     1
 62
    18
420
        0
176
     1
 90
       50
176
     1
 90
        3
176
     1
 62
     5
420
      255
176
     1
290
     0
176
     1
 90
       50
176
     1
 90
       50
176
     1
 90
       50
176
     1
290
     0
176
     1
 90
       50
176
     1
 62
   256
176
     0
 40
1.0
176
     0
 90
        2
176
     1
  1
strokes_ogs.tif
176
     1
290
     0
176
     1
 40
1.0
176
     1
 40
1.0
176
     1
1001
ACAD
1000
AcDbSavedByObjectVersion
1070
     0
  0
VISUALSTYLE
  5
274B
102
{ACAD_REACTORS
330
1FF7
102
}
330
1FF7
100
AcDbVisualStyle
  2
Hidden
 70
     6
177
     3
291
     0
 70
    58
 90
        1
176
     1
 90
        2
176
     1
 90
        2
176
     1
 90
        0
176
     1
 40
0.6
176
     1
 40
30.0
176
     1
 62
     7
420
 16777215
176
     1
 90
        2
176
     1
 90
        2
176
     1
 62
     7
176
     1
 62
   257
176
     1
 90
        2
176
     1
 90
        1
176
     1
 40
40.0
176
     1
 90
        0
176
     1
 62
   257
176
     1
 40
1.0
176
     1
 90
        1
176
     1
 90
        6
176
     1
 90
        2
176
     1
 62
     7
176
     1
 90
        3
176
     1
 90
        0
176
     1
 90
        0
176
     1
290
     0
176
     1
 90
        1
176
     1
 40
0.0
176
     1
 90
        0
176
     1
290
     0
176
     1
290
     1
176
     1
290
     1
176
     1
290
     0
176
     1
290
     0
176
     1
290
     0
176
     1
290
     0
176
     1
290
     0
176
     1
290
     0
176
     1
 90
       50
176
     1
 40
0.0
176
     1
 40
1.0
176
     1
 90
        0
176
     1
 62
    18
420
        0
176
     1
 90
       50
176
     1
 90
        3
176
     1
 62
     5
420
      255
176
     1
290
     0
176
     1
 90
       50
176
     1
 90
       50
176
     1
 90
       50
176
     1
290
     0
176
     1
 90
       50
176
     1
 62
   256
176
     0
 40
1.0
176
     0
 90
        2
176
     1
  1
strokes_ogs.tif
176
     1
290
     0
176
     1
 40
1.0
176
     1
 40
1.0
176
     1
1001
ACAD
1000
AcDbSavedByObjectVersion
1070
     0
  0
VISUALSTYLE
  5
2751
102
{ACAD_REACTORS
330
1FF7
102
}
330
1FF7
100
AcDbVisualStyle
  2
JitterOff
 70
    20
177
     3
291
     1
 70
    58
 90
        2
176
     0
 90
        2
176
     0
 90
        0
176
     0
 90
        0
176
     0
 40
0.6
176
     0
 40
30.0
176
     0
 62
     7
420
 16777215
176
     0
 90
        1
176
     0
 90
        4
176
     0
 62
     7
176
     0
 62
   257
176
     0
 90
        1
176
     0
 90
        1
176
     0
 40
1.0
176
     0
 90
       10
176
     2
 62
     7
176
     0
 40
1.0
176
     0
 90
        1
176
     0
 90
        6
176
     0
 90
        2
176
     0
 62
     7
176
     0
 90
        5
176
     0
 90
        0
176
     0
 90
        0
176
     0
290
     0
176
     0
 90
        1
176
     0
 40
0.0
176
     0
 90
        0
176
     0
290
     0
176
     0
290
     1
176
     0
290
     1
176
     0
290
     0
176
     0
290
     0
176
     0
290
     0
176
     1
290
     0
176
     1
290
     0
176
     1
290
     0
176
     1
 90
       50
176
     1
 40
0.0
176
     1
 40
1.0
176
     1
 90
        0
176
     1
 62
    18
420
        0
176
     1
 90
       50
176
     1
 90
        3
176
     1
 62
     5
420
      255
176
     1
290
     0
176
     1
 90
       50
176
     1
 90
       50
176
     1
 90
       50
176
     1
290
     0
176
     1
 90
       50
176
     1
 62
   256
176
     0
 40
1.0
176
     0
 90
        2
176
     1
  1
strokes_ogs.tif
176
     1
290
     0
176
     1
 40
1.0
176
     1
 40
1.0
176
     1
1001
ACAD
1000
AcDbSavedByObjectVersion
1070
     0
  0
VISUALSTYLE
  5
2005
102
{ACAD_REACTORS
330
1FF7
102
}
330
1FF7
100
AcDbVisualStyle
  2
Linepattern
 70
    14
177
     3
291
     1
 70
    58
 90
        2
176
     1
 90
        2
176
     1
 90
        0
176
     1
 90
        0
176
     1
 40
0.6
176
     1
 40
30.0
176
     1
 62
     7
420
 16777215
176
     1
 90
        1
176
     1
 90
        4
176
     1
 62
     7
176
     1
 62
   257
176
     1
 90
        7
176
     1
 90
        7
176
     1
 40
1.0
176
     1
 90
        8
176
     1
 62
     7
176
     1
 40
1.0
176
     1
 90
        1
176
     1
 90
        6
176
     1
 90
        2
176
     1
 62
     7
176
     1
 90
        5
176
     1
 90
        0
176
     1
 90
        0
176
     1
290
     0
176
     1
 90
        1
176
     1
 40
0.0
176
     1
 90
        0
176
     1
290
     0
176
     1
290
     1
176
     1
290
     1
176
     1
290
     0
176
     1
290
     0
176
     1
290
     0
176
     1
290
     0
176
     1
290
     0
176
     1
290
     0
176
     1
 90
       50
176
     1
 40
0.0
176
     1
 40
1.0
176
     1
 90
        0
176
     1
 62
    18
420
        0
176
     1
 90
       50
176
     1
 90
        3
176
     1
 62
     5
420
      255
176
     1
290
     0
176
     1
 90
       50
176
     1
 90
       50
176
     1
 90
       50
176
     1
290
     0
176
     1
 90
       50
176
     1
 62
   256
176
     0
 40
1.0
176
     0
 90
        2
176
     1
  1
strokes_ogs.tif
176
     1
290
     0
176
     1
 40
1.0
176
     1
 40
1.0
176
     1
1001
ACAD
1000
AcDbSavedByObjectVersion
1070
     0
  0
VISUALSTYLE
  5
2752
102
{ACAD_REACTORS
330
1FF7
102
}
330
1FF7
100
AcDbVisualStyle
  2
OverhangOff
 70
    21
177
     3
291
     1
 70
    58
 90
        2
176
     0
 90
        2
176
     0
 90
        0
176
     0
 90
        0
176
     0
 40
0.6
176
     0
 40
30.0
176
     0
 62
     7
420
 16777215
176
     0
 90
        1
176
     0
 90
        4
176
     0
 62
     7
176
     0
 62
   257
176
     0
 90
        1
176
     0
 90
        1
176
     0
 40
1.0
176
     0
 90
        9
176
     2
 62
     7
176
     0
 40
1.0
176
     0
 90
        1
176
     0
 90
        6
176
     0
 90
        2
176
     0
 62
     7
176
     0
 90
        5
176
     0
 90
        0
176
     0
 90
        0
176
     0
290
     0
176
     0
 90
        1
176
     0
 40
0.0
176
     0
 90
        0
176
     0
290
     0
176
     0
290
     1
176
     0
290
     1
176
     0
290
     0
176
     0
290
     0
176
     0
290
     0
176
     1
290
     0
176
     1
290
     0
176
     1
290
     0
176
     1
 90
       50
176
     1
 40
0.0
176
     1
 40
1.0
176
     1
 90
        0
176
     1
 62
    18
420
        0
176
     1
 90
       50
176
     1
 90
        3
176
     1
 62
     5
420
      255
176
     1
290
     0
176
     1
 90
       50
176
     1
 90
       50
176
     1
 90
       50
176
     1
290
     0
176
     1
 90
       50
176
     1
 62
   256
176
     0
 40
1.0
176
     0
 90
        2
176
     1
  1
strokes_ogs.tif
176
     1
290
     0
176
     1
 40
1.0
176
     1
 40
1.0
176
     1
1001
ACAD
1000
AcDbSavedByObjectVersion
1070
     0
  0
VISUALSTYLE
  5
2001
102
{ACAD_REACTORS
330
1FF7
102
}
330
1FF7
100
AcDbVisualStyle
  2
Realistic
 70
     8
177
     3
291
     0
 70
    58
 90
        2
176
     1
 90
        2
176
     1
 90
        0
176
     1
 90
        0
176
     1
 40
0.6
176
     1
 40
30.0
176
     1
 62
     7
420
 16777215
176
     1
 90
        1
176
     1
 90
        0
176
     1
 62
     7
176
     1
 62
   257
176
     1
 90
        1
176
     1
 90
        1
176
     1
 40
1.0
176
     1
 90
        8
176
     1
 62
     8
420
  7895160
176
     1
 40
1.0
176
     1
 90
        1
176
     1
 90
        6
176
     1
 90
        2
176
     1
 62
     7
176
     1
 90
        5
176
     1
 90
        0
176
     1
 90
        0
176
     1
290
     0
176
     1
 90
       13
176
     1
 40
0.0
176
     1
 90
        0
176
     1
290
     0
176
     1
290
     1
176
     1
290
     1
176
     1
290
     0
176
     1
290
     0
176
     1
290
     0
176
     1
290
     0
176
     1
290
     0
176
     1
290
     0
176
     1
 90
       50
176
     1
 40
0.0
176
     1
 40
1.0
176
     1
 90
        0
176
     1
 62
    18
420
        0
176
     1
 90
       50
176
     1
 90
        3
176
     1
 62
     5
420
      255
176
     1
290
     0
176
     1
 90
       50
176
     1
 90
       50
176
     1
 90
       50
176
     1
290
     0
176
     1
 90
       50
176
     1
 62
   256
176
     0
 40
1.0
176
     0
 90
        2
176
     1
  1
strokes_ogs.tif
176
     1
290
     0
176
     1
 40
1.0
176
     1
 40
1.0
176
     1
1001
ACAD
1000
AcDbSavedByObjectVersion
1070
     0
  0
VISUALSTYLE
  5
2750
102
{ACAD_REACTORS
330
1FF7
102
}
330
1FF7
100
AcDbVisualStyle
  2
Shaded
 70
    27
177
     3
291
     0
 70
    58
 90
        2
176
     1
 90
        2
176
     1
 90
        1
176
     1
 90
        2
176
     1
 40
0.6
176
     1
 40
30.0
176
     1
 62
     7
420
 16777215
176
     1
 90
        0
176
     1
 90
        4
176
     1
 62
     7
176
     1
 62
   257
176
     1
 90
        1
176
     1
 90
        1
176
     1
 40
1.0
176
     1
 90
        8
176
     1
 62
   257
176
     1
 40
1.0
176
     1
 90
        1
176
     1
 90
        6
176
     1
 90
        2
176
     1
 62
     8
420
  7895160
176
     1
 90
        3
176
     1
 90
        0
176
     1
 90
        0
176
     1
290
     0
176
     1
 90
        5
176
     1
 40
0.0
176
     1
 90
        0
176
     1
290
     0
176
     1
290
     1
176
     1
290
     1
176
     1
290
     0
176
     1
290
     0
176
     1
290
     0
176
     1
290
     0
176
     1
290
     0
176
     1
290
     0
176
     1
 90
       50
176
     1
 40
0.0
176
     1
 40
1.0
176
     1
 90
        0
176
     1
 62
    18
420
        0
176
     1
 90
       50
176
     1
 90
        3
176
     1
 62
     5
420
      255
176
     1
290
     0
176
     1
 90
       50
176
     1
 90
       50
176
     1
 90
       50
176
     1
290
     0
176
     1
 90
       50
176
     1
 62
   256
176
     0
 40
1.0
176
     0
 90
        2
176
     1
  1
strokes_ogs.tif
176
     1
290
     0
176
     1
 40
1.0
176
     1
 40
1.0
176
     1
1001
ACAD
1000
AcDbSavedByObjectVersion
1070
     0
  0
VISUALSTYLE
  5
274F
102
{ACAD_REACTORS
330
1FF7
102
}
330
1FF7
100
AcDbVisualStyle
  2
Shaded with edges
 70
    26
177
     3
291
     0
 70
    58
 90
        2
176
     1
 90
        2
176
     1
 90
        1
176
     1
 90
        2
176
     1
 40
0.6
176
     1
 40
30.0
176
     1
 62
     7
420
 16777215
176
     1
 90
        1
176
     1
 90
        2
176
     1
 62
     7
176
     1
 62
   257
176
     1
 90
        2
176
     1
 90
        1
176
     1
 40
1.0
176
     1
 90
        8
176
     1
 62
   257
176
     1
 40
1.0
176
     1
 90
        1
176
     1
 90
        6
176
     1
 90
        2
176
     1
 62
     7
176
     1
 90
        3
176
     1
 90
        0
176
     1
 90
        0
176
     1
290
     0
176
     1
 90
        5
176
     1
 40
0.0
176
     1
 90
        0
176
     1
290
     0
176
     1
290
     1
176
     1
290
     1
176
     1
290
     0
176
     1
290
     0
176
     1
290
     0
176
     1
290
     0
176
     1
290
     0
176
     1
290
     0
176
     1
 90
       50
176
     1
 40
0.0
176
     1
 40
1.0
176
     1
 90
        0
176
     1
 62
    18
420
        0
176
     1
 90
       50
176
     1
 90
        3
176
     1
 62
     5
420
      255
176
     1
290
     0
176
     1
 90
       50
176
     1
 90
       50
176
     1
 90
       50
176
     1
290
     0
176
     1
 90
       50
176
     1
 62
   256
176
     0
 40
1.0
176
     0
 90
        2
176
     1
  1
strokes_ogs.tif
176
     1
290
     0
176
     1
 40
1.0
176
     1
 40
1.0
176
     1
1001
ACAD
1000
AcDbSavedByObjectVersion
1070
     0
  0
VISUALSTYLE
  5
274C
102
{ACAD_REACTORS
330
1FF7
102
}
330
1FF7
100
AcDbVisualStyle
  2
Shades of Gray
 70
    23
177
     3
291
     0
 70
    58
 90
        2
176
     1
 90
        2
176
     1
 90
        3
176
     1
 90
        0
176
     1
 40
0.6
176
     1
 40
30.0
176
     1
 62
     7
420
 16777215
176
     1
 90
        2
176
     1
 90
        2
176
     1
 62
     7
176
     1
 62
     7
176
     1
 90
        1
176
     1
 90
        1
176
     1
 40
40.0
176
     1
 90
        8
176
     1
 62
     7
176
     1
 40
1.0
176
     1
 90
        1
176
     1
 90
        6
176
     1
 90
        2
176
     1
 62
     7
176
     1
 90
        3
176
     1
 90
        0
176
     1
 90
        0
176
     1
290
     0
176
     1
 90
        1
176
     1
 40
0.0
176
     1
 90
        0
176
     1
290
     0
176
     1
290
     1
176
     1
290
     1
176
     1
290
     0
176
     1
290
     0
176
     1
290
     0
176
     1
290
     0
176
     1
290
     0
176
     1
290
     0
176
     1
 90
       50
176
     1
 40
0.0
176
     1
 40
1.0
176
     1
 90
        0
176
     1
 62
    18
420
        0
176
     1
 90
       50
176
     1
 90
        3
176
     1
 62
     5
420
      255
176
     1
290
     0
176
     1
 90
       50
176
     1
 90
       50
176
     1
 90
       50
176
     1
290
     0
176
     1
 90
       50
176
     1
 62
   256
176
     0
 40
1.0
176
     0
 90
        2
176
     1
  1
strokes_ogs.tif
176
     1
290
     0
176
     1
 40
1.0
176
     1
 40
1.0
176
     1
1001
ACAD
1000
AcDbSavedByObjectVersion
1070
     0
  0
VISUALSTYLE
  5
274D
102
{ACAD_REACTORS
330
1FF7
102
}
330
1FF7
100
AcDbVisualStyle
  2
Sketchy
 70
    24
177
     3
291
     0
 70
    58
 90
        1
176
     1
 90
        2
176
     1
 90
        2
176
     1
 90
        0
176
     1
 40
0.6
176
     1
 40
30.0
176
     1
 62
     7
420
 16777215
176
     1
 90
        2
176
     1
 90
        2
176
     1
 62
     7
176
     1
 62
     7
176
     1
 90
        1
176
     1
 90
        1
176
     1
 40
40.0
176
     1
 90
       11
176
     1
 62
     7
176
     1
 40
1.0
176
     1
 90
        1
176
     1
 90
        6
176
     1
 90
        2
176
     1
 62
     7
176
     1
 90
        6
176
     1
 90
        0
176
     1
 90
        0
176
     1
290
     0
176
     1
 90
        1
176
     1
 40
0.0
176
     1
 90
        0
176
     1
290
     0
176
     1
290
     1
176
     1
290
     1
176
     1
290
     0
176
     1
290
     0
176
     1
290
     0
176
     1
290
     0
176
     1
290
     0
176
     1
290
     0
176
     1
 90
       50
176
     1
 40
0.0
176
     1
 40
1.0
176
     1
 90
        0
176
     1
 62
    18
420
        0
176
     1
 90
       50
176
     1
 90
        3
176
     1
 62
     5
420
      255
176
     1
290
     0
176
     1
 90
       50
176
     1
 90
       50
176
     1
 90
       50
176
     1
290
     0
176
     1
 90
       50
176
     1
 62
   256
176
     0
 40
1.0
176
     0
 90
        2
176
     1
  1
strokes_ogs.tif
176
     1
290
     0
176
     1
 40
1.0
176
     1
 40
1.0
176
     1
1001
ACAD
1000
AcDbSavedByObjectVersion
1070
     0
  0
VISUALSTYLE
  5
2004
102
{ACAD_REACTORS
330
1FF7
102
}
330
1FF7
100
AcDbVisualStyle
  2
Thicken
 70
    13
177
     3
291
     1
 70
    58
 90
        2
176
     1
 90
        2
176
     1
 90
        0
176
     1
 90
        0
176
     1
 40
0.6
176
     1
 40
30.0
176
     1
 62
     7
420
 16777215
176
     1
 90
        1
176
     1
 90
        4
176
     1
 62
     7
176
     1
 62
   257
176
     1
 90
        1
176
     1
 90
        1
176
     1
 40
1.0
176
     1
 90
       12
176
     1
 62
     7
176
     1
 40
1.0
176
     1
 90
        1
176
     1
 90
        6
176
     1
 90
        2
176
     1
 62
     7
176
     1
 90
        5
176
     1
 90
        0
176
     1
 90
        0
176
     1
290
     0
176
     1
 90
        1
176
     1
 40
0.0
176
     1
 90
        0
176
     1
290
     0
176
     1
290
     1
176
     1
290
     1
176
     1
290
     0
176
     1
290
     0
176
     1
290
     0
176
     1
290
     0
176
     1
290
     0
176
     1
290
     0
176
     1
 90
       50
176
     1
 40
0.0
176
     1
 40
1.0
176
     1
 90
        0
176
     1
 62
    18
420
        0
176
     1
 90
       50
176
     1
 90
        3
176
     1
 62
     5
420
      255
176
     1
290
     0
176
     1
 90
       50
176
     1
 90
       50
176
     1
 90
       50
176
     1
290
     0
176
     1
 90
       50
176
     1
 62
   256
176
     0
 40
1.0
176
     0
 90
        2
176
     1
  1
strokes_ogs.tif
176
     1
290
     0
176
     1
 40
1.0
176
     1
 40
1.0
176
     1
1001
ACAD
1000
AcDbSavedByObjectVersion
1070
     0
  0
VISUALSTYLE
  5
274A
102
{ACAD_REACTORS
330
1FF7
102
}
330
1FF7
100
AcDbVisualStyle
  2
Wireframe
 70
     5
177
     3
291
     0
 70
    58
 90
        0
176
     1
 90
        2
176
     1
 90
        0
176
     1
 90
        0
176
     1
 40
0.6
176
     1
 40
30.0
176
     1
 62
     7
420
 16777215
176
     1
 90
        1
176
     1
 90
        4
176
     1
 62
     7
176
     1
 62
   257
176
     1
 90
        1
176
     1
 90
        1
176
     1
 40
1.0
176
     1
 90
        0
176
     1
 62
   257
176
     1
 40
1.0
176
     1
 90
        1
176
     1
 90
        6
176
     1
 90
        2
176
     1
 62
     7
176
     1
 90
        3
176
     1
 90
        0
176
     1
 90
        0
176
     1
290
     0
176
     1
 90
        1
176
     1
 40
0.0
176
     1
 90
        0
176
     1
290
     0
176
     1
290
     1
176
     1
290
     1
176
     1
290
     0
176
     1
290
     0
176
     1
290
     0
176
     1
290
     0
176
     1
290
     0
176
     1
290
     0
176
     1
 90
       50
176
     1
 40
0.0
176
     1
 40
1.0
176
     1
 90
        0
176
     1
 62
    18
420
        0
176
     1
 90
       50
176
     1
 90
        3
176
     1
 62
     5
420
      255
176
     1
290
     0
176
     1
 90
       50
176
     1
 90
       50
176
     1
 90
       50
176
     1
290
     0
176
     1
 90
       50
176
     1
 62
   256
176
     0
 40
1.0
176
     0
 90
        2
176
     1
  1
strokes_ogs.tif
176
     1
290
     0
176
     1
 40
1.0
176
     1
 40
1.0
176
     1
1001
ACAD
1000
AcDbSavedByObjectVersion
1070
     0
  0
VISUALSTYLE
  5
274E
102
{ACAD_REACTORS
330
1FF7
102
}
330
1FF7
100
AcDbVisualStyle
  2
X-Ray
 70
    25
177
     3
291
     0
 70
    58
 90
        2
176
     1
 90
        2
176
     1
 90
        1
176
     1
 90
        1
176
     1
 40
0.5
176
     1
 40
30.0
176
     1
 62
     7
420
 16777215
176
     1
 90
        1
176
     1
 90
        0
176
     1
 62
     7
176
     1
 62
   257
176
     1
 90
        1
176
     1
 90
        1
176
     1
 40
1.0
176
     1
 90
        8
176
     1
 62
     7
176
     1
 40
1.0
176
     1
 90
        1
176
     1
 90
        6
176
     1
 90
        2
176
     1
 62
     7
176
     1
 90
        3
176
     1
 90
        0
176
     1
 90
        0
176
     1
290
     0
176
     1
 90
       13
176
     1
 40
0.0
176
     1
 90
        0
176
     1
290
     0
176
     1
290
     1
176
     1
290
     1
176
     1
290
     0
176
     1
290
     0
176
     1
290
     0
176
     1
290
     0
176
     1
290
     0
176
     1
290
     0
176
     1
 90
       50
176
     1
 40
0.0
176
     1
 40
1.0
176
     1
 90
        0
176
     1
 62
    18
420
        0
176
     1
 90
       50
176
     1
 90
        3
176
     1
 62
     5
420
      255
176
     1
290
     0
176
     1
 90
       50
176
     1
 90
       50
176
     1
 90
       50
176
     1
290
     0
176
     1
 90
       50
176
     1
 62
   256
176
     0
 40
1.0
176
     0
 90
        2
176
     1
  1
strokes_ogs.tif
176
     1
290
     0
176
     1
 40
1.0
176
     1
 40
1.0
176
     1
1001
ACAD
1000
AcDbSavedByObjectVersion
1070
     0
  0
DICTIONARYVAR
  5
205A
102
{ACAD_REACTORS
330
149
102
}
330
149
100
DictionaryVariables
280
     0
  1
1:1
  0
DICTIONARYVAR
  5
2058
102
{ACAD_REACTORS
330
149
102
}
330
149
100
DictionaryVariables
280
     0
  1
文字列
  0
DICTIONARYVAR
  5
2057
102
{ACAD_REACTORS
330
149
102
}
330
149
100
DictionaryVariables
280
     0
  1
STANDARD
  0
DICTIONARYVAR
  5
8729
102
{ACAD_REACTORS
330
149
102
}
330
149
100
DictionaryVariables
280
     0
  1
Metric50
  0
DICTIONARYVAR
  5
872A
102
{ACAD_REACTORS
330
149
102
}
330
149
100
DictionaryVariables
280
     0
  1
Metric50
  0
DICTIONARYVAR
  5
4F0
102
{ACAD_REACTORS
330
149
102
}
330
149
100
DictionaryVariables
280
     0
  1
1
  0
DICTIONARYVAR
  5
882B
102
{ACAD_REACTORS
330
149
102
}
330
149
100
DictionaryVariables
280
     0
  1
1
  0
DICTIONARYVAR
  5
882C
102
{ACAD_REACTORS
330
149
102
}
330
149
100
DictionaryVariables
280
     0
  1
15
  0
DICTIONARYVAR
  5
205B
102
{ACAD_REACTORS
330
149
102
}
330
149
100
DictionaryVariables
280
     0
  1
0
  0
DICTIONARYVAR
  5
2D35
102
{ACAD_REACTORS
330
149
102
}
330
149
100
DictionaryVariables
280
     0
  1
0.000000
  0
DICTIONARYVAR
  5
2059
102
{ACAD_REACTORS
330
149
102
}
330
149
100
DictionaryVariables
280
     0
  1
0
  0
DICTIONARYVAR
  5
14A
102
{ACAD_REACTORS
330
149
102
}
330
149
100
DictionaryVariables
280
     0
  1
96
  0
DICTIONARY
  5
8BAE
102
{ACAD_REACTORS
330
8BAC
102
}
330
8BAC
100
AcDbDictionary
281
     1
  0
DICTIONARY
  5
8BAD
102
{ACAD_REACTORS
330
8BAC
102
}
330
8BAC
100
AcDbDictionary
281
     1
  3
3053979502832
350
8BA7
  3
3053979502848
350
8BA8
  3
3053979502864
350
8BA9
  3
3053979502880
350
8BAA
  3
3053979502896
350
8BAB
  0
DICTIONARY
  5
8BB1
330
86C9
100
AcDbDictionary
280
     1
281
     1
  3
ACAD_XREC_ROUNDTRIP
360
8BB2
  0
DICTIONARY
  5
277B
330
22
100
AcDbDictionary
280
     1
281
     1
  0
DICTIONARY
  5
2772
330
275E
100
AcDbDictionary
280
     1
281
     1
  0
DICTIONARY
  5
1FE8
330
1FE7
100
AcDbDictionary
280
     1
281
     1
  3
BUMPTILE
360
1FEA
  3
DIFFUSETILE
360
1FE9
  3
OPACITYTILE
360
1FED
  3
REFLECTIONTILE
360
1FEC
  3
REFRACTIONTILE
360
1FEE
  3
SPECULARTILE
360
1FEB
  0
DICTIONARY
  5
1FE0
330
1FDF
100
AcDbDictionary
280
     1
281
     1
  3
BUMPTILE
360
1FE2
  3
DIFFUSETILE
360
1FE1
  3
OPACITYTILE
360
1FE5
  3
REFLECTIONTILE
360
1FE4
  3
REFRACTIONTILE
360
1FE6
  3
SPECULARTILE
360
1FE3
  0
DICTIONARY
  5
1FF0
330
1FEF
100
AcDbDictionary
280
     1
281
     1
  3
BUMPTILE
360
1FF2
  3
DIFFUSETILE
360
1FF1
  3
OPACITYTILE
360
1FF5
  3
REFLECTIONTILE
360
1FF4
  3
REFRACTIONTILE
360
1FF6
  3
SPECULARTILE
360
1FF3
  0
DICTIONARY
  5
8BAF
330
86C7
100
AcDbDictionary
280
     1
281
     1
  3
ACAD_XREC_ROUNDTRIP
360
8BB0
  0
DICTIONARY
  5
2054
330
200A
100
AcDbDictionary
280
     1
281
     1
  3
ACAD_ROUNDTRIP_2008_TABLESTYLE_CELLSTYLEMAP
360
8BA5
  0
XRECORD
  5
8BA7
102
{ACAD_REACTORS
330
8BAD
102
}
330
8BAD
100
AcDbXrecord
280
     1
  1
AcDb_Thumbnail_Schema
102
{ATTRRECORD
341
8BA8
  2
AcDbDs::TreatedAsObjectData
280
     1
291
     1
102
ATTRRECORD}
102
{ATTRRECORD
341
8BA9
  2
AcDbDs::Legacy
280
     1
291
     1
102
ATTRRECORD}
  2
AcDbDs::ID
280
    10
 91
        8
102
{ATTRRECORD
341
8BAA
  2
AcDs:Indexable
280
     1
291
     1
102
ATTRRECORD}
102
{ATTRRECORD
341
8BAB
  2
AcDbDs::HandleAttribute
280
     7
282
     1
102
ATTRRECORD}
  2
Thumbnail_Data
280
    15
 91
        0
  0
XRECORD
  5
8BA8
102
{ACAD_REACTORS
330
8BAD
102
}
330
8BAD
100
AcDbXrecord
280
     1
  1
AcDbDs::TreatedAsObjectDataSchema
  2
AcDbDs::TreatedAsObjectData
280
     1
 91
        0
  0
XRECORD
  5
8BA9
102
{ACAD_REACTORS
330
8BAD
102
}
330
8BAD
100
AcDbXrecord
280
     1
  1
AcDbDs::LegacySchema
  2
AcDbDs::Legacy
280
     1
 91
        0
  0
XRECORD
  5
8BAA
102
{ACAD_REACTORS
330
8BAD
102
}
330
8BAD
100
AcDbXrecord
280
     1
  1
AcDbDs::IndexedPropertySchema
  2
AcDs:Indexable
280
     1
 91
        0
  0
XRECORD
  5
8BAB
102
{ACAD_REACTORS
330
8BAD
102
}
330
8BAD
100
AcDbXrecord
280
     1
  1
AcDbDs::HandleAttributeSchema
  2
AcDbDs::HandleAttribute
280
     7
 91
        1
284
     1
  0
XRECORD
  5
8BB2
102
{ACAD_REACTORS
330
8BB1
102
}
330
8BB1
100
AcDbXrecord
280
     1
102
DISPLAYNAME
  1
Metric50
102
FLAGS
 90
        0
  0
XRECORD
  5
1FEA
102
{ACAD_REACTORS
330
1FE8
102
}
330
1FE8
100
AcDbXrecord
280
     1
270
     1
271
     1
  0
XRECORD
  5
1FE9
102
{ACAD_REACTORS
330
1FE8
102
}
330
1FE8
100
AcDbXrecord
280
     1
270
     1
271
     1
  0
XRECORD
  5
1FED
102
{ACAD_REACTORS
330
1FE8
102
}
330
1FE8
100
AcDbXrecord
280
     1
270
     1
271
     1
  0
XRECORD
  5
1FEC
102
{ACAD_REACTORS
330
1FE8
102
}
330
1FE8
100
AcDbXrecord
280
     1
270
     1
271
     1
  0
XRECORD
  5
1FEE
102
{ACAD_REACTORS
330
1FE8
102
}
330
1FE8
100
AcDbXrecord
280
     1
270
     1
271
     1
  0
XRECORD
  5
1FEB
102
{ACAD_REACTORS
330
1FE8
102
}
330
1FE8
100
AcDbXrecord
280
     1
270
     1
271
     1
  0
XRECORD
  5
1FE2
102
{ACAD_REACTORS
330
1FE0
102
}
330
1FE0
100
AcDbXrecord
280
     1
270
     1
271
     1
  0
XRECORD
  5
1FE1
102
{ACAD_REACTORS
330
1FE0
102
}
330
1FE0
100
AcDbXrecord
280
     1
270
     1
271
     1
  0
XRECORD
  5
1FE5
102
{ACAD_REACTORS
330
1FE0
102
}
330
1FE0
100
AcDbXrecord
280
     1
270
     1
271
     1
  0
XRECORD
  5
1FE4
102
{ACAD_REACTORS
330
1FE0
102
}
330
1FE0
100
AcDbXrecord
280
     1
270
     1
271
     1
  0
XRECORD
  5
1FE6
102
{ACAD_REACTORS
330
1FE0
102
}
330
1FE0
100
AcDbXrecord
280
     1
270
     1
271
     1
  0
XRECORD
  5
1FE3
102
{ACAD_REACTORS
330
1FE0
102
}
330
1FE0
100
AcDbXrecord
280
     1
270
     1
271
     1
  0
XRECORD
  5
1FF2
102
{ACAD_REACTORS
330
1FF0
102
}
330
1FF0
100
AcDbXrecord
280
     1
270
     1
271
     1
  0
XRECORD
  5
1FF1
102
{ACAD_REACTORS
330
1FF0
102
}
330
1FF0
100
AcDbXrecord
280
     1
270
     1
271
     1
  0
XRECORD
  5
1FF5
102
{ACAD_REACTORS
330
1FF0
102
}
330
1FF0
100
AcDbXrecord
280
     1
270
     1
271
     1
  0
XRECORD
  5
1FF4
102
{ACAD_REACTORS
330
1FF0
102
}
330
1FF0
100
AcDbXrecord
280
     1
270
     1
271
     1
  0
XRECORD
  5
1FF6
102
{ACAD_REACTORS
330
1FF0
102
}
330
1FF0
100
AcDbXrecord
280
     1
270
     1
271
     1
  0
XRECORD
  5
1FF3
102
{ACAD_REACTORS
330
1FF0
102
}
330
1FF0
100
AcDbXrecord
280
     1
270
     1
271
     1
  0
XRECORD
  5
8BB0
102
{ACAD_REACTORS
330
8BAF
102
}
330
8BAF
100
AcDbXrecord
280
     1
102
DISPLAYNAME
  1
Metric50
102
FLAGS
 90
        0
  0
CELLSTYLEMAP
  5
8BA5
102
{ACAD_REACTORS
330
2054
102
}
330
2054
100
AcDbCellStyleMap
 90
        3
300
CELLSTYLE
  1
TABLEFORMAT_BEGIN
 90
        5
170
     1
 91
        0
 92
    32768
 62
   257
 93
        1
300
CONTENTFORMAT
  1
CONTENTFORMAT_BEGIN
 90
        0
 91
        0
 92
      512
 93
        0
300

 40
0.0
140
1.0
 94
        5
 62
     0
340
11
144
6.0
309
CONTENTFORMAT_END
171
     1
301
MARGIN
  1
CELLMARGIN_BEGIN
 40
1.5
 40
1.5
 40
1.5
 40
1.5
 40
4.5
 40
4.5
309
CELLMARGIN_END
 94
        6
 95
        1
302
GRIDFORMAT
  1
GRIDFORMAT_BEGIN
 90
        0
 91
        1
 62
     0
 92
       -2
340
0
 93
        0
 40
1.125
309
GRIDFORMAT_END
 95
        2
302
GRIDFORMAT
  1
GRIDFORMAT_BEGIN
 90
        0
 91
        1
 62
     0
 92
       -2
340
0
 93
        0
 40
1.125
309
GRIDFORMAT_END
 95
        4
302
GRIDFORMAT
  1
GRIDFORMAT_BEGIN
 90
        0
 91
        1
 62
     0
 92
       -2
340
0
 93
        0
 40
1.125
309
GRIDFORMAT_END
 95
        8
302
GRIDFORMAT
  1
GRIDFORMAT_BEGIN
 90
        0
 91
        1
 62
     0
 92
       -2
340
0
 93
        0
 40
1.125
309
GRIDFORMAT_END
 95
       16
302
GRIDFORMAT
  1
GRIDFORMAT_BEGIN
 90
        0
 91
        1
 62
     0
 92
       -2
340
0
 93
        0
 40
1.125
309
GRIDFORMAT_END
 95
       32
302
GRIDFORMAT
  1
GRIDFORMAT_BEGIN
 90
        0
 91
        1
 62
     0
 92
       -2
340
0
 93
        0
 40
1.125
309
GRIDFORMAT_END
309
TABLEFORMAT_END
  1
CELLSTYLE_BEGIN
 90
        1
 91
        1
300
_TITLE
309
CELLSTYLE_END
300
CELLSTYLE
  1
TABLEFORMAT_BEGIN
 90
        5
170
     1
 91
        0
 92
        0
 62
   257
 93
        1
300
CONTENTFORMAT
  1
CONTENTFORMAT_BEGIN
 90
        0
 91
        0
 92
      512
 93
        0
300

 40
0.0
140
1.0
 94
        5
 62
     0
340
11
144
4.5
309
CONTENTFORMAT_END
171
     1
301
MARGIN
  1
CELLMARGIN_BEGIN
 40
1.5
 40
1.5
 40
1.5
 40
1.5
 40
4.5
 40
4.5
309
CELLMARGIN_END
 94
        6
 95
        1
302
GRIDFORMAT
  1
GRIDFORMAT_BEGIN
 90
        0
 91
        1
 62
     0
 92
       -2
340
0
 93
        0
 40
1.125
309
GRIDFORMAT_END
 95
        2
302
GRIDFORMAT
  1
GRIDFORMAT_BEGIN
 90
        0
 91
        1
 62
     0
 92
       -2
340
0
 93
        0
 40
1.125
309
GRIDFORMAT_END
 95
        4
302
GRIDFORMAT
  1
GRIDFORMAT_BEGIN
 90
        0
 91
        1
 62
     0
 92
       -2
340
0
 93
        0
 40
1.125
309
GRIDFORMAT_END
 95
        8
302
GRIDFORMAT
  1
GRIDFORMAT_BEGIN
 90
        0
 91
        1
 62
     0
 92
       -2
340
0
 93
        0
 40
1.125
309
GRIDFORMAT_END
 95
       16
302
GRIDFORMAT
  1
GRIDFORMAT_BEGIN
 90
        0
 91
        1
 62
     0
 92
       -2
340
0
 93
        0
 40
1.125
309
GRIDFORMAT_END
 95
       32
302
GRIDFORMAT
  1
GRIDFORMAT_BEGIN
 90
        0
 91
        1
 62
     0
 92
       -2
340
0
 93
        0
 40
1.125
309
GRIDFORMAT_END
309
TABLEFORMAT_END
  1
CELLSTYLE_BEGIN
 90
        2
 91
        1
300
_HEADER
309
CELLSTYLE_END
300
CELLSTYLE
  1
TABLEFORMAT_BEGIN
 90
        5
170
     1
 91
        0
 92
        0
 62
   257
 93
        1
300
CONTENTFORMAT
  1
CONTENTFORMAT_BEGIN
 90
        0
 91
        0
 92
      512
 93
        0
300

 40
0.0
140
1.0
 94
        2
 62
     0
340
11
144
4.5
309
CONTENTFORMAT_END
171
     1
301
MARGIN
  1
CELLMARGIN_BEGIN
 40
1.5
 40
1.5
 40
1.5
 40
1.5
 40
4.5
 40
4.5
309
CELLMARGIN_END
 94
        6
 95
        1
302
GRIDFORMAT
  1
GRIDFORMAT_BEGIN
 90
        0
 91
        1
 62
     0
 92
       -2
340
0
 93
        0
 40
1.125
309
GRIDFORMAT_END
 95
        2
302
GRIDFORMAT
  1
GRIDFORMAT_BEGIN
 90
        0
 91
        1
 62
     0
 92
       -2
340
0
 93
        0
 40
1.125
309
GRIDFORMAT_END
 95
        4
302
GRIDFORMAT
  1
GRIDFORMAT_BEGIN
 90
        0
 91
        1
 62
     0
 92
       -2
340
0
 93
        0
 40
1.125
309
GRIDFORMAT_END
 95
        8
302
GRIDFORMAT
  1
GRIDFORMAT_BEGIN
 90
        0
 91
        1
 62
     0
 92
       -2
340
0
 93
        0
 40
1.125
309
GRIDFORMAT_END
 95
       16
302
GRIDFORMAT
  1
GRIDFORMAT_BEGIN
 90
        0
 91
        1
 62
     0
 92
       -2
340
0
 93
        0
 40
1.125
309
GRIDFORMAT_END
 95
       32
302
GRIDFORMAT
  1
GRIDFORMAT_BEGIN
 90
        0
 91
        1
 62
     0
 92
       -2
340
0
 93
        0
 40
1.125
309
GRIDFORMAT_END
309
TABLEFORMAT_END
  1
CELLSTYLE_BEGIN
 90
        3
 91
        2
300
_DATA
309
CELLSTYLE_END
  0
ENDSEC
  0
SECTION
  2
ACDSDATA
 70
     2
 71
     8
  0
ACDSSCHEMA
 90
        0
  1
AcDb_Thumbnail_Schema
  2
AcDbDs::ID
280
    10
 91
        8
  2
Thumbnail_Data
280
    15
 91
        0
101
ACDSRECORD
 95
        0
 90
        1
  2
AcDbDs::TreatedAsObjectData
280
     1
291
     1
101
ACDSRECORD
 95
        0
 90
        2
  2
AcDbDs::Legacy
280
     1
291
     1
101
ACDSRECORD
  1
AcDbDs::ID
 90
        3
  2
AcDs:Indexable
280
     1
291
     1
101
ACDSRECORD
  1
AcDbDs::ID
 90
        4
  2
AcDbDs::HandleAttribute
280
     7
282
     1
  0
ACDSSCHEMA
 90
        1
  1
AcDbDs::TreatedAsObjectDataSchema
  2
AcDbDs::TreatedAsObjectData
280
     1
 91
        0
  0
ACDSSCHEMA
 90
        2
  1
AcDbDs::LegacySchema
  2
AcDbDs::Legacy
280
     1
 91
        0
  0
ACDSSCHEMA
 90
        3
  1
AcDbDs::IndexedPropertySchema
  2
AcDs:Indexable
280
     1
 91
        0
  0
ACDSSCHEMA
 90
        4
  1
AcDbDs::HandleAttributeSchema
  2
AcDbDs::HandleAttribute
280
     7
 91
        1
284
     1
  0
ACDSRECORD
 90
        0
  2
AcDbDs::ID
280
    10
320
22
  2
Thumbnail_Data
280
    15
 94
     1605
310
89504E470D0A1A0A0000000D49484452000001000000007F080300000037AFECF400000300504C544500264CFFFFFF00264C0000000000000000000000000000000000000000000000000000330000660000990000CC0000FF0033000033330033660033990033CC0033FF0066000066330066660066990066CC0066FF0099
310
000099330099660099990099CC0099FF00CC0000CC3300CC6600CC9900CCCC00CCFF00FF0000FF3300FF6600FF9900FFCC00FFFF3300003300333300663300993300CC3300FF3333003333333333663333993333CC3333FF3366003366333366663366993366CC3366FF3399003399333399663399993399CC3399FF33CC00
310
33CC3333CC6633CC9933CCCC33CCFF33FF0033FF3333FF6633FF9933FFCC33FFFF6600006600336600666600996600CC6600FF6633006633336633666633996633CC6633FF6666006666336666666666996666CC6666FF6699006699336699666699996699CC6699FF66CC0066CC3366CC6666CC9966CCCC66CCFF66FF0066
310
FF3366FF6666FF9966FFCC66FFFF9900009900339900669900999900CC9900FF9933009933339933669933999933CC9933FF9966009966339966669966999966CC9966FF9999009999339999669999999999CC9999FF99CC0099CC3399CC6699CC9999CCCC99CCFF99FF0099FF3399FF6699FF9999FFCC99FFFFCC0000CC00
310
33CC0066CC0099CC00CCCC00FFCC3300CC3333CC3366CC3399CC33CCCC33FFCC6600CC6633CC6666CC6699CC66CCCC66FFCC9900CC9933CC9966CC9999CC99CCCC99FFCCCC00CCCC33CCCC66CCCC99CCCCCCCCCCFFCCFF00CCFF33CCFF66CCFF99CCFFCCCCFFFFFF0000FF0033FF0066FF0099FF00CCFF00FFFF3300FF3333
310
FF3366FF3399FF33CCFF33FFFF6600FF6633FF6666FF6699FF66CCFF66FFFF9900FF9933FF9966FF9999FF99CCFF99FFFFCC00FFCC33FFCC66FFCC99FFCCCCFFCCFFFFFF00FFFF33FFFF66FFFF99FFFFCCFFFFFF0000000D0D0D1A1A1A2828283535354343435050505D5D5D6B6B6B787878868686939393A1A1A1AEAEAEBB
310
BBBBC9C9C9D6D6D6E4E4E4F1F1F1FFFFFF0000000000000000000000000000000000000000000000000000000000004E606629000002054944415478DAEDD75B96C220104551E63F284652D3E0BF2331847A90A0ADCBD7D91F1AD3A2A94B81E99400000000000000000000000000000000000000008F534A591EA51DCD8EA8
310
43E607E9374B7B5D5E1F40BD0CA9D7526E18B10E991ED48F6C632FAFDFA103BA6AE647B422CAADDFD58F7D720072DAF365BFA8C1D56C67258523462584DD5EBCA74EECF2E5C177F43D9FB60EBE2EE883B695D6B3BAB2C112F0DD9EBAD522E970F0E33A3B0AD9AEC2B3005CC7CF051075FBF302908900C4FFC50750DC16EF9B
310
D60550D432190CFB5F00D72487AB4DDCEFD15E4631BF74FA5A6D00C96EF12EBF2080A0AD7CAD772D81ADF0C3ED26E9A9161F40EA27E13880BE03D4AC1D05A03B6030D9D301886DE4140550E7DD6CADEB54CB3ECFA203F23D1F0610B7ED4900E7DD3E1980AEB4FB38D1EF2EA9DF945DA5A6034C971F2E81B8DC9325E0EABA23
310
80DAED699FCBBEF55D0045DFBE7D7600D2ED9B492DFA56780BC06C0A3680EDC33F2A806DF16EE5AC155FEB3401747724AAD44F0EA0ED5EF5C6AD05600AFFE60096CD3C15990C40FDE7FA1D01ACB39F2FB39B6B2FE4AC36C16C9EEB41FFDBAF6ED4F7ADD19EDEEF6DCCEFD5F8D5E499F86770F2E41240CEEAE1FA689E96E776
310
B0A5B71F0D0FF7E3FEBC7F99CD5FEDBB8313C1999483DB9AE06DFEEB5E27BFD1B5BCA8FC9F8EE0E703000000000000000000000000000000000000008047FB038A61173004E169A70000000049454E44AE42608204C727B414877E0D8ECBF3BF0BE3507EDA4E30FF67632C9E478AB662B36E1EE903127CBED9C97F3D9762D1
310
9AD69E4952350EF61E828B67927E5BACF6DD7A26E93E301F5B9176BE1FACEF2FE277B4218C098739EB30E71E623EBF867CB60D21E4E7E6EB537EFB1762E8CFCECFA650B78D5FAC2A2A745E38CF2B869D2B365F0E84B8BE363CFB3F773CCC09648B8BE53CA47255F5B1D1D06869B6B536AB8EBEB9F9CA8A8D759BAB37BE7C75
310
7FBB77BF12A0084F0728C233F14D110AF1F5FA9BC8E3540D0AF0D508A71445712E450000000000000000000000000000000000000000000000002EED1FCDD295DC37020EE00000000049454E44AE426082
  0
ACDSRECORD
 90
        0
  2
AcDbDs::ID
280
    10
320
275E
  2
Thumbnail_Data
280
    15
 94
     1141
310
89504E470D0A1A0A0000000D4948445200000100000000B5080300000087DCD12600000300504C5445D6D6D6FFFFFFD6D6D60000000000000000000000000000000000000000000000000000330000660000990000CC0000FF0033000033330033660033990033CC0033FF0066000066330066660066990066CC0066FF0099
310
000099330099660099990099CC0099FF00CC0000CC3300CC6600CC9900CCCC00CCFF00FF0000FF3300FF6600FF9900FFCC00FFFF3300003300333300663300993300CC3300FF3333003333333333663333993333CC3333FF3366003366333366663366993366CC3366FF3399003399333399663399993399CC3399FF33CC00
310
33CC3333CC6633CC9933CCCC33CCFF33FF0033FF3333FF6633FF9933FFCC33FFFF6600006600336600666600996600CC6600FF6633006633336633666633996633CC6633FF6666006666336666666666996666CC6666FF6699006699336699666699996699CC6699FF66CC0066CC3366CC6666CC9966CCCC66CCFF66FF0066
310
FF3366FF6666FF9966FFCC66FFFF9900009900339900669900999900CC9900FF9933009933339933669933999933CC9933FF9966009966339966669966999966CC9966FF9999009999339999669999999999CC9999FF99CC0099CC3399CC6699CC9999CCCC99CCFF99FF0099FF3399FF6699FF9999FFCC99FFFFCC0000CC00
310
33CC0066CC0099CC00CCCC00FFCC3300CC3333CC3366CC3399CC33CCCC33FFCC6600CC6633CC6666CC6699CC66CCCC66FFCC9900CC9933CC9966CC9999CC99CCCC99FFCCCC00CCCC33CCCC66CCCC99CCCCCCCCCCFFCCFF00CCFF33CCFF66CCFF99CCFFCCCCFFFFFF0000FF0033FF0066FF0099FF00CCFF00FFFF3300FF3333
310
FF3366FF3399FF33CCFF33FFFF6600FF6633FF6666FF6699FF66CCFF66FFFF9900FF9933FF9966FF9999FF99CCFF99FFFFCC00FFCC33FFCC66FFCC99FFCCCCFFCCFFFFFF00FFFF33FFFF66FFFF99FFFFCCFFFFFF0000000D0D0D1A1A1A2828283535354343435050505D5D5D6B6B6B787878868686939393A1A1A1AEAEAEBB
310
BBBBC9C9C9D6D6D6E4E4E4F1F1F1FFFFFF0000000000000000000000000000000000000000000000000000000000008A60A2FA000001304944415478DAEDD5B10D84500C4441F75FA6C32F1781C597288164C701BAF446ECA3E644DFD454F4010000E0FEE8BDBCE707D0E96F0080C4FFDE00C2BF0200441080080210410022
310
0840040188A0AF8008023001110460022208C0044410800988200013104100262082004C400401988008023001110460022208C0044410800988200013104100262082004C400401988008023001110460022208C0044410800988200013104100262082004C400401988008023001110460022208C0044410800988200013
310
104100262082004C400401988008023001110460022208C0044410800988200013104100262082004C400401988008023001110460022208C0044410800988200013104100262082004C4004019880080230011104F0E704F6F29EE96F000000005E80137D0B107E0FA422EFD473E21CA20000000049454E44AE426082
  0
ENDSEC
  0
EOF
