  0
SECTION
  2
HEADER
  9
$ACADVER
  1
AC1027
  9
$ACADMAINTVER
 70
   125
  9
$DWGCODEPAGE
  3
ANSI_932
  9
$LASTSAVEDBY
  1
TRE7
  9
$REQUIREDVERSIONS
160
                 0
  9
$INSBASE
 10
0.0
 20
0.0
 30
0.0
  9
$EXTMIN
 10
-52.54808429387685
 20
-44.17054269343975
 30
-0.0000000000112498
  9
$EXTMAX
 10
1079.600907785911
 20
208.8054188173951
 30
0.0000000000002956
  9
$LIMMIN
 10
0.0
 20
0.0
  9
$LIMMAX
 10
297.0
 20
210.0
  9
$ORTHOMODE
 70
     0
  9
$REGENMODE
 70
     1
  9
$FILLMODE
 70
     1
  9
$QTEXTMODE
 70
     0
  9
$MIRRTEXT
 70
     1
  9
$LTSCALE
 40
0.5
  9
$ATTMODE
 70
     1
  9
$TEXTSIZE
 40
2.5
  9
$TRACEWID
 40
1.0
  9
$TEXTSTYLE
  7
ＭＳ Ｐゴシック
  9
$CLAYER
  8
0
  9
$CELTYPE
  6
ByLayer
  9
$CECOLOR
 62
   256
  9
$CELTSCALE
 40
0.5
  9
$DISPSILH
 70
     0
  9
$DIMSCALE
 40
0.0
  9
$DIMASZ
 40
2.5
  9
$DIMEXO
 40
0.5
  9
$DIMDLI
 40
2.0
  9
$DIMRND
 40
0.0
  9
$DIMDLE
 40
0.0
  9
$DIMEXE
 40
1.25
  9
$DIMTP
 40
0.0
  9
$DIMTM
 40
0.000000001
  9
$DIMTXT
 40
2.5
  9
$DIMCEN
 40
0.0
  9
$DIMTSZ
 40
0.0
  9
$DIMTOL
 70
     0
  9
$DIMLIM
 70
     0
  9
$DIMTIH
 70
     0
  9
$DIMTOH
 70
     0
  9
$DIMSE1
 70
     0
  9
$DIMSE2
 70
     0
  9
$DIMTAD
 70
     1
  9
$DIMZIN
 70
     8
  9
$DIMBLK
  1

  9
$DIMASO
 70
     1
  9
$DIMSHO
 70
     1
  9
$DIMPOST
  1

  9
$DIMAPOST
  1

  9
$DIMALT
 70
     0
  9
$DIMALTD
 70
     3
  9
$DIMALTF
 40
0.03937007874016
  9
$DIMLFAC
 40
1.0
  9
$DIMTOFL
 70
     1
  9
$DIMTVP
 40
0.0
  9
$DIMTIX
 70
     0
  9
$DIMSOXD
 70
     0
  9
$DIMSAH
 70
     0
  9
$DIMBLK1
  1

  9
$DIMBLK2
  1

  9
$DIMSTYLE
  2
1： 1
  9
$DIMCLRD
 70
     0
  9
$DIMCLRE
 70
     0
  9
$DIMCLRT
 70
     0
  9
$DIMTFAC
 40
0.75
  9
$DIMGAP
 40
0.5
  9
$DIMJUST
 70
     0
  9
$DIMSD1
 70
     0
  9
$DIMSD2
 70
     0
  9
$DIMTOLJ
 70
     0
  9
$DIMTZIN
 70
     8
  9
$DIMALTZ
 70
     0
  9
$DIMALTTZ
 70
     0
  9
$DIMUPT
 70
     0
  9
$DIMDEC
 70
     3
  9
$DIMTDEC
 70
     3
  9
$DIMALTU
 70
     2
  9
$DIMALTTD
 70
     3
  9
$DIMTXSTY
  7
masaru
  9
$DIMAUNIT
 70
     0
  9
$DIMADEC
 70
     3
  9
$DIMALTRND
 40
0.0
  9
$DIMAZIN
 70
     2
  9
$DIMDSEP
 70
    46
  9
$DIMATFIT
 70
     3
  9
$DIMFRAC
 70
     0
  9
$DIMLDRBLK
  1

  9
$DIMLUNIT
 70
     2
  9
$DIMLWD
 70
    -2
  9
$DIMLWE
 70
    -2
  9
$DIMTMOVE
 70
     0
  9
$DIMFXL
 40
1.0
  9
$DIMFXLON
 70
     0
  9
$DIMJOGANG
 40
0.7853981633974483
  9
$DIMTFILL
 70
     0
  9
$DIMTFILLCLR
 70
     0
  9
$DIMARCSYM
 70
     0
  9
$DIMLTYPE
  6

  9
$DIMLTEX1
  6

  9
$DIMLTEX2
  6

  9
$DIMTXTDIRECTION
 70
     0
  9
$LUNITS
 70
     2
  9
$LUPREC
 70
     3
  9
$SKETCHINC
 40
1.0
  9
$FILLETRAD
 40
0.2
  9
$AUNITS
 70
     0
  9
$AUPREC
 70
     2
  9
$MENU
  1
.
  9
$ELEVATION
 40
0.0
  9
$PELEVATION
 40
0.0
  9
$THICKNESS
 40
0.0
  9
$LIMCHECK
 70
     0
  9
$CHAMFERA
 40
10.0
  9
$CHAMFERB
 40
10.0
  9
$CHAMFERC
 40
20.0
  9
$CHAMFERD
 40
0.0
  9
$SKPOLY
 70
     0
  9
$TDCREATE
 40
2455916.425902778
  9
$TDUCREATE
 40
2455916.050905220
  9
$TDUPDATE
 40
2460399.387754630
  9
$TDUUPDATE
 40
2460399.012754630
  9
$TDINDWG
 40
1.2911722685
  9
$TDUSRTIMER
 40
1.2911722685
  9
$USRTIMER
 70
     1
  9
$ANGBASE
 50
0.0
  9
$ANGDIR
 70
     0
  9
$PDMODE
 70
     0
  9
$PDSIZE
 40
0.0
  9
$PLINEWID
 40
0.0
  9
$SPLFRAME
 70
     0
  9
$SPLINETYPE
 70
     6
  9
$SPLINESEGS
 70
     8
  9
$HANDSEED
  5
A9D7
  9
$SURFTAB1
 70
     6
  9
$SURFTAB2
 70
     6
  9
$SURFTYPE
 70
     6
  9
$SURFU
 70
     6
  9
$SURFV
 70
     6
  9
$UCSBASE
  2

  9
$UCSNAME
  2

  9
$UCSORG
 10
0.0
 20
0.0
 30
0.0
  9
$UCSXDIR
 10
1.0
 20
0.0
 30
0.0
  9
$UCSYDIR
 10
0.0
 20
1.0
 30
0.0
  9
$UCSORTHOREF
  2

  9
$UCSORTHOVIEW
 70
     0
  9
$UCSORGTOP
 10
0.0
 20
0.0
 30
0.0
  9
$UCSORGBOTTOM
 10
0.0
 20
0.0
 30
0.0
  9
$UCSORGLEFT
 10
0.0
 20
0.0
 30
0.0
  9
$UCSORGRIGHT
 10
0.0
 20
0.0
 30
0.0
  9
$UCSORGFRONT
 10
0.0
 20
0.0
 30
0.0
  9
$UCSORGBACK
 10
0.0
 20
0.0
 30
0.0
  9
$PUCSBASE
  2

  9
$PUCSNAME
  2

  9
$PUCSORG
 10
0.0
 20
0.0
 30
0.0
  9
$PUCSXDIR
 10
1.0
 20
0.0
 30
0.0
  9
$PUCSYDIR
 10
0.0
 20
1.0
 30
0.0
  9
$PUCSORTHOREF
  2

  9
$PUCSORTHOVIEW
 70
     0
  9
$PUCSORGTOP
 10
0.0
 20
0.0
 30
0.0
  9
$PUCSORGBOTTOM
 10
0.0
 20
0.0
 30
0.0
  9
$PUCSORGLEFT
 10
0.0
 20
0.0
 30
0.0
  9
$PUCSORGRIGHT
 10
0.0
 20
0.0
 30
0.0
  9
$PUCSORGFRONT
 10
0.0
 20
0.0
 30
0.0
  9
$PUCSORGBACK
 10
0.0
 20
0.0
 30
0.0
  9
$USERI1
 70
     0
  9
$USERI2
 70
     0
  9
$USERI3
 70
     0
  9
$USERI4
 70
     0
  9
$USERI5
 70
     0
  9
$USERR1
 40
0.0
  9
$USERR2
 40
0.0
  9
$USERR3
 40
0.0
  9
$USERR4
 40
0.0
  9
$USERR5
 40
0.0
  9
$WORLDVIEW
 70
     1
  9
$SHADEDGE
 70
     3
  9
$SHADEDIF
 70
    70
  9
$TILEMODE
 70
     1
  9
$MAXACTVP
 70
    64
  9
$PINSBASE
 10
0.0
 20
0.0
 30
0.0
  9
$PLIMCHECK
 70
     0
  9
$PEXTMIN
 10
28.51784982681273
 20
19.82258291244505
 30
0.0
  9
$PEXTMAX
 10
256.6606484413147
 20
178.4032462120056
 30
0.0
  9
$PLIMMIN
 10
-5.873748779296875
 20
-5.873749732971191
  9
$PLIMMAX
 10
291.05224609375
 20
204.0995779037475
  9
$UNITMODE
 70
     0
  9
$VISRETAIN
 70
     1
  9
$PLINEGEN
 70
     0
  9
$PSLTSCALE
 70
     1
  9
$TREEDEPTH
 70
  3020
  9
$CMLSTYLE
  2
Standard
  9
$CMLJUST
 70
     0
  9
$CMLSCALE
 40
20.0
  9
$PROXYGRAPHICS
 70
     1
  9
$MEASUREMENT
 70
     1
  9
$CELWEIGHT
370
    -1
  9
$ENDCAPS
280
     0
  9
$JOINSTYLE
280
     0
  9
$LWDISPLAY
290
     1
  9
$INSUNITS
 70
     4
  9
$HYPERLINKBASE
  1

  9
$STYLESHEET
  1

  9
$XEDIT
290
     1
  9
$CEPSNTYPE
380
     0
  9
$PSTYLEMODE
290
     1
  9
$FINGERPRINTGUID
  2
{4457A5FA-7527-439F-9471-9ADBBD3A5D0A}
  9
$VERSIONGUID
  2
{15CD0E56-AC2C-CD48-898E-884A520DA0BB}
  9
$EXTNAMES
290
     1
  9
$PSVPSCALE
 40
1.0
  9
$OLESTARTUP
290
     0
  9
$SORTENTS
280
    96
  9
$INDEXCTL
280
     0
  9
$HIDETEXT
280
     0
  9
$XCLIPFRAME
280
     2
  9
$HALOGAP
280
     0
  9
$OBSCOLOR
 70
   257
  9
$OBSLTYPE
280
     0
  9
$INTERSECTIONDISPLAY
280
     0
  9
$INTERSECTIONCOLOR
 70
   257
  9
$DIMASSOC
280
     1
  9
$PROJECTNAME
  1

  9
$CAMERADISPLAY
290
     0
  9
$LENSLENGTH
 40
50.0
  9
$CAMERAHEIGHT
 40
0.0
  9
$STEPSPERSEC
 40
2.0
  9
$STEPSIZE
 40
6.0
  9
$3DDWFPREC
 40
2.0
  9
$PSOLWIDTH
 40
0.25
  9
$PSOLHEIGHT
 40
4.0
  9
$LOFTANG1
 40
1.570796326794896
  9
$LOFTANG2
 40
1.570796326794896
  9
$LOFTMAG1
 40
0.0
  9
$LOFTMAG2
 40
0.0
  9
$LOFTPARAM
 70
     7
  9
$LOFTNORMALS
280
     1
  9
$LATITUDE
 40
37.795
  9
$LONGITUDE
 40
-122.394
  9
$NORTHDIRECTION
 40
0.0
  9
$TIMEZONE
 70
 -8000
  9
$LIGHTGLYPHDISPLAY
280
     1
  9
$TILEMODELIGHTSYNCH
280
     1
  9
$CMATERIAL
347
2FE9
  9
$SOLIDHIST
280
     0
  9
$SHOWHIST
280
     1
  9
$DWFFRAME
280
     2
  9
$DGNFRAME
280
     0
  9
$REALWORLDSCALE
290
     1
  9
$INTERFERECOLOR
 62
     1
  9
$INTERFEREOBJVS
345
300B
  9
$INTERFEREVPVS
346
3008
  9
$CSHADOW
280
     0
  9
$SHADOWPLANELOCATION
 40
0.0
  0
ENDSEC
  0
SECTION
  2
CLASSES
  0
CLASS
  1
ACDBDICTIONARYWDFLT
  2
AcDbDictionaryWithDefault
  3
ObjectDBX Classes
 90
        0
 91
        1
280
     0
281
     0
  0
CLASS
  1
DICTIONARYVAR
  2
AcDbDictionaryVar
  3
ObjectDBX Classes
 90
        0
 91
       13
280
     0
281
     0
  0
CLASS
  1
MATERIAL
  2
AcDbMaterial
  3
ObjectDBX Classes
 90
     1153
 91
        3
280
     0
281
     0
  0
CLASS
  1
VISUALSTYLE
  2
AcDbVisualStyle
  3
ObjectDBX Classes
 90
     4095
 91
       26
280
     0
281
     0
  0
CLASS
  1
TABLESTYLE
  2
AcDbTableStyle
  3
ObjectDBX Classes
 90
     4095
 91
        1
280
     0
281
     0
  0
CLASS
  1
SCALE
  2
AcDbScale
  3
ObjectDBX Classes
 90
     1153
 91
       33
280
     0
281
     0
  0
CLASS
  1
MLEADERSTYLE
  2
AcDbMLeaderStyle
  3
ACDB_MLEADERSTYLE_CLASS
 90
     4095
 91
        2
280
     0
281
     0
  0
CLASS
  1
CELLSTYLEMAP
  2
AcDbCellStyleMap
  3
ObjectDBX Classes
 90
     1152
 91
        2
280
     0
281
     0
  0
CLASS
  1
SORTENTSTABLE
  2
AcDbSortentsTable
  3
ObjectDBX Classes
 90
        0
 91
        1
280
     0
281
     0
  0
CLASS
  1
MULTILEADER
  2
AcDbMLeader
  3
ACDB_MLEADER_CLASS
 90
     1025
 91
        0
280
     0
281
     1
  0
CLASS
  1
ACDB_ALDIMOBJECTCONTEXTDATA_CLASS
  2
AcDbAlignedDimensionObjectContextData
  3
ObjectDBX Classes
 90
     1153
 91
        0
280
     0
281
     0
  0
CLASS
  1
NPOCOLLECTION
  2
AcDbImpNonPersistentObjectsCollection
  3
ObjectDBX Classes
 90
     1153
 91
        0
280
     0
281
     0
  0
CLASS
  1
ACDBSECTIONVIEWSTYLE
  2
AcDbSectionViewStyle
  3
ObjectDBX Classes
 90
     1025
 91
        1
280
     0
281
     0
  0
CLASS
  1
ACDBDETAILVIEWSTYLE
  2
AcDbDetailViewStyle
  3
ObjectDBX Classes
 90
     1025
 91
        1
280
     0
281
     0
  0
ENDSEC
  0
SECTION
  2
TABLES
  0
TABLE
  2
VPORT
  5
8
102
{ACAD_XDICTIONARY
360
5460
102
}
330
0
100
AcDbSymbolTable
 70
     1
1001
ACAD
1000
DbSaveVer
1071
      252
  0
VPORT
  5
2FD9
330
8
100
AcDbSymbolTableRecord
100
AcDbViewportTableRecord
  2
*Active
 70
     0
 10
0.0
 20
0.0
 11
1.0
 21
1.0
 12
513.5264117460173
 22
82.31743806197767
 13
0.0
 23
0.0
 14
10.0
 24
10.0
 15
10.0
 25
10.0
 16
0.0
 26
0.0
 36
1.0
 17
0.0
 27
0.0
 37
0.0
 40
566.7515414550194
 41
2.004848484848484
 42
50.0
 43
0.0
 44
0.0
 50
0.0
 51
0.0
 71
     0
 72
   100
 73
     1
 74
     3
 75
     0
 76
     0
 77
     0
 78
     0
281
     0
 65
     1
110
0.0
120
0.0
130
0.0
111
1.0
121
0.0
131
0.0
112
0.0
122
1.0
132
0.0
 79
     0
146
0.0
348
3007
 60
     3
 61
     5
292
     1
282
     1
141
0.0
142
0.0
 63
   250
421
  3355443
1001
ACAD_NAV_VCDISPLAY
1070
     3
  0
ENDTAB
  0
TABLE
  2
LTYPE
  5
5
330
0
100
AcDbSymbolTable
 70
     2
  0
LTYPE
  5
14
330
5
100
AcDbSymbolTableRecord
100
AcDbLinetypeTableRecord
  2
ByBlock
 70
     0
  3

 72
    65
 73
     0
 40
0.0
  0
LTYPE
  5
15
330
5
100
AcDbSymbolTableRecord
100
AcDbLinetypeTableRecord
  2
ByLayer
 70
     0
  3

 72
    65
 73
     0
 40
0.0
  0
LTYPE
  5
16
330
5
100
AcDbSymbolTableRecord
100
AcDbLinetypeTableRecord
  2
Continuous
 70
     0
  3
Solid line
 72
    65
 73
     0
 40
0.0
  0
LTYPE
  5
6A3B
330
5
100
AcDbSymbolTableRecord
100
AcDbLinetypeTableRecord
  2
CENTER2
 70
     0
  3
Center (.5x) ___ _ ___ _ ___ _ ___ _ ___ _ ___
 72
    65
 73
     4
 40
28.575
 49
19.05
 74
     0
 49
-3.174999999999998
 74
     0
 49
3.174999999999998
 74
     0
 49
-3.174999999999998
 74
     0
  0
ENDTAB
  0
TABLE
  2
LAYER
  5
2
102
{ACAD_XDICTIONARY
360
307A
102
}
330
0
100
AcDbSymbolTable
 70
     2
  0
LAYER
  5
10
102
{ACAD_XDICTIONARY
360
3089
102
}
330
2
100
AcDbSymbolTableRecord
100
AcDbLayerTableRecord
  2
0
 70
     0
 62
     7
  6
Continuous
370
    -3
390
F
347
2FF9
348
0
  0
LAYER
  5
1C9
330
2
100
AcDbSymbolTableRecord
100
AcDbLayerTableRecord
  2
Defpoints
 70
     0
 62
     7
  6
Continuous
290
     0
370
    -3
390
F
347
2FF9
348
0
  0
ENDTAB
  0
TABLE
  2
STYLE
  5
3
330
0
100
AcDbSymbolTable
 70
     3
  0
STYLE
  5
11
330
3
100
AcDbSymbolTableRecord
100
AcDbTextStyleTableRecord
  2
Standard
 70
     0
 40
0.0
 41
1.0
 50
0.0
 71
     0
 42
2.5
  3
romans.shx
  4
extfont2.shx
  0
STYLE
  5
DE0
330
3
100
AcDbSymbolTableRecord
100
AcDbTextStyleTableRecord
  2
masaru
 70
     0
 40
0.0
 41
1.0
 50
0.0
 71
     0
 42
2.5
  3
romans.shx
  4
extfont2.shx
  0
STYLE
  5
27DB
330
3
100
AcDbSymbolTableRecord
100
AcDbTextStyleTableRecord
  2
ＭＳ Ｐゴシック
 70
     0
 40
0.0
 41
1.0
 50
0.0
 71
     0
 42
2.5
  3

  4

1001
ACAD
1000
MS PGothic
1071
    32818
  0
ENDTAB
  0
TABLE
  2
VIEW
  5
6
330
0
100
AcDbSymbolTable
 70
     0
  0
ENDTAB
  0
TABLE
  2
UCS
  5
7
330
0
100
AcDbSymbolTable
 70
     0
  0
ENDTAB
  0
TABLE
  2
APPID
  5
9
330
0
100
AcDbSymbolTable
 70
    14
  0
APPID
  5
12
330
9
100
AcDbSymbolTableRecord
100
AcDbRegAppTableRecord
  2
ACAD
 70
     0
  0
APPID
  5
3039
330
9
100
AcDbSymbolTableRecord
100
AcDbRegAppTableRecord
  2
ACAD_MLEADERVER
 70
     0
  0
APPID
  5
3049
330
9
100
AcDbSymbolTableRecord
100
AcDbRegAppTableRecord
  2
ACAD_PSEXT
 70
     0
  0
APPID
  5
3080
330
9
100
AcDbSymbolTableRecord
100
AcDbRegAppTableRecord
  2
AcAecLayerStandard
 70
     0
  0
APPID
  5
31C2
330
9
100
AcDbSymbolTableRecord
100
AcDbRegAppTableRecord
  2
ACAD_EXEMPT_FROM_CAD_STANDARDS
 70
     0
  0
APPID
  5
36BE
330
9
100
AcDbSymbolTableRecord
100
AcDbRegAppTableRecord
  2
ACAD_DSTYLE_DIMRADIAL_EXTENSION
 70
     0
  0
APPID
  5
3A84
330
9
100
AcDbSymbolTableRecord
100
AcDbRegAppTableRecord
  2
ACAD_DSTYLE_DIMJAG
 70
     0
  0
APPID
  5
3A85
330
9
100
AcDbSymbolTableRecord
100
AcDbRegAppTableRecord
  2
ACAD_DSTYLE_DIMBREAK
 70
     0
  0
APPID
  5
3A86
330
9
100
AcDbSymbolTableRecord
100
AcDbRegAppTableRecord
  2
ACAD_DSTYLE_DIMTALN
 70
     0
  0
APPID
  5
3AAE
330
9
100
AcDbSymbolTableRecord
100
AcDbRegAppTableRecord
  2
AcadAnnotative
 70
     0
  0
APPID
  5
511E
330
9
100
AcDbSymbolTableRecord
100
AcDbRegAppTableRecord
  2
AcCmTransparency
 70
     0
  0
APPID
  5
5489
330
9
100
AcDbSymbolTableRecord
100
AcDbRegAppTableRecord
  2
AcDbAttr
 70
     0
  0
APPID
  5
5F5C
330
9
100
AcDbSymbolTableRecord
100
AcDbRegAppTableRecord
  2
ACAD_DSTYLE_DIMJOGGED_JOGANGLE_SYMBOL
 70
     0
  0
APPID
  5
A9D0
330
9
100
AcDbSymbolTableRecord
100
AcDbRegAppTableRecord
  2
ACAD_NAV_VCDISPLAY
 70
     0
  0
ENDTAB
  0
TABLE
  2
DIMSTYLE
  5
A
330
0
100
AcDbSymbolTable
 70
     1
100
AcDbDimStyleTable
 71
     1
340
E06
  0
DIMSTYLE
105
E06
330
A
100
AcDbSymbolTableRecord
100
AcDbDimStyleTableRecord
  2
1： 1
 70
     0
 40
0.0
 41
2.5
 42
0.5
 43
2.0
 44
1.25
 48
0.000000001
 73
     0
 74
     0
 77
     1
 78
     8
 79
     2
140
2.5
141
0.0
143
0.03937007874016
146
0.75
147
0.5
171
     3
172
     1
179
     3
271
     3
272
     3
274
     3
283
     0
284
     8
340
DE0
1001
ACAD_DSTYLE_DIMBREAK
1070
   391
1040
3.75
1001
AcadAnnotative
1000
AnnotativeData
1002
{
1070
     1
1070
     0
1002
}
1001
ACAD_DSTYLE_DIMJAG
1070
   388
1040
1.5
1001
ACAD_DSTYLE_DIMTALN
1070
   392
1070
     0
  0
ENDTAB
  0
TABLE
  2
BLOCK_RECORD
  5
1
330
0
100
AcDbSymbolTable
 70
     0
  0
BLOCK_RECORD
  5
1F
102
{ACAD_XDICTIONARY
360
3B4C
102
}
330
1
100
AcDbSymbolTableRecord
100
AcDbBlockTableRecord
  2
*Model_Space
340
22
 70
     0
280
     1
281
     0
  0
BLOCK_RECORD
  5
50D8
330
1
100
AcDbSymbolTableRecord
100
AcDbBlockTableRecord
  2
*Paper_Space
340
50D9
 70
     0
280
     1
281
     0
  0
ENDTAB
  0
ENDSEC
  0
SECTION
  2
BLOCKS
  0
BLOCK
  5
20
330
1F
100
AcDbEntity
  8
0
100
AcDbBlockBegin
  2
*Model_Space
 70
     0
 10
0.0
 20
0.0
 30
0.0
  3
*Model_Space
  1

  0
ENDBLK
  5
21
330
1F
100
AcDbEntity
  8
0
100
AcDbBlockEnd
  0
BLOCK
  5
50DA
330
50D8
100
AcDbEntity
 67
     1
  8
0
 48
0.5
100
AcDbBlockBegin
  2
*Paper_Space
 70
     0
 10
0.0
 20
0.0
 30
0.0
  3
*Paper_Space
  1

  0
ENDBLK
  5
50DB
330
50D8
100
AcDbEntity
 67
     1
  8
0
 48
0.5
100
AcDbBlockEnd
  0
ENDSEC
  0
SECTION
  2
ENTITIES
  0
MTEXT
  5
527A
330
1F
100
AcDbEntity
  8
0
  6
Continuous
 62
     1
 48
0.5
370
    -3
100
AcDbMText
 10
396.4999999999501
 20
-37.50000000000603
 30
0.0
 40
5.0
 41
76.10209932763703
 46
0.0
 71
     5
 72
     5
  1
ガードマンⅡ\PTブンキ
 73
     1
 44
1.0
1001
ACAD
1000
MTEXTBEGIN
1070
    73
1070
     1
1070
    44
1040
1.0
1070
    74
1070
     0
1000
MTEXTEND
1000
ACAD_MTEXT_COLUMN_INFO_BEGIN
1070
    75
1070
     2
1070
    79
1070
     0
1070
    76
1070
     1
1070
    78
1070
     0
1070
    48
1040
76.10209932763703
1070
    49
1040
12.5
1070
    50
1070
     1
1040
0.0
1000
ACAD_MTEXT_COLUMN_INFO_END
  0
LINE
  5
9351
330
1F
100
AcDbEntity
  8
0
  6
Continuous
 62
     7
 48
0.5
370
    -3
100
AcDbLine
 10
44.4999999999936
 20
97.19999999999989
 30
0.0
 11
-44.50000000000907
 21
97.19999999999989
 31
0.0
  0
LINE
  5
9356
330
1F
100
AcDbEntity
  8
0
  6
Continuous
 62
     7
 48
0.5
370
    -3
100
AcDbLine
 10
-44.50000000000907
 20
100.5000000000009
 30
0.0
 11
44.4999999999936
 21
100.5000000000002
 31
0.0
  0
LINE
  5
935E
330
1F
100
AcDbEntity
  8
0
  6
CENTER2
 62
     2
 48
0.5
370
    -3
100
AcDbLine
 10
-0.000000000007276
 20
103.5000000000004
 30
0.0
 11
-0.000000000007276
 21
22.49999999999985
 31
0.0
  0
LINE
  5
936D
330
1F
100
AcDbEntity
  8
0
  6
CENTER2
 62
     2
 48
0.5
370
    -3
100
AcDbLine
 10
0.0
 20
0.0
 30
0.0
 11
-0.0000000000035811
 21
18.49999999999988
 31
0.0
  0
LINE
  5
9393
330
1F
100
AcDbEntity
  8
0
  6
Continuous
 62
     7
 48
0.5
370
    -3
100
AcDbLine
 10
-23.30000000000649
 20
25.49999999999912
 30
0.0
 11
23.29999999999288
 21
25.50000000000072
 31
0.0
  0
ARC
  5
9394
330
1F
100
AcDbEntity
  8
0
  6
Continuous
 62
     7
 48
0.5
370
    -3
100
AcDbCircle
 10
-23.30000000000649
 20
26.19999999999917
 30
0.0
 40
0.7
100
AcDbArc
 50
180.0000000000031
 51
270.0
  0
LINE
  5
9395
330
1F
100
AcDbEntity
  8
0
  6
Continuous
 62
     7
 48
0.5
370
    -3
100
AcDbLine
 10
-24.00000000000728
 20
26.19999999999917
 30
0.0
 11
-24.00000000000728
 21
32.79999999999907
 31
0.0
  0
ARC
  5
9396
330
1F
100
AcDbEntity
  8
0
  6
Continuous
 62
     7
 48
0.5
370
    -3
100
AcDbCircle
 10
-23.30000000000749
 20
32.79999999999907
 30
0.0
 40
0.7
100
AcDbArc
 50
90.0
 51
180.0000000000031
  0
LINE
  5
9397
330
1F
100
AcDbEntity
  8
0
  6
Continuous
 62
     7
 48
0.5
370
    -3
100
AcDbLine
 10
-52.50000000000927
 20
101.2999999999981
 30
0.0
 11
-52.50000000000799
 21
54.69999999999802
 31
0.0
  0
ARC
  5
9398
330
1F
100
AcDbEntity
  8
0
  6
Continuous
 62
     7
 48
0.5
370
    -3
100
AcDbCircle
 10
-51.8000000000095
 20
101.2999999999981
 30
0.0
 40
0.7
100
AcDbArc
 50
90.0
 51
180.0000000000031
  0
LINE
  5
9399
330
1F
100
AcDbEntity
  8
0
  6
Continuous
 62
     7
 48
0.5
370
    -3
100
AcDbLine
 10
-51.80000000000766
 20
53.9999999999982
 30
0.0
 11
-45.20000000000798
 21
53.99999999999843
 31
0.0
  0
ARC
  5
939A
330
1F
100
AcDbEntity
  8
0
  6
Continuous
 62
     7
 48
0.5
370
    -3
100
AcDbCircle
 10
-51.80000000000766
 20
54.69999999999802
 30
0.0
 40
0.7
100
AcDbArc
 50
180.0000000000031
 51
270.0
  0
LINE
  5
939B
330
1F
100
AcDbEntity
  8
0
  6
Continuous
 62
     7
 48
0.5
370
    -3
100
AcDbLine
 10
-51.8000000000095
 20
101.9999999999979
 30
0.0
 11
-45.20000000000976
 21
101.9999999999982
 31
0.0
  0
ARC
  5
939C
330
1F
100
AcDbEntity
  8
0
  6
Continuous
 62
     7
 48
0.5
370
    -3
100
AcDbCircle
 10
-45.20000000000976
 20
101.2999999999984
 30
0.0
 40
0.7
100
AcDbArc
 50
0.0000000000032569
 51
90.0
  0
ARC
  5
939D
330
1F
100
AcDbEntity
  8
0
  6
Continuous
 62
     7
 48
0.5
370
    -3
100
AcDbCircle
 10
-45.20000000000798
 20
54.69999999999826
 30
0.0
 40
0.7
100
AcDbArc
 50
270.0
 51
0.0000000000032569
  0
LINE
  5
939E
330
1F
100
AcDbEntity
  8
0
  6
Continuous
 62
     7
 48
0.5
370
    -3
100
AcDbLine
 10
23.29999999999288
 20
33.50000000000072
 30
0.0
 11
-23.30000000000749
 21
33.49999999999913
 31
0.0
  0
LINE
  5
939F
330
1F
100
AcDbEntity
  8
0
  6
Continuous
 62
     7
 48
0.5
370
    -3
100
AcDbLine
 10
-44.50000000000907
 20
101.2999999999984
 30
0.0
 11
-44.50000000000815
 21
54.69999999999826
 31
0.0
  0
LINE
  5
93A0
330
1F
100
AcDbEntity
  8
0
  6
Continuous
 62
     7
 48
0.5
370
    -3
100
AcDbLine
 10
-32.50000000000728
 20
58.7999999999993
 30
0.0
 11
-44.50000000000815
 21
58.79999999999839
 31
0.0
  0
ARC
  5
93A1
330
1F
100
AcDbEntity
  8
0
  6
Continuous
 62
     7
 48
0.5
370
    -3
100
AcDbCircle
 10
-32.50000000000728
 20
45.49999999999911
 30
0.0
 40
13.3
100
AcDbArc
 50
0.0000000000032569
 51
90.0
  0
LINE
  5
93A2
330
1F
100
AcDbEntity
  8
0
  6
Continuous
 62
     7
 48
0.5
370
    -3
100
AcDbLine
 10
-32.50000000000728
 20
55.49999999999911
 30
0.0
 11
-44.50000000000815
 21
55.49999999999866
 31
0.0
  0
ARC
  5
93A3
330
1F
100
AcDbEntity
  8
0
  6
Continuous
 62
     7
 48
0.5
370
    -3
100
AcDbCircle
 10
-32.50000000000728
 20
45.49999999999911
 30
0.0
 40
10.0
100
AcDbArc
 50
0.0000000000032569
 51
90.0
  0
LINE
  5
93A4
330
1F
100
AcDbEntity
  8
0
  6
Continuous
 62
     7
 48
0.5
370
    -3
100
AcDbLine
 10
-19.20000000000709
 20
33.49999999999935
 30
0.0
 11
-19.20000000000709
 21
45.49999999999957
 31
0.0
  0
LINE
  5
93A5
330
1F
100
AcDbEntity
  8
0
  6
Continuous
 62
     7
 48
0.5
370
    -3
100
AcDbLine
 10
-22.50000000000625
 20
33.49999999999913
 30
0.0
 11
-22.50000000000728
 21
45.49999999999957
 31
0.0
  0
LINE
  5
93A6
330
1F
100
AcDbEntity
  8
0
  6
Continuous
 62
     7
 48
0.5
370
    -3
100
AcDbLine
 10
22.4999999999973
 20
3.00000000000078
 30
0.0
 11
-22.50000000000088
 21
2.999999999999203
 31
0.0
  0
LINE
  5
93A7
330
1F
100
AcDbEntity
  8
0
  6
Continuous
 62
     7
 48
0.5
370
    -3
100
AcDbLine
 10
9.999999999997328
 20
4.500000000000454
 30
0.0
 11
-10.00000000000088
 21
4.499999999999544
 31
0.0
  0
LINE
  5
93A8
330
1F
100
AcDbEntity
  8
0
  6
Continuous
 62
     7
 48
0.5
370
    -3
100
AcDbLine
 10
-12.00000000000088
 20
4.499999999999544
 30
0.0
 11
-18.90000000000049
 21
4.499999999999316
 31
0.0
  0
ARC
  5
93A9
330
1F
100
AcDbEntity
  8
0
  6
Continuous
 62
     7
 48
0.5
370
    -3
100
AcDbCircle
 10
-12.00000000000088
 20
4.999999999999544
 30
0.0
 40
0.5
100
AcDbArc
 50
270.0
 51
0.0000000000032569
  0
LINE
  5
93AA
330
1F
100
AcDbEntity
  8
0
  6
Continuous
 62
     7
 48
0.5
370
    -3
100
AcDbLine
 10
-22.50000000000088
 20
2.999999999999203
 30
0.0
 11
-22.50000000000088
 21
4.499999999999204
 31
0.0
  0
LINE
  5
93AB
330
1F
100
AcDbEntity
  8
0
  6
Continuous
 62
     7
 48
0.5
370
    -3
100
AcDbLine
 10
-10.50000000000088
 20
4.999999999999658
 30
0.0
 11
-10.50000000000088
 21
8.499999999999545
 31
0.0
  0
ARC
  5
93AC
330
1F
100
AcDbEntity
  8
0
  6
Continuous
 62
     7
 48
0.5
370
    -3
100
AcDbCircle
 10
-10.00000000000088
 20
4.999999999999544
 30
0.0
 40
0.5
100
AcDbArc
 50
180.0
 51
270.0
  0
LINE
  5
93AD
330
1F
100
AcDbEntity
  8
0
  6
Continuous
 62
     7
 48
0.5
370
    -3
100
AcDbLine
 10
-19.2000000000007
 20
4.799999999999272
 30
0.0
 11
-19.2000000000007
 21
6.008594758326238
 31
0.0
  0
ARC
  5
93AE
330
1F
100
AcDbEntity
  8
0
  6
Continuous
 62
     7
 48
0.5
370
    -3
100
AcDbCircle
 10
-18.90000000000049
 20
4.799999999999272
 30
0.0
 40
0.3
100
AcDbArc
 50
180.0000000000031
 51
270.0
  0
ARC
  5
93AF
330
1F
100
AcDbEntity
  8
0
  6
Continuous
 62
     7
 48
0.5
370
    -3
100
AcDbCircle
 10
-19.40000000000057
 20
6.008594758326238
 30
0.0
 40
0.2
100
AcDbArc
 50
0.0000000000032569
 51
119.2752542772665
  0
LINE
  5
93B0
330
1F
100
AcDbEntity
  8
0
  6
Continuous
 62
     7
 48
0.5
370
    -3
100
AcDbLine
 10
-10.50000000000088
 20
8.499999999999545
 30
0.0
 11
-11.2519395739462
 21
8.499999999999545
 31
0.0
  0
LINE
  5
93B1
330
1F
100
AcDbEntity
  8
0
  6
Continuous
 62
     7
 48
0.5
370
    -3
100
AcDbLine
 10
-11.50000000000088
 20
7.999999999999545
 30
0.0
 11
-11.50000000000088
 21
4.999999999999544
 31
0.0
  0
ARC
  5
93B2
330
1F
100
AcDbEntity
  8
0
  6
Continuous
 62
     7
 48
0.5
370
    -3
100
AcDbCircle
 10
-11.00000000000088
 20
7.999999999999545
 30
0.0
 40
0.5
100
AcDbArc
 50
90.0
 51
180.0000000000031
  0
LINE
  5
93B4
330
1F
100
AcDbEntity
  8
0
  6
Continuous
 62
     7
 48
0.5
370
    -3
100
AcDbLine
 10
-22.80000000000106
 20
4.331818181817277
 30
0.0
 11
-19.2000000000007
 21
6.34999999999934
 31
0.0
  0
LINE
  5
93B5
330
1F
100
AcDbEntity
  8
0
  6
Continuous
 62
     7
 48
0.5
370
    -3
100
AcDbLine
 10
-12.39580191441376
 20
7.187405743238798
 30
0.0
 11
-11.57752551286185
 21
4.732576538582178
 31
0.0
  0
LINE
  5
93B9
330
1F
100
AcDbEntity
  8
0
  6
Continuous
 62
     7
 48
0.5
370
    -3
100
AcDbLine
 10
-22.50000000000088
 20
2.999999999999203
 30
0.0
 11
-52.50000000000119
 21
2.999999999996574
 31
0.0
  0
LINE
  5
93BA
330
1F
100
AcDbEntity
  8
0
  6
Continuous
 62
     7
 48
0.5
370
    -3
100
AcDbLine
 10
-22.50872921308377
 20
6.208594758326058
 30
0.0
 11
-44.50000000000088
 21
6.20859475832526
 31
0.0
  0
LINE
  5
93BC
330
1F
100
AcDbEntity
  8
0
  6
Continuous
 62
     7
 48
0.5
370
    -3
100
AcDbLine
 10
-22.80000000000106
 20
2.999999999999089
 30
0.0
 11
-22.80000000000106
 21
4.375206642473813
 31
0.0
  0
ARC
  5
93BD
330
1F
100
AcDbEntity
  8
0
  6
Continuous
 62
     7
 48
0.5
370
    -3
100
AcDbCircle
 10
-22.30000000000107
 20
4.375206642473813
 30
0.0
 40
0.5
100
AcDbArc
 50
119.3791685219811
 51
180.0000000000031
  0
LINE
  5
93BE
330
1F
100
AcDbEntity
  8
0
  6
Continuous
 62
     7
 48
0.5
370
    -3
100
AcDbLine
 10
-14.00000000000088
 20
4.799999999999499
 30
0.0
 11
-14.00000000000088
 21
6.46723387727843
 31
0.0
  0
LINE
  5
93BF
330
1F
100
AcDbEntity
  8
0
  6
Continuous
 62
     7
 48
0.5
370
    -3
100
AcDbLine
 10
-10.04678909061107
 20
11.84746231992084
 30
0.0
 11
-22.54529348355385
 21
4.810902760113662
 31
0.0
  0
LINE
  5
93C0
330
1F
100
AcDbEntity
  8
0
  6
Continuous
 62
     7
 48
0.5
370
    -3
100
AcDbLine
 10
-10.63549345113819
 20
12.89313300225626
 30
0.0
 11
-23.64341087697537
 21
5.569777916056182
 31
0.0
  0
LINE
  5
93C1
330
1F
100
AcDbEntity
  8
0
  6
Continuous
 62
     7
 48
0.5
370
    -3
100
AcDbLine
 10
-10.29208257416385
 20
12.28315843756058
 30
0.0
 11
-23.30000000000106
 21
4.959803351360505
 31
0.0
  0
LINE
  5
93C2
330
1F
100
AcDbEntity
  8
0
  6
Continuous
 62
     7
 48
0.5
370
    -3
100
AcDbLine
 10
-8.918439066266671
 20
9.843260178777882
 30
0.0
 11
-11.50000000000088
 21
8.389861700336609
 31
0.0
  0
ARC
  5
93C3
330
1F
100
AcDbEntity
  8
0
  6
Continuous
 62
     7
 48
0.5
370
    -3
100
AcDbCircle
 10
-0.0000000000008811
 20
-7.900000000000091
 30
0.0
 40
22.2
100
AcDbArc
 50
68.39330988732759
 51
111.6066901126988
  0
ARC
  5
93C4
330
1F
100
AcDbEntity
  8
0
  6
Continuous
 62
     7
 48
0.5
370
    -3
100
AcDbCircle
 10
-0.0000000000008811
 20
-7.900000000000091
 30
0.0
 40
23.4
100
AcDbArc
 50
68.39330988731683
 51
111.6066901126988
  0
ARC
  5
93C5
330
1F
100
AcDbEntity
  8
0
  6
Continuous
 62
     7
 48
0.5
370
    -3
100
AcDbCircle
 10
-0.0000000000008811
 20
-7.900000000000091
 30
0.0
 40
22.7
100
AcDbArc
 50
68.39330988731683
 51
111.6066901126988
  0
ARC
  5
93C6
330
1F
100
AcDbEntity
  8
0
  6
Continuous
 62
     7
 48
0.5
370
    -3
100
AcDbCircle
 10
-0.0000000000008811
 20
-7.900000000000091
 30
0.0
 40
19.9
100
AcDbArc
 50
68.39330988732759
 51
111.6066901126988
  0
ARC
  5
93C7
330
1F
100
AcDbEntity
  8
0
  6
Continuous
 62
     7
 48
0.5
370
    -3
100
AcDbCircle
 10
-2.540808493885378
 20
-1.484838879856397
 30
0.0
 40
15.3
100
AcDbArc
 50
111.6066901126988
 51
119.3791685219811
  0
ARC
  5
93C8
330
1F
100
AcDbEntity
  8
0
  6
Continuous
 62
     7
 48
0.5
370
    -3
100
AcDbCircle
 10
-2.540808493885378
 20
-1.484838879856397
 30
0.0
 40
16.5
100
AcDbArc
 50
111.6066901126988
 51
119.3791685219811
  0
ARC
  5
93C9
330
1F
100
AcDbEntity
  8
0
  6
Continuous
 62
     7
 48
0.5
370
    -3
100
AcDbCircle
 10
-2.540808493885378
 20
-1.484838879856397
 30
0.0
 40
15.8
100
AcDbArc
 50
111.6066901126988
 51
119.3791685219811
  0
ARC
  5
93CA
330
1F
100
AcDbEntity
  8
0
  6
Continuous
 62
     7
 48
0.5
370
    -3
100
AcDbCircle
 10
-2.540808493885378
 20
-1.484838879856397
 30
0.0
 40
13.0
100
AcDbArc
 50
111.6066901126988
 51
119.3791685219811
  0
ARC
  5
93CB
330
1F
100
AcDbEntity
  8
0
  6
Continuous
 62
     7
 48
0.5
370
    -3
100
AcDbCircle
 10
-11.92146026538918
 20
7.345519626247209
 30
0.0
 40
0.5
100
AcDbArc
 50
131.6646606948302
 51
198.4349488229216
  0
LINE
  5
93CC
330
1F
100
AcDbEntity
  8
0
  6
Continuous
 62
     7
 48
0.5
370
    -3
100
AcDbLine
 10
-11.50000000000088
 20
8.389861700336609
 30
0.0
 11
-12.25384512101479
 21
7.719043799160658
 31
0.0
  0
LINE
  5
93CD
330
1F
100
AcDbEntity
  8
0
  6
Continuous
 62
     7
 48
0.5
370
    -3
100
AcDbLine
 10
-44.50000000000088
 20
13.9999999999984
 30
0.0
 11
-8.243178998422081
 21
13.99999999999965
 31
0.0
  0
LINE
  5
93CE
330
1F
100
AcDbEntity
  8
0
  6
Continuous
 62
     7
 48
0.5
370
    -3
100
AcDbLine
 10
-22.80000000000106
 20
2.999999999999089
 30
0.0
 11
-24.00000000000088
 21
2.999999999999089
 31
0.0
  0
LINE
  5
93CF
330
1F
100
AcDbEntity
  8
0
  6
Continuous
 62
     7
 48
0.5
370
    -3
100
AcDbLine
 10
-24.00000000000088
 20
2.999999999999089
 30
0.0
 11
-24.00000000000088
 21
4.959803351360505
 31
0.0
  0
ARC
  5
93D0
330
1F
100
AcDbEntity
  8
0
  6
Continuous
 62
     7
 48
0.5
370
    -3
100
AcDbCircle
 10
-23.30000000000106
 20
4.959803351360505
 30
0.0
 40
0.7
100
AcDbArc
 50
119.3791685219811
 51
180.0000000000031
  0
LINE
  5
93D2
330
1F
100
AcDbEntity
  8
0
  6
Continuous
 62
     7
 48
0.5
370
    -3
100
AcDbLine
 10
-14.4471760901333
 20
6.730624767703147
 30
0.0
 11
-18.32546458068188
 21
4.547178885228389
 31
0.0
  0
ARC
  5
93D3
330
1F
100
AcDbEntity
  8
0
  6
Continuous
 62
     7
 48
0.5
370
    -3
100
AcDbCircle
 10
-14.30000000000106
 20
6.46920709711935
 30
0.0
 40
0.3
100
AcDbArc
 50
0.0000000000032569
 51
119.3791685219811
  0
LINE
  5
93D4
330
1F
100
AcDbEntity
  8
0
  6
Continuous
 62
     7
 48
0.5
370
    -3
100
AcDbLine
 10
-19.2000000000007
 20
6.349999999999322
 30
0.0
 11
-18.7622496887225
 21
4.730323848269448
 31
0.0
  0
ARC
  5
93D5
330
1F
100
AcDbEntity
  8
0
  6
Continuous
 62
     7
 48
0.5
370
    -3
100
AcDbCircle
 10
-18.47264067081409
 20
4.8085965558123
 30
0.0
 40
0.3
100
AcDbArc
 50
195.1240073083076
 51
299.3791685219811
  0
LINE
  5
93D7
330
1F
100
AcDbEntity
  8
0
  6
Continuous
 62
     7
 48
0.5
370
    -3
100
AcDbLine
 10
-44.50000000000088
 20
2.999999999997271
 30
0.0
 11
-44.50000000000088
 21
14.79999999999847
 31
0.0
  0
LINE
  5
93D8
330
1F
100
AcDbEntity
  8
0
  6
Continuous
 62
     7
 48
0.5
370
    -3
100
AcDbLine
 10
-52.50000000000119
 20
2.999999999997043
 30
0.0
 11
-52.50000000000119
 21
14.79999999999813
 31
0.0
  0
ARC
  5
93D9
330
1F
100
AcDbEntity
  8
0
  6
Continuous
 62
     7
 48
0.5
370
    -3
100
AcDbCircle
 10
-48.50000000000088
 20
3.721428571426712
 30
0.0
 40
11.77857142857161
100
AcDbArc
 50
70.1475089866863
 51
109.8524910133137
  0
ARC
  5
93DA
330
1F
100
AcDbEntity
  8
0
  6
Continuous
 62
     7
 48
0.5
370
    -3
100
AcDbCircle
 10
-13.7000000000007
 20
4.799999999999499
 30
0.0
 40
0.3
100
AcDbArc
 50
180.0000000000031
 51
270.0
  0
LINE
  5
9530
330
1F
100
AcDbEntity
  8
0
  6
Continuous
 62
     7
 48
0.5
370
    -3
100
AcDbLine
 10
82.49999999996143
 20
125.4999999999249
 30
0.0
 11
82.50000000002595
 21
63.49999999992964
 31
0.0
  0
LINE
  5
9531
330
1F
100
AcDbEntity
  8
0
  6
Continuous
 62
     7
 48
0.5
370
    -3
100
AcDbLine
 10
93.49999999996132
 20
125.499999999923
 30
0.0
 11
93.50000000002594
 21
63.49999999993601
 31
0.0
  0
ARC
  5
9534
330
1F
100
AcDbEntity
  8
0
  6
Continuous
 62
     7
 48
0.5
370
    -3
100
AcDbCircle
 10
104.4999999999295
 20
49.49999999992918
 30
0.0
 40
15.0
100
AcDbArc
 50
0.0
 51
90.0
  0
ARC
  5
9535
330
1F
100
AcDbEntity
  8
0
  6
Continuous
 62
     7
 48
0.5
370
    -3
100
AcDbCircle
 10
104.4999999999295
 20
49.49999999992918
 30
0.0
 40
18.5
100
AcDbArc
 50
0.0
 51
90.0
  0
LINE
  5
9538
330
1F
100
AcDbEntity
  8
0
  6
CENTER2
 62
     2
 48
0.5
370
    -3
100
AcDbLine
 10
149.4999999999286
 20
24.4999999999941
 30
0.0
 11
149.4999999999291
 21
127.4999999999722
 31
0.0
  0
ARC
  5
9539
330
1F
100
AcDbEntity
  8
0
  6
Continuous
 62
     7
 48
0.5
370
    -3
100
AcDbCircle
 10
143.8038872562174
 20
-3.307252613953137
 30
0.0
 40
20.0
100
AcDbArc
 50
106.1324740476395
 51
116.9802307182361
  0
ARC
  5
953A
330
1F
100
AcDbEntity
  8
0
  6
Continuous
 62
     7
 48
0.5
370
    -3
100
AcDbCircle
 10
143.8038872562174
 20
-3.307252613953137
 30
0.0
 40
19.0
100
AcDbArc
 50
106.1324740476395
 51
116.9802307182361
  0
ARC
  5
953B
330
1F
100
AcDbEntity
  8
0
  6
Continuous
 62
     7
 48
0.5
370
    -3
100
AcDbCircle
 10
135.4999999999326
 20
5.499999999994045
 30
0.0
 40
1.0
100
AcDbArc
 50
179.9999999999966
 51
270.0
  0
LINE
  5
953E
330
1F
100
AcDbEntity
  8
0
  6
Continuous
 62
     7
 48
0.5
370
    -3
100
AcDbLine
 10
136.5449586054979
 20
10.95135723566995
 30
0.0
 11
132.9999999999318
 21
9.146651036472304
 31
0.0
  0
LINE
  5
953F
330
1F
100
AcDbEntity
  8
0
  6
Continuous
 62
     7
 48
0.5
370
    -3
100
AcDbLine
 10
135.4107510038248
 20
13.17926502467413
 30
0.0
 11
119.2731584795969
 21
4.963763375976057
 31
0.0
  0
LINE
  5
9540
330
1F
100
AcDbEntity
  8
0
  6
Continuous
 62
     7
 48
0.5
370
    -3
100
AcDbLine
 10
93.50000000000269
 20
15.49999999999412
 30
0.0
 11
137.0004139436242
 21
15.49999999999415
 31
0.0
  0
ARC
  5
9544
330
1F
100
AcDbEntity
  8
0
  6
Continuous
 62
     7
 48
0.5
370
    -3
100
AcDbCircle
 10
88.00000000000281
 20
1.874999999994101
 30
0.0
 40
15.625
100
AcDbArc
 50
69.39030706247639
 51
110.6096929374122
  0
LINE
  5
9545
330
1F
100
AcDbEntity
  8
0
  6
Continuous
 62
     7
 48
0.5
370
    -3
100
AcDbLine
 10
82.5000000000027
 20
2.999999999994101
 30
0.0
 11
93.50000000000269
 21
2.999999999994101
 31
0.0
  0
LINE
  5
9546
330
1F
100
AcDbEntity
  8
0
  6
Continuous
 62
     7
 48
0.5
370
    -3
100
AcDbLine
 10
216.4999999998626
 20
2.999999999994101
 30
0.0
 11
82.5000000000305
 21
2.999999999994101
 31
0.0
  0
LINE
  5
9548
330
1F
100
AcDbEntity
  8
0
  6
Continuous
 62
     7
 48
0.5
370
    -3
100
AcDbLine
 10
82.50000000003003
 20
2.999999999994101
 30
0.0
 11
82.50000000003003
 21
16.5000000000044
 31
0.0
  0
LINE
  5
9549
330
1F
100
AcDbEntity
  8
0
  6
Continuous
 62
     7
 48
0.5
370
    -3
100
AcDbLine
 10
93.50000000000269
 20
16.49999999999409
 30
0.0
 11
93.50000000000269
 21
2.999999999994101
 31
0.0
  0
LINE
  5
954B
330
1F
100
AcDbEntity
  8
0
  6
Continuous
 62
     7
 48
0.5
370
    -3
100
AcDbLine
 10
135.18390948349
 20
13.62484658247485
 30
0.0
 11
118.4999999999327
 21
5.131219936300354
 31
0.0
  0
LINE
  5
954C
330
1F
100
AcDbEntity
  8
0
  6
Continuous
 62
     7
 48
0.5
370
    -3
100
AcDbLine
 10
134.7302264428199
 20
14.51600969807635
 30
0.0
 11
118.0463169592616
 21
6.022383051900774
 31
0.0
  0
LINE
  5
954E
330
1F
100
AcDbEntity
  8
0
  6
Continuous
 62
     7
 48
0.5
370
    -3
100
AcDbLine
 10
118.3411160140299
 20
6.172243786803746
 30
0.0
 11
93.50000000000269
 21
6.172243786803746
 31
0.0
  0
LINE
  5
9550
330
1F
100
AcDbEntity
  8
0
  6
Continuous
 62
     7
 48
0.5
370
    -3
100
AcDbLine
 10
117.4999999999323
 20
4.499999999994102
 30
0.0
 11
93.50000000000269
 21
4.499999999994102
 31
0.0
  0
LINE
  5
9553
330
1F
100
AcDbEntity
  8
0
  6
Continuous
 62
     7
 48
0.5
370
    -3
100
AcDbLine
 10
131.971264597079
 20
6.968964966842705
 30
0.0
 11
132.9105688039272
 21
4.714634870403984
 31
0.0
  0
ARC
  5
9554
330
1F
100
AcDbEntity
  8
0
  6
Continuous
 62
     7
 48
0.5
370
    -3
100
AcDbCircle
 10
132.8943415201561
 20
7.353580351457948
 30
0.0
 40
1.0
100
AcDbArc
 50
142.7972662840431
 51
202.6198649480108
  0
ARC
  5
9555
330
1F
100
AcDbEntity
  8
0
  6
Continuous
 62
     7
 48
0.5
370
    -3
100
AcDbCircle
 10
129.7499999999331
 20
6.931041068319769
 30
0.0
 40
0.5
100
AcDbArc
 50
0.0
 51
116.9802307182361
  0
LINE
  5
9556
330
1F
100
AcDbEntity
  8
0
  6
Continuous
 62
     7
 48
0.5
370
    -3
100
AcDbLine
 10
130.2499999999326
 20
4.999999999994102
 30
0.0
 11
130.2499999999332
 21
6.931041068319769
 31
0.0
  0
ARC
  5
9557
330
1F
100
AcDbEntity
  8
0
  6
Continuous
 62
     7
 48
0.5
370
    -3
100
AcDbCircle
 10
130.7499999999326
 20
4.999999999994159
 30
0.0
 40
0.5
100
AcDbArc
 50
180.0000000000064
 51
270.0
  0
LINE
  5
955A
330
1F
100
AcDbEntity
  8
0
  6
Continuous
 62
     7
 48
0.5
370
    -3
100
AcDbLine
 10
132.9999999999326
 20
9.146651036473498
 30
0.0
 11
132.0978404498797
 21
7.958217469941885
 31
0.0
  0
LINE
  5
955B
330
1F
100
AcDbEntity
  8
0
  6
Continuous
 62
     7
 48
0.5
370
    -3
100
AcDbLine
 10
129.5231584795984
 20
7.376622626120492
 30
0.0
 11
124.059974062413
 21
4.595365104643988
 31
0.0
  0
LINE
  5
955D
330
1F
100
AcDbEntity
  8
0
  6
Continuous
 62
     7
 48
0.5
370
    -3
100
AcDbLine
 10
132.9999999999323
 20
4.99999999999413
 30
0.0
 11
132.9999999999326
 21
8.49999999999413
 31
0.0
  0
ARC
  5
955F
330
1F
100
AcDbEntity
  8
0
  6
Continuous
 62
     7
 48
0.5
370
    -3
100
AcDbCircle
 10
132.4999999999322
 20
4.99999999999413
 30
0.0
 40
0.5
100
AcDbArc
 50
270.0
 51
0.0
  0
LINE
  5
9560
330
1F
100
AcDbEntity
  8
0
  6
Continuous
 62
     7
 48
0.5
370
    -3
100
AcDbLine
 10
132.987949691183
 20
8.999999999994072
 30
0.0
 11
133.9999999999331
 21
8.999999999994072
 31
0.0
  0
ARC
  5
9561
330
1F
100
AcDbEntity
  8
0
  6
Continuous
 62
     7
 48
0.5
370
    -3
100
AcDbCircle
 10
133.4999999999326
 20
8.499999999994072
 30
0.0
 40
0.5
100
AcDbArc
 50
90.0
 51
180.0
  0
ARC
  5
9562
330
1F
100
AcDbEntity
  8
0
  6
Continuous
 62
     7
 48
0.5
370
    -3
100
AcDbCircle
 10
133.9999999999331
 20
8.499999999994072
 30
0.0
 40
0.5
100
AcDbArc
 50
359.9999999999968
 51
90.0
  0
LINE
  5
9563
330
1F
100
AcDbEntity
  8
0
  6
Continuous
 62
     7
 48
0.5
370
    -3
100
AcDbLine
 10
134.4999999999326
 20
5.49999999999413
 30
0.0
 11
134.4999999999332
 21
8.499999999994017
 31
0.0
  0
LINE
  5
9568
330
1F
100
AcDbEntity
  8
0
  6
Continuous
 62
     7
 48
0.5
370
    -3
100
AcDbLine
 10
123.2999999999329
 20
4.499999999994159
 30
0.0
 11
132.4999999999322
 21
4.49999999999413
 31
0.0
  0
LINE
  5
9569
330
1F
100
AcDbEntity
  8
0
  6
Continuous
 62
     7
 48
0.5
370
    -3
100
AcDbLine
 10
122.999999999929
 20
38.50000000002264
 30
0.0
 11
122.999999999929
 21
49.49999999999945
 31
0.0
  0
LINE
  5
956A
330
1F
100
AcDbEntity
  8
0
  6
Continuous
 62
     7
 48
0.5
370
    -3
100
AcDbLine
 10
119.4999999999295
 20
49.49999999992925
 30
0.0
 11
119.4999999999409
 21
38.50000000002644
 31
0.0
  0
LINE
  5
956B
330
1F
100
AcDbEntity
  8
0
  6
Continuous
 62
     7
 48
0.5
370
    -3
100
AcDbLine
 10
104.4999999999291
 20
64.49999999992925
 30
0.0
 11
93.50000000002504
 21
64.49999999992925
 31
0.0
  0
LINE
  5
956C
330
1F
100
AcDbEntity
  8
0
  6
CENTER2
 62
     2
 48
0.5
370
    -3
100
AcDbLine
 10
149.4999999999326
 20
-0.0000000000058975
 30
0.0
 11
149.4999999999326
 21
20.4999999999941
 31
0.0
  0
LINE
  5
9577
330
1F
100
AcDbEntity
  8
0
  6
Continuous
 62
     7
 48
0.5
370
    -3
100
AcDbLine
 10
135.4999999999326
 20
4.499999999994094
 30
0.0
 11
163.4999999999326
 21
4.499999999994117
 31
0.0
  0
ARC
  5
95A5
330
1F
100
AcDbEntity
  8
0
  6
Continuous
 62
     7
 48
0.5
370
    -3
100
AcDbCircle
 10
143.8038872562174
 20
-3.307252613953137
 30
0.0
 40
18.5
100
AcDbArc
 50
106.1324740476395
 51
116.9802307182361
  0
ARC
  5
95A6
330
1F
100
AcDbEntity
  8
0
  6
Continuous
 62
     7
 48
0.5
370
    -3
100
AcDbCircle
 10
149.4999999999326
 20
-23.0000000000059
 30
0.0
 40
36.5
100
AcDbArc
 50
73.86752595236046
 51
106.1324740476395
  0
ARC
  5
95A7
330
1F
100
AcDbEntity
  8
0
  6
Continuous
 62
     7
 48
0.5
370
    -3
100
AcDbCircle
 10
143.8038872562174
 20
-3.307252613953137
 30
0.0
 40
16.0
100
AcDbArc
 50
106.1324740476395
 51
116.9802307182361
  0
ARC
  5
95A8
330
1F
100
AcDbEntity
  8
0
  6
Continuous
 62
     7
 48
0.5
370
    -3
100
AcDbCircle
 10
149.4999999999326
 20
-23.0000000000059
 30
0.0
 40
40.49999999999999
100
AcDbArc
 50
73.86752595236046
 51
106.1324740476395
  0
ARC
  5
95A9
330
1F
100
AcDbEntity
  8
0
  6
Continuous
 62
     7
 48
0.5
370
    -3
100
AcDbCircle
 10
149.4999999999326
 20
-23.0000000000059
 30
0.0
 40
39.5
100
AcDbArc
 50
73.86752595236046
 51
106.1324740476395
  0
ARC
  5
95AA
330
1F
100
AcDbEntity
  8
0
  6
Continuous
 62
     7
 48
0.5
370
    -3
100
AcDbCircle
 10
149.4999999999326
 20
-23.0000000000059
 30
0.0
 40
39.0
100
AcDbArc
 50
73.86752595236046
 51
106.1324740476395
  0
LINE
  5
95B8
330
1F
100
AcDbEntity
  8
0
  6
Continuous
 62
     7
 48
0.5
370
    -3
100
AcDbLine
 10
118.4999999999327
 20
27.49999999996115
 30
0.0
 11
180.4999999999299
 21
27.50000000002708
 31
0.0
  0
LINE
  5
95BB
330
1F
100
AcDbEntity
  8
0
  6
Continuous
 62
     7
 48
0.5
370
    -3
100
AcDbLine
 10
118.499999999935
 20
38.49999999996126
 30
0.0
 11
180.4999999999237
 21
38.50000000002695
 31
0.0
  0
LINE
  5
95BE
330
1F
100
AcDbEntity
  8
0
  6
Continuous
 62
     7
 48
0.5
370
    -3
100
AcDbLine
 10
93.50000000002594
 20
124.4999999999187
 30
0.0
 11
205.4999999998954
 21
124.5000000000257
 31
0.0
  0
LINE
  5
95BF
330
1F
100
AcDbEntity
  8
0
  6
Continuous
 62
     7
 48
0.5
370
    -3
100
AcDbLine
 10
93.5000000000223
 20
120.9999999999305
 30
0.0
 11
205.4999999998913
 21
120.9999999999259
 31
0.0
  0
LINE
  5
95C3
330
1F
100
AcDbEntity
  8
0
  6
Continuous
 62
     7
 48
0.5
370
    -3
100
AcDbLine
 10
93.50000000002181
 20
67.99999999993055
 30
0.0
 11
104.4999999999982
 21
67.99999999993009
 31
0.0
  0
LINE
  5
95EB
330
1F
100
AcDbEntity
  8
0
  6
Continuous
 62
     7
 48
0.5
370
    -3
100
AcDbLine
 10
117.4999999999327
 20
2.999999999993704
 30
0.0
 11
117.4999999999313
 21
5.131219936298705
 31
0.0
  0
ARC
  5
95EC
330
1F
100
AcDbEntity
  8
0
  6
Continuous
 62
     7
 48
0.5
370
    -3
100
AcDbCircle
 10
118.4999999999315
 20
5.131219936299302
 30
0.0
 40
1.0
100
AcDbArc
 50
116.980230718236
 51
180.0000000000357
  0
LINE
  5
95ED
330
1F
100
AcDbEntity
  8
0
  6
Continuous
 62
     7
 48
0.5
370
    -3
100
AcDbLine
 10
118.9999999999326
 20
2.999999999994045
 30
0.0
 11
118.9999999999318
 21
4.51818181817542
 31
0.0
  0
LINE
  5
95EE
330
1F
100
AcDbEntity
  8
0
  6
Continuous
 62
     7
 48
0.5
370
    -3
100
AcDbLine
 10
119.4999999999327
 20
2.999999999994101
 30
0.0
 11
119.4999999999327
 21
4.499999999994102
 31
0.0
  0
LINE
  5
95EF
330
1F
100
AcDbEntity
  8
0
  6
Continuous
 62
     7
 48
0.5
370
    -3
100
AcDbLine
 10
119.4999999999327
 20
2.999999999994101
 30
0.0
 11
119.4999999999327
 21
4.499999999994102
 31
0.0
  0
LINE
  5
95F0
330
1F
100
AcDbEntity
  8
0
  6
Continuous
 62
     7
 48
0.5
370
    -3
100
AcDbLine
 10
119.4999999999327
 20
2.999999999994101
 30
0.0
 11
119.4999999999327
 21
4.499999999994102
 31
0.0
  0
LINE
  5
95F1
330
1F
100
AcDbEntity
  8
0
  6
Continuous
 62
     7
 48
0.5
370
    -3
100
AcDbLine
 10
119.4999999999327
 20
2.999999999994101
 30
0.0
 11
119.4999999999327
 21
4.499999999994102
 31
0.0
  0
ARC
  5
95F7
330
1F
100
AcDbEntity
  8
0
  6
Continuous
 62
     7
 48
0.5
370
    -3
100
AcDbCircle
 10
119.4999999999318
 20
4.518181818175533
 30
0.0
 40
0.5
100
AcDbArc
 50
116.9802307182361
 51
180.000000000013
  0
ARC
  5
95F8
330
1F
100
AcDbEntity
  8
0
  6
Continuous
 62
     7
 48
0.5
370
    -3
100
AcDbCircle
 10
123.9238691502119
 20
4.862714039324443
 30
0.0
 40
0.3
100
AcDbArc
 50
202.6198649480719
 51
296.9802307182362
  0
LINE
  5
95F9
330
1F
100
AcDbEntity
  8
0
  6
Continuous
 62
     7
 48
0.5
370
    -3
100
AcDbLine
 10
123.9238691502119
 20
4.562714039324432
 30
0.0
 11
123.1164370056531
 21
4.562714039324432
 31
0.0
  0
LINE
  5
95FA
330
1F
100
AcDbEntity
  8
0
  6
Continuous
 62
     7
 48
0.5
370
    -3
100
AcDbLine
 10
122.9999999999326
 20
6.299999999994014
 30
0.0
 11
123.6469460732888
 21
4.747329423939802
 31
0.0
  0
ARC
  5
95FB
330
1F
100
AcDbEntity
  8
0
  6
Continuous
 62
     7
 48
0.5
370
    -3
100
AcDbCircle
 10
123.2999999999329
 20
4.79999999999417
 30
0.0
 40
0.3
100
AcDbArc
 50
180.0
 51
270.0
  0
LINE
  5
95FC
330
1F
100
AcDbEntity
  8
0
  6
Continuous
 62
     7
 48
0.5
370
    -3
100
AcDbLine
 10
122.9999999999326
 20
4.79999999999417
 30
0.0
 11
122.9999999999326
 21
5.972243786803757
 31
0.0
  0
ARC
  5
95FD
330
1F
100
AcDbEntity
  8
0
  6
Continuous
 62
     7
 48
0.5
370
    -3
100
AcDbCircle
 10
122.7999999999329
 20
5.97224378680353
 30
0.0
 40
0.2
100
AcDbArc
 50
0.0
 51
117.2161115573208
  0
LINE
  5
95FE
330
1F
100
AcDbEntity
  8
0
  6
Continuous
 62
     7
 48
0.5
370
    -3
100
AcDbLine
 10
122.9999999999326
 20
4.79999999999417
 30
0.0
 11
122.9999999999326
 21
5.972243786803757
 31
0.0
  0
LINE
  5
95FF
330
1F
100
AcDbEntity
  8
0
  6
Continuous
 62
     7
 48
0.5
370
    -3
100
AcDbLine
 10
122.9999999999326
 20
6.299999999994035
 30
0.0
 11
118.999999999932
 21
4.242857142850902
 31
0.0
  0
ARC
  5
9600
330
1F
100
AcDbEntity
  8
0
  6
Continuous
 62
     7
 48
0.5
370
    -3
100
AcDbCircle
 10
123.2999999999329
 20
4.799999999994142
 30
0.0
 40
0.3
100
AcDbArc
 50
180.0
 51
270.0
  0
ARC
  5
9601
330
1F
100
AcDbEntity
  8
0
  6
Continuous
 62
     7
 48
0.5
370
    -3
100
AcDbCircle
 10
122.7999999999329
 20
5.972243786803757
 30
0.0
 40
0.2
100
AcDbArc
 50
0.0
 51
117.2161115573208
  0
ARC
  5
960B
330
1F
100
AcDbEntity
  8
0
  6
Continuous
 62
     7
 48
0.5
370
    -3
100
AcDbCircle
 10
118.4999999999359
 20
37.50000000004083
 30
0.0
 40
1.0
100
AcDbArc
 50
89.99999999989578
 51
179.9999999999739
  0
ARC
  5
960C
330
1F
100
AcDbEntity
  8
0
  6
Continuous
 62
     7
 48
0.5
370
    -3
100
AcDbCircle
 10
118.4999999999318
 20
28.50000000004083
 30
0.0
 40
1.0
100
AcDbArc
 50
179.9999999999739
 51
269.9999999998958
  0
LINE
  5
960D
330
1F
100
AcDbEntity
  8
0
  6
Continuous
 62
     7
 48
0.5
370
    -3
100
AcDbLine
 10
117.4999999999318
 20
28.50000000004174
 30
0.0
 11
117.4999999999359
 21
37.50000000004128
 31
0.0
  0
ARC
  5
960E
330
1F
100
AcDbEntity
  8
0
  6
Continuous
 62
     7
 48
0.5
370
    -3
100
AcDbCircle
 10
92.50000000002732
 20
63.49999999993398
 30
0.0
 40
1.0
100
AcDbArc
 50
270.0
 51
0.0000000000618809
  0
ARC
  5
960F
330
1F
100
AcDbEntity
  8
0
  6
Continuous
 62
     7
 48
0.5
370
    -3
100
AcDbCircle
 10
83.50000000002783
 20
63.49999999993396
 30
0.0
 40
1.0
100
AcDbArc
 50
180.0000000000619
 51
270.0
  0
LINE
  5
9610
330
1F
100
AcDbEntity
  8
0
  6
Continuous
 62
     7
 48
0.5
370
    -3
100
AcDbLine
 10
83.50000000002783
 20
62.49999999993396
 30
0.0
 11
92.50000000002732
 21
62.499999999934
 31
0.0
  0
ARC
  5
9611
330
1F
100
AcDbEntity
  8
0
  6
Continuous
 62
     7
 48
0.5
370
    -3
100
AcDbCircle
 10
92.50000000004147
 20
125.4999999999219
 30
0.0
 40
1.0
100
AcDbArc
 50
359.9999999999121
 51
89.99999999997395
  0
ARC
  5
9612
330
1F
100
AcDbEntity
  8
0
  6
Continuous
 62
     7
 48
0.5
370
    -3
100
AcDbCircle
 10
83.50000000004147
 20
125.499999999926
 30
0.0
 40
1.0
100
AcDbArc
 50
89.99999999997395
 51
179.999999999912
  0
LINE
  5
9613
330
1F
100
AcDbEntity
  8
0
  6
Continuous
 62
     7
 48
0.5
370
    -3
100
AcDbLine
 10
83.50000000004232
 20
126.499999999926
 30
0.0
 11
92.50000000004181
 21
126.4999999999219
 31
0.0
  0
LINE
  5
972A
330
1F
100
AcDbEntity
  8
0
  6
CENTER2
 62
     2
 48
0.5
370
    -3
100
AcDbLine
 10
333.4999999998282
 20
25.99999999999397
 30
0.0
 11
333.4999999998279
 21
158.9999999999932
 31
0.0
  0
LINE
  5
972D
330
1F
100
AcDbEntity
  8
0
  6
Continuous
 62
     7
 48
0.5
370
    -3
100
AcDbLine
 10
291.4999999998282
 20
38.99999999999657
 30
0.0
 11
291.4999999998282
 21
29.99999999999351
 31
0.0
  0
LINE
  5
9732
330
1F
100
AcDbEntity
  8
0
  6
CENTER2
 62
     2
 48
0.5
370
    -3
100
AcDbLine
 10
333.4999999998387
 20
21.99999999999397
 30
0.0
 11
333.4999999998387
 21
-0.0000000000057838
 31
0.0
  0
LINE
  5
973B
330
1F
100
AcDbEntity
  8
0
  6
Continuous
 62
     7
 48
0.5
370
    -3
100
AcDbLine
 10
374.4999999998278
 20
28.99999999999351
 30
0.0
 11
292.4999999998288
 21
28.99999999999442
 31
0.0
  0
ARC
  5
973C
330
1F
100
AcDbEntity
  8
0
  6
Continuous
 62
     7
 48
0.5
370
    -3
100
AcDbCircle
 10
292.4999999998282
 20
29.99999999999351
 30
0.0
 40
1.0
100
AcDbArc
 50
180.0
 51
270.0
  0
LINE
  5
9746
330
1F
100
AcDbEntity
  8
0
  6
Continuous
 62
     7
 48
0.5
370
    -3
100
AcDbLine
 10
246.4999999998279
 20
156.999999999993
 30
0.0
 11
246.4999999998287
 21
74.99999999999397
 31
0.0
  0
LINE
  5
9748
330
1F
100
AcDbEntity
  8
0
  6
Continuous
 62
     7
 48
0.5
370
    -3
100
AcDbLine
 10
257.499999999832
 20
156.9999999999931
 30
0.0
 11
257.4999999998337
 21
74.99999999999397
 31
0.0
  0
LINE
  5
974C
330
1F
100
AcDbEntity
  8
0
  6
Continuous
 62
     7
 48
0.5
370
    -3
100
AcDbLine
 10
256.4999999998314
 20
73.99999999999373
 30
0.0
 11
247.4999999998282
 21
73.99999999999373
 31
0.0
  0
ARC
  5
974D
330
1F
100
AcDbEntity
  8
0
  6
Continuous
 62
     7
 48
0.5
370
    -3
100
AcDbCircle
 10
247.4999999998282
 20
74.99999999999373
 30
0.0
 40
0.9999999999999998
100
AcDbArc
 50
180.0
 51
270.0
  0
LINE
  5
974E
330
1F
100
AcDbEntity
  8
0
  6
Continuous
 62
     7
 48
0.5
370
    -3
100
AcDbLine
 10
273.4999999998278
 20
75.99999999999351
 30
0.0
 11
257.4999999998337
 21
75.99999999999351
 31
0.0
  0
ARC
  5
9750
330
1F
100
AcDbEntity
  8
0
  6
Continuous
 62
     7
 48
0.5
370
    -3
100
AcDbCircle
 10
256.4999999998314
 20
74.99999999999373
 30
0.0
 40
0.9999999999999998
100
AcDbArc
 50
270.0
 51
0.0000000000065138
  0
LINE
  5
9751
330
1F
100
AcDbEntity
  8
0
  6
Continuous
 62
     7
 48
0.5
370
    -3
100
AcDbLine
 10
257.4999999998332
 20
81.4999999999935
 30
0.0
 11
273.4999999998282
 21
81.49999999999373
 31
0.0
  0
ARC
  5
9756
330
1F
100
AcDbEntity
  8
0
  6
Continuous
 62
     7
 48
0.5
370
    -3
100
AcDbCircle
 10
273.4999999998282
 20
55.99999999999338
 30
0.0
 40
19.99999999999988
100
AcDbArc
 50
0.0
 51
90.0
  0
ARC
  5
9757
330
1F
100
AcDbEntity
  8
0
  6
Continuous
 62
     7
 48
0.5
370
    -3
100
AcDbCircle
 10
273.4999999998282
 20
55.99999999999373
 30
0.0
 40
25.49999999999954
100
AcDbArc
 50
0.0
 51
90.0
  0
LINE
  5
975A
330
1F
100
AcDbEntity
  8
0
  6
Continuous
 62
     7
 48
0.5
370
    -3
100
AcDbLine
 10
293.4999999998282
 20
55.99999999999327
 30
0.0
 11
293.4999999998282
 21
39.99999999999918
 31
0.0
  0
LINE
  5
975B
330
1F
100
AcDbEntity
  8
0
  6
Continuous
 62
     7
 48
0.5
370
    -3
100
AcDbLine
 10
298.9999999998282
 20
39.99999999999918
 30
0.0
 11
298.9999999998288
 21
55.99999999999395
 31
0.0
  0
LINE
  5
975D
330
1F
100
AcDbEntity
  8
0
  6
Continuous
 62
     7
 48
0.5
370
    -3
100
AcDbLine
 10
374.4999999998278
 20
39.99999999999783
 30
0.0
 11
292.4999999998288
 21
39.99999999999918
 31
0.0
  0
ARC
  5
9760
330
1F
100
AcDbEntity
  8
0
  6
Continuous
 62
     7
 48
0.5
370
    -3
100
AcDbCircle
 10
292.4999999998282
 20
38.99999999999657
 30
0.0
 40
1.0
100
AcDbArc
 50
90.0
 51
180.0
  0
LINE
  5
976C
330
1F
100
AcDbEntity
  8
0
  6
Continuous
 62
     7
 48
0.5
370
    -3
100
AcDbLine
 10
257.4999999998332
 20
150.4999999999932
 30
0.0
 11
409.4999999998228
 21
150.4999999999944
 31
0.0
  0
LINE
  5
976D
330
1F
100
AcDbEntity
  8
0
  6
Continuous
 62
     7
 48
0.5
370
    -3
100
AcDbLine
 10
409.4999999998228
 20
155.9999999999932
 30
0.0
 11
257.4999999998337
 21
155.9999999999932
 31
0.0
  0
ARC
  5
9771
330
1F
100
AcDbEntity
  8
0
  6
Continuous
 62
     7
 48
0.5
370
    -3
100
AcDbCircle
 10
256.4999999998314
 20
156.9999999999931
 30
0.0
 40
1.0
100
AcDbArc
 50
359.9999999999935
 51
90.0
  0
ARC
  5
9772
330
1F
100
AcDbEntity
  8
0
  6
Continuous
 62
     7
 48
0.5
370
    -3
100
AcDbCircle
 10
247.4999999998282
 20
156.999999999993
 30
0.0
 40
1.0
100
AcDbArc
 50
90.0
 51
180.0
  0
LINE
  5
9776
330
1F
100
AcDbEntity
  8
0
  6
Continuous
 62
     7
 48
0.5
370
    -3
100
AcDbLine
 10
256.4999999998314
 20
157.999999999993
 30
0.0
 11
247.4999999998282
 21
157.999999999993
 31
0.0
  0
LINE
  5
97B5
330
1F
100
AcDbEntity
  8
0
  6
Continuous
 62
     7
 48
0.5
370
    -3
100
AcDbLine
 10
317.6128983132505
 20
16.99999999999409
 30
0.0
 11
257.499999999845
 21
16.99999999999398
 31
0.0
  0
LINE
  5
97B6
330
1F
100
AcDbEntity
  8
0
  6
Continuous
 62
     7
 48
0.5
370
    -3
100
AcDbLine
 10
291.5021726844336
 20
4.699999999994033
 30
0.0
 11
257.4999999998446
 21
4.699999999993919
 31
0.0
  0
LINE
  5
97B7
330
1F
100
AcDbEntity
  8
0
  6
Continuous
 62
     7
 48
0.5
370
    -3
100
AcDbLine
 10
294.3699343904329
 20
7.099999999993897
 30
0.0
 11
257.4999999998446
 21
7.09999999999401
 31
0.0
  0
LINE
  5
97B8
330
1F
100
AcDbEntity
  8
0
  6
Continuous
 62
     7
 48
0.5
370
    -3
100
AcDbLine
 10
420.4999999998382
 20
2.999999999994101
 30
0.0
 11
246.4999999998392
 21
2.999999999994101
 31
0.0
  0
LINE
  5
97BC
330
1F
100
AcDbEntity
  8
0
  6
Continuous
 62
     7
 48
0.5
370
    -3
100
AcDbLine
 10
308.572605488929
 20
12.23916364273715
 30
0.0
 11
293.2840203389957
 21
4.916736018295309
 31
0.0
  0
LINE
  5
97BD
330
1F
100
AcDbEntity
  8
0
  6
Continuous
 62
     7
 48
0.5
370
    -3
100
AcDbLine
 10
308.3566258280864
 20
12.69011018735433
 30
0.0
 11
292.4999999998388
 21
5.095620974877888
 31
0.0
  0
LINE
  5
97BE
330
1F
100
AcDbEntity
  8
0
  6
Continuous
 62
     7
 48
0.5
370
    -3
100
AcDbLine
 10
307.9246665064003
 20
13.59200327658846
 30
0.0
 11
292.0680406781528
 21
5.997514064112252
 31
0.0
  0
LINE
  5
97BF
330
1F
100
AcDbEntity
  8
0
  6
Continuous
 62
     7
 48
0.5
370
    -3
100
AcDbLine
 10
311.9265491185049
 20
10.13837563867174
 30
0.0
 11
310.6836451573706
 21
8.21603354088212
 31
0.0
  0
LINE
  5
97C1
330
1F
100
AcDbEntity
  8
0
  6
Continuous
 62
     7
 48
0.5
370
    -3
100
AcDbLine
 10
314.5999999998387
 20
4.699999999989939
 30
0.0
 11
352.3999999998385
 21
4.699999999989024
 31
0.0
  0
LINE
  5
97C3
330
1F
100
AcDbEntity
  8
0
  6
Continuous
 62
     7
 48
0.5
370
    -3
100
AcDbLine
 10
311.6999999998393
 20
4.699999999989969
 30
0.0
 11
298.9999999998391
 21
4.699999999994033
 31
0.0
  0
LINE
  5
97C4
330
1F
100
AcDbEntity
  8
0
  6
Continuous
 62
     7
 48
0.5
370
    -3
100
AcDbLine
 10
312.0283130667085
 20
4.822891885355631
 30
0.0
 11
310.6596285221805
 21
7.169208247403013
 31
0.0
  0
LINE
  5
97C6
330
1F
100
AcDbEntity
  8
0
  6
Continuous
 62
     7
 48
0.5
370
    -3
100
AcDbLine
 10
308.1340203389957
 20
8.591889943523611
 30
0.0
 11
302.4999999998388
 21
5.893490728453812
 31
0.0
  0
LINE
  5
97C7
330
1F
100
AcDbEntity
  8
0
  6
Continuous
 62
     7
 48
0.5
370
    -3
100
AcDbLine
 10
308.8499999998387
 20
5.199999999993919
 30
0.0
 11
308.8499999998387
 21
8.140943398906429
 31
0.0
  0
ARC
  5
97C8
330
1F
100
AcDbEntity
  8
0
  6
Continuous
 62
     7
 48
0.5
370
    -3
100
AcDbCircle
 10
308.3499999998387
 20
8.140943398906429
 30
0.0
 40
0.5
100
AcDbArc
 50
0.0
 51
115.5919680243085
  0
LINE
  5
97C9
330
1F
100
AcDbEntity
  8
0
  6
Continuous
 62
     7
 48
0.5
370
    -3
100
AcDbLine
 10
302.4999999998388
 20
5.893490728453812
 30
0.0
 11
302.4999999998388
 21
5.199999999993919
 31
0.0
  0
ARC
  5
97CA
330
1F
100
AcDbEntity
  8
0
  6
Continuous
 62
     7
 48
0.5
370
    -3
100
AcDbCircle
 10
301.9999999998388
 20
5.199999999993919
 30
0.0
 40
0.5
100
AcDbArc
 50
270.0
 51
0.0
  0
ARC
  5
97CB
330
1F
100
AcDbEntity
  8
0
  6
Continuous
 62
     7
 48
0.5
370
    -3
100
AcDbCircle
 10
311.5234074230809
 20
7.673079272928375
 30
0.0
 40
1.0
100
AcDbArc
 50
147.1150239767963
 51
210.2564371635255
  0
ARC
  5
97CE
330
1F
100
AcDbEntity
  8
0
  6
Continuous
 62
     7
 48
0.5
370
    -3
100
AcDbCircle
 10
309.3499999998387
 20
5.199999999993919
 30
0.0
 40
0.5
100
AcDbArc
 50
180.0
 51
270.0
  0
ARC
  5
97CF
330
1F
100
AcDbEntity
  8
0
  6
Continuous
 62
     7
 48
0.5
370
    -3
100
AcDbCircle
 10
298.6999999998389
 20
6.641772730423228
 30
0.0
 40
0.3
100
AcDbArc
 50
4.586703065332386
 51
99.01251333763459
  0
LINE
  5
97D0
330
1F
100
AcDbEntity
  8
0
  6
Continuous
 62
     7
 48
0.5
370
    -3
100
AcDbLine
 10
293.4999999998392
 20
3.000000000023319
 30
0.0
 11
293.4999999998392
 21
4.53333333332749
 31
0.0
  0
LINE
  5
97D1
330
1F
100
AcDbEntity
  8
0
  6
Continuous
 62
     7
 48
0.5
370
    -3
100
AcDbLine
 10
298.9999999998391
 20
6.641772730422999
 30
0.0
 11
298.9999999998391
 21
4.699999999994033
 31
0.0
  0
ARC
  5
97D2
330
1F
100
AcDbEntity
  8
0
  6
Continuous
 62
     7
 48
0.5
370
    -3
100
AcDbCircle
 10
298.6999999998389
 20
6.641772730423228
 30
0.0
 40
0.3
100
AcDbArc
 50
0.0
 51
4.586703065332386
  0
ARC
  5
97D3
330
1F
100
AcDbEntity
  8
0
  6
Continuous
 62
     7
 48
0.5
370
    -3
100
AcDbCircle
 10
293.4999999998388
 20
4.465789473678128
 30
0.0
 40
0.5
100
AcDbArc
 50
115.5919680243085
 51
180.0
  0
ARC
  5
97D4
330
1F
100
AcDbEntity
  8
0
  6
Continuous
 62
     7
 48
0.5
370
    -3
100
AcDbCircle
 10
292.4999999998388
 20
5.095620974877888
 30
0.0
 40
1.0
100
AcDbArc
 50
115.5919680243085
 51
180.0000000000031
  0
LINE
  5
97D5
330
1F
100
AcDbEntity
  8
0
  6
Continuous
 62
     7
 48
0.5
370
    -3
100
AcDbLine
 10
298.9999999998387
 20
5.599999999993896
 30
0.0
 11
300.1999999998386
 21
4.699999999993919
 31
0.0
  0
LINE
  5
97D6
330
1F
100
AcDbEntity
  8
0
  6
Continuous
 62
     7
 48
0.5
370
    -3
100
AcDbLine
 10
298.9999999998387
 20
7.099999999993783
 30
0.0
 11
298.9999999998387
 21
5.599999999993896
 31
0.0
  0
LINE
  5
97D7
330
1F
100
AcDbEntity
  8
0
  6
Continuous
 62
     7
 48
0.5
370
    -3
100
AcDbLine
 10
298.9999999998387
 20
7.09999999999401
 30
0.0
 11
292.9999999998388
 21
4.299999999993828
 31
0.0
  0
LINE
  5
97D9
330
1F
100
AcDbEntity
  8
0
  6
Continuous
 62
     7
 48
0.5
370
    -3
100
AcDbLine
 10
291.4999999998387
 20
2.999999999993873
 30
0.0
 11
291.4999999998387
 21
5.095620974877888
 31
0.0
  0
LINE
  5
97DA
330
1F
100
AcDbEntity
  8
0
  6
Continuous
 62
     7
 48
0.5
370
    -3
100
AcDbLine
 10
292.9999999998388
 20
2.999999999993873
 30
0.0
 11
292.9999999998388
 21
4.465789473678128
 31
0.0
  0
ARC
  5
97DD
330
1F
100
AcDbEntity
  8
0
  6
Continuous
 62
     7
 48
0.5
370
    -3
100
AcDbCircle
 10
333.4999999998387
 20
-45.10000000000601
 30
0.0
 40
59.5
100
AcDbArc
 50
70.34615499481798
 51
109.6538450051959
  0
ARC
  5
97DE
330
1F
100
AcDbEntity
  8
0
  6
Continuous
 62
     7
 48
0.5
370
    -3
100
AcDbCircle
 10
333.4999999998387
 20
-45.10000000000601
 30
0.0
 40
63.1
100
AcDbArc
 50
70.34615499481798
 51
109.6538450051959
  0
ARC
  5
97DF
330
1F
100
AcDbEntity
  8
0
  6
Continuous
 62
     7
 48
0.5
370
    -3
100
AcDbCircle
 10
333.4999999998387
 20
-45.10000000000601
 30
0.0
 40
62.6
100
AcDbArc
 50
70.34615499481798
 51
109.6538450051959
  0
ARC
  5
97E0
330
1F
100
AcDbEntity
  8
0
  6
Continuous
 62
     7
 48
0.5
370
    -3
100
AcDbCircle
 10
333.4999999998387
 20
-45.10000000000601
 30
0.0
 40
64.1
100
AcDbArc
 50
70.34615499481798
 51
109.6538450051959
  0
LINE
  5
97E1
330
1F
100
AcDbEntity
  8
0
  6
Continuous
 62
     7
 48
0.5
370
    -3
100
AcDbLine
 10
312.0105882954036
 20
10.09999999998919
 30
0.0
 11
313.5999999998385
 21
10.09999999999007
 31
0.0
  0
ARC
  5
97E5
330
1F
100
AcDbEntity
  8
0
  6
Continuous
 62
     7
 48
0.5
370
    -3
100
AcDbCircle
 10
312.7663113842152
 20
9.595421370717998
 30
0.0
 40
1.0
100
AcDbArc
 50
111.4323479513224
 51
147.1150239767963
  0
ARC
  5
97E6
330
1F
100
AcDbEntity
  8
0
  6
Continuous
 62
     7
 48
0.5
370
    -3
100
AcDbCircle
 10
326.0669580172087
 20
-24.28750647125319
 30
0.0
 40
37.4
100
AcDbArc
 50
109.6538450051959
 51
111.4323479513224
  0
ARC
  5
97E7
330
1F
100
AcDbEntity
  8
0
  6
Continuous
 62
     7
 48
0.5
370
    -3
100
AcDbCircle
 10
326.0669580172087
 20
-24.28750647125319
 30
0.0
 40
41.0
100
AcDbArc
 50
109.6538450051959
 51
115.5919680243085
  0
ARC
  5
97E8
330
1F
100
AcDbEntity
  8
0
  6
Continuous
 62
     7
 48
0.5
370
    -3
100
AcDbCircle
 10
326.0669580172087
 20
-24.28750647125319
 30
0.0
 40
40.49999999999999
100
AcDbArc
 50
109.6538450051959
 51
115.5919680243085
  0
ARC
  5
97E9
330
1F
100
AcDbEntity
  8
0
  6
Continuous
 62
     7
 48
0.5
370
    -3
100
AcDbCircle
 10
326.0669580172087
 20
-24.28750647125319
 30
0.0
 40
42.0
100
AcDbArc
 50
109.6538450051959
 51
115.5919680243085
  0
LINE
  5
97EA
330
1F
100
AcDbEntity
  8
0
  6
Continuous
 62
     7
 48
0.5
370
    -3
100
AcDbLine
 10
246.4999999998386
 20
2.999999999994101
 30
0.0
 11
246.4999999998392
 21
17.99999999999364
 31
0.0
  0
LINE
  5
97EB
330
1F
100
AcDbEntity
  8
0
  6
Continuous
 62
     7
 48
0.5
370
    -3
100
AcDbLine
 10
257.4999999998441
 20
2.999999999994329
 30
0.0
 11
257.499999999845
 21
17.9999999999941
 31
0.0
  0
ARC
  5
97EF
330
1F
100
AcDbEntity
  8
0
  6
Continuous
 62
     7
 48
0.5
370
    -3
100
AcDbCircle
 10
251.9999999998428
 20
3.374999999980232
 30
0.0
 40
15.62500000001371
100
AcDbArc
 50
69.39030706247639
 51
110.6096929375236
  0
LINE
  5
990F
330
1F
100
AcDbEntity
  8
0
  6
CENTER2
 62
     2
 48
0.5
370
    -3
100
AcDbLine
 10
524.9999999998459
 20
-0.0000000000057269
 30
0.0
 11
524.9999999998459
 21
26.29999999999382
 31
0.0
  0
LINE
  5
9941
330
1F
100
AcDbEntity
  8
0
  6
Continuous
 62
     7
 48
0.5
370
    -3
100
AcDbLine
 10
491.4999999998281
 20
44.29999999997876
 30
0.0
 11
491.4999999998276
 21
55.29999999998715
 31
0.0
  0
LINE
  5
9946
330
1F
100
AcDbEntity
  8
0
  6
CENTER2
 62
     2
 48
0.5
370
    -3
100
AcDbLine
 10
524.9999999998276
 20
30.29999999998727
 30
0.0
 11
524.9999999998276
 21
148.2999999999872
 31
0.0
  0
LINE
  5
9949
330
1F
100
AcDbEntity
  8
0
  6
Continuous
 62
     7
 48
0.5
370
    -3
100
AcDbLine
 10
487.4999999998286
 20
44.29999999997703
 30
0.0
 11
487.4999999998286
 21
55.29999999998812
 31
0.0
  0
ARC
  5
9952
330
1F
100
AcDbEntity
  8
0
  6
Continuous
 62
     7
 48
0.5
370
    -3
100
AcDbCircle
 10
519.575486591014
 20
0.5004070586524137
 30
0.0
 40
22.0
100
AcDbArc
 50
106.7704452904624
 51
121.150630557992
  0
ARC
  5
9953
330
1F
100
AcDbEntity
  8
0
  6
Continuous
 62
     7
 48
0.5
370
    -3
100
AcDbCircle
 10
524.9999999998459
 20
-17.50000000000618
 30
0.0
 40
40.8
100
AcDbArc
 50
73.22955470953757
 51
106.7704452904624
  0
LINE
  5
9954
330
1F
100
AcDbEntity
  8
0
  6
Continuous
 62
     7
 48
0.5
370
    -3
100
AcDbLine
 10
545.4999999998459
 20
4.499999999994108
 30
0.0
 11
504.4999999998459
 21
4.499999999994783
 31
0.0
  0
ARC
  5
9955
330
1F
100
AcDbEntity
  8
0
  6
Continuous
 62
     7
 48
0.5
370
    -3
100
AcDbCircle
 10
524.9999999998459
 20
-17.50000000000618
 30
0.0
 40
39.3
100
AcDbArc
 50
73.22955470953757
 51
106.7704452904624
  0
ARC
  5
9956
330
1F
100
AcDbEntity
  8
0
  6
Continuous
 62
     7
 48
0.5
370
    -3
100
AcDbCircle
 10
519.575486591014
 20
0.5004070586524137
 30
0.0
 40
20.5
100
AcDbArc
 50
106.7704452904624
 51
121.150630557992
  0
ARC
  5
9957
330
1F
100
AcDbEntity
  8
0
  6
Continuous
 62
     7
 48
0.5
370
    -3
100
AcDbCircle
 10
519.575486591014
 20
0.5004070586524137
 30
0.0
 40
21.0
100
AcDbArc
 50
106.7704452904624
 51
121.150630557992
  0
ARC
  5
9958
330
1F
100
AcDbEntity
  8
0
  6
Continuous
 62
     7
 48
0.5
370
    -3
100
AcDbCircle
 10
524.9999999998459
 20
-17.50000000000618
 30
0.0
 40
39.8
100
AcDbArc
 50
73.22955470953757
 51
106.7704452904624
  0
LINE
  5
995B
330
1F
100
AcDbEntity
  8
0
  6
Continuous
 62
     7
 48
0.5
370
    -3
100
AcDbLine
 10
487.4999999998459
 20
2.999999999993817
 30
0.0
 11
487.4999999998458
 21
4.499999999994042
 31
0.0
  0
ARC
  5
995C
330
1F
100
AcDbEntity
  8
0
  6
Continuous
 62
     7
 48
0.5
370
    -3
100
AcDbCircle
 10
498.9999999998454
 20
4.999999999993988
 30
0.0
 40
0.5
100
AcDbArc
 50
179.9999999999966
 51
270.0
  0
LINE
  5
995D
330
1F
100
AcDbEntity
  8
0
  6
Continuous
 62
     7
 48
0.5
370
    -3
100
AcDbLine
 10
491.4999999998459
 20
6.899999999994047
 30
0.0
 11
492.092299343015
 21
5.004642101852211
 31
0.0
  0
ARC
  5
995E
330
1F
100
AcDbEntity
  8
0
  6
Continuous
 62
     7
 48
0.5
370
    -3
100
AcDbCircle
 10
492.3786433364254
 20
5.094124599792976
 30
0.0
 40
0.3
100
AcDbArc
 50
197.35402463626
 51
301.150630557992
  0
LINE
  5
995F
330
1F
100
AcDbEntity
  8
0
  6
Continuous
 62
     7
 48
0.5
370
    -3
100
AcDbLine
 10
498.4999999998459
 20
7.557135811780326
 30
0.0
 11
498.4999999998454
 21
4.999999999994045
 31
0.0
  0
ARC
  5
9960
330
1F
100
AcDbEntity
  8
0
  6
Continuous
 62
     7
 48
0.5
370
    -3
100
AcDbCircle
 10
497.9999999998459
 20
7.557135811780326
 30
0.0
 40
0.5
100
AcDbArc
 50
359.9999999999968
 51
121.150630557992
  0
LINE
  5
9961
330
1F
100
AcDbEntity
  8
0
  6
Continuous
 62
     7
 48
0.5
370
    -3
100
AcDbLine
 10
492.5338302717988
 20
4.837381508182956
 30
0.0
 11
497.7413551075569
 21
7.985040964463747
 31
0.0
  0
LINE
  5
9962
330
1F
100
AcDbEntity
  8
0
  6
Continuous
 62
     7
 48
0.5
370
    -3
100
AcDbLine
 10
501.9999999998459
 20
10.55915521046916
 30
0.0
 11
510.4194574039962
 21
15.64824946364469
 31
0.0
  0
ARC
  5
9964
330
1F
100
AcDbEntity
  8
0
  6
Continuous
 62
     7
 48
0.5
370
    -3
100
AcDbCircle
 10
501.615867878244
 20
7.504332220697065
 30
0.0
 40
1.0
100
AcDbArc
 50
153.8798343150313
 51
206.5650511770797
  0
LINE
  5
9965
330
1F
100
AcDbEntity
  8
0
  6
Continuous
 62
     7
 48
0.5
370
    -3
100
AcDbLine
 10
501.9999999998459
 20
10.55915521046916
 30
0.0
 11
500.7179951980352
 21
7.944587430926858
 31
0.0
  0
LINE
  5
9966
330
1F
100
AcDbEntity
  8
0
  6
Continuous
 62
     7
 48
0.5
370
    -3
100
AcDbLine
 10
500.721440687244
 20
7.057118625197077
 30
0.0
 11
501.8999999998459
 21
4.699999999994425
 31
0.0
  0
ARC
  5
9967
330
1F
100
AcDbEntity
  8
0
  6
Continuous
 62
     7
 48
0.5
370
    -3
100
AcDbCircle
 10
524.9999999998459
 20
-17.50000000000618
 30
0.0
 40
36.5
100
AcDbArc
 50
73.22955470953757
 51
106.7704452904624
  0
ARC
  5
9968
330
1F
100
AcDbEntity
  8
0
  6
Continuous
 62
     7
 48
0.5
370
    -3
100
AcDbCircle
 10
519.575486591014
 20
0.5004070586524137
 30
0.0
 40
17.7
100
AcDbArc
 50
106.7704452904624
 51
121.150630557992
  0
LINE
  5
996A
330
1F
100
AcDbEntity
  8
0
  6
Continuous
 62
     7
 48
0.5
370
    -3
100
AcDbLine
 10
501.9999999998459
 20
10.47563016102126
 30
0.0
 11
501.9999999998459
 21
4.999999999994499
 31
0.0
  0
LINE
  5
996B
330
1F
100
AcDbEntity
  8
0
  6
Continuous
 62
     7
 48
0.5
370
    -3
100
AcDbLine
 10
503.4999999998464
 20
9.999999999994045
 30
0.0
 11
503.499999999846
 21
5.499999999994783
 31
0.0
  0
LINE
  5
996E
330
1F
100
AcDbEntity
  8
0
  6
Continuous
 62
     7
 48
0.5
370
    -3
100
AcDbLine
 10
491.7999999998456
 20
4.499999999994045
 30
0.0
 11
501.4999999998459
 21
4.499999999994499
 31
0.0
  0
ARC
  5
996F
330
1F
100
AcDbEntity
  8
0
  6
Continuous
 62
     7
 48
0.5
370
    -3
100
AcDbCircle
 10
501.4999999998459
 20
4.999999999994499
 30
0.0
 40
0.5
100
AcDbArc
 50
270.0
 51
359.9999999999968
  0
ARC
  5
9970
330
1F
100
AcDbEntity
  8
0
  6
Continuous
 62
     7
 48
0.5
370
    -3
100
AcDbCircle
 10
504.4999999998459
 20
5.499999999994783
 30
0.0
 40
1.0
100
AcDbArc
 50
179.9999999999966
 51
270.0
  0
LINE
  5
9973
330
1F
100
AcDbEntity
  8
0
  6
Continuous
 62
     7
 48
0.5
370
    -3
100
AcDbLine
 10
486.999999999848
 20
4.199999999995303
 30
0.0
 11
491.499999999846
 21
6.899999999994112
 31
0.0
  0
LINE
  5
9974
330
1F
100
AcDbEntity
  8
0
  6
Continuous
 62
     7
 48
0.5
370
    -3
100
AcDbLine
 10
491.4999999998459
 20
6.546761924200168
 30
0.0
 11
491.4999999998459
 21
4.799999999994057
 31
0.0
  0
ARC
  5
9975
330
1F
100
AcDbEntity
  8
0
  6
Continuous
 62
     7
 48
0.5
370
    -3
100
AcDbCircle
 10
491.2999999998456
 20
6.546761924200168
 30
0.0
 40
0.2
100
AcDbArc
 50
0.0
 51
120.9637565320757
  0
ARC
  5
9976
330
1F
100
AcDbEntity
  8
0
  6
Continuous
 62
     7
 48
0.5
370
    -3
100
AcDbCircle
 10
491.7999999998456
 20
4.799999999994057
 30
0.0
 40
0.3
100
AcDbArc
 50
180.0
 51
270.0
  0
ARC
  5
9979
330
1F
100
AcDbEntity
  8
0
  6
Continuous
 62
     7
 48
0.5
370
    -3
100
AcDbCircle
 10
502.9999999998464
 20
9.999999999994045
 30
0.0
 40
0.5
100
AcDbArc
 50
359.9999999999968
 51
90.0
  0
LINE
  5
997A
330
1F
100
AcDbEntity
  8
0
  6
Continuous
 62
     7
 48
0.5
370
    -3
100
AcDbLine
 10
502.0956767814472
 20
10.49999999999418
 30
0.0
 11
502.9999999998464
 21
10.49999999999404
 31
0.0
  0
LINE
  5
9984
330
1F
100
AcDbEntity
  8
0
  6
Continuous
 62
     7
 48
0.5
370
    -3
100
AcDbLine
 10
485.9827102152705
 20
5.902071324957275
 30
0.0
 11
508.1951113303148
 21
19.32823377672033
 31
0.0
  0
ARC
  5
9985
330
1F
100
AcDbEntity
  8
0
  6
Continuous
 62
     7
 48
0.5
370
    -3
100
AcDbCircle
 10
486.4999999998476
 20
5.046261019590517
 30
0.0
 40
1.0
100
AcDbArc
 50
121.150630557992
 51
180.0000000000064
  0
LINE
  5
9986
330
1F
100
AcDbEntity
  8
0
  6
Continuous
 62
     7
 48
0.5
370
    -3
100
AcDbLine
 10
487.2413551075593
 20
4.910127374896163
 30
0.0
 11
508.971046007181
 21
18.04451831867023
 31
0.0
  0
LINE
  5
9987
330
1F
100
AcDbEntity
  8
0
  6
Continuous
 62
     7
 48
0.5
370
    -3
100
AcDbLine
 10
486.4999999998476
 20
5.046261019590573
 30
0.0
 11
508.7124011148922
 21
18.4724234713536
 31
0.0
  0
LINE
  5
9988
330
1F
100
AcDbEntity
  8
0
  6
Continuous
 62
     7
 48
0.5
370
    -3
100
AcDbLine
 10
486.9999999998481
 20
2.999999999990407
 30
0.0
 11
486.9999999998476
 21
4.482222222212796
 31
0.0
  0
LINE
  5
9989
330
1F
100
AcDbEntity
  8
0
  6
Continuous
 62
     7
 48
0.5
370
    -3
100
AcDbLine
 10
485.4999999998481
 20
2.999999999990264
 30
0.0
 11
485.4999999998476
 21
5.046261019590374
 31
0.0
  0
ARC
  5
998A
330
1F
100
AcDbEntity
  8
0
  6
Continuous
 62
     7
 48
0.5
370
    -3
100
AcDbCircle
 10
487.4999999998477
 20
4.482222222212826
 30
0.0
 40
0.5
100
AcDbArc
 50
121.150630557992
 51
180.0000000000064
  0
LINE
  5
999C
330
1F
100
AcDbEntity
  8
0
  6
Continuous
 62
     7
 48
0.5
370
    -3
100
AcDbLine
 10
563.499999999869
 20
33.30000000001957
 30
0.0
 11
486.4999999998276
 21
33.29999999996806
 31
0.0
  0
LINE
  5
99A1
330
1F
100
AcDbEntity
  8
0
  6
Continuous
 62
     7
 48
0.5
370
    -3
100
AcDbLine
 10
563.4999999998623
 20
44.30000000001893
 30
0.0
 11
486.4999999998267
 21
44.2999999999679
 31
0.0
  0
LINE
  5
99A9
330
1F
100
AcDbEntity
  8
0
  6
Continuous
 62
     7
 48
0.5
370
    -3
100
AcDbLine
 10
461.4999999998273
 20
141.2999999999871
 30
0.0
 11
588.4999999998355
 21
141.2999999999885
 31
0.0
  0
LINE
  5
99AA
330
1F
100
AcDbEntity
  8
0
  6
Continuous
 62
     7
 48
0.5
370
    -3
100
AcDbLine
 10
461.499999999835
 20
74.29999999998727
 30
0.0
 11
472.4999999998277
 21
74.29999999998727
 31
0.0
  0
ARC
  5
99AC
330
1F
100
AcDbEntity
  8
0
  6
Continuous
 62
     7
 48
0.5
370
    -3
100
AcDbCircle
 10
472.4999999998277
 20
55.29999999998727
 30
0.0
 40
19.0
100
AcDbArc
 50
0.0
 51
90.0
  0
LINE
  5
99AD
330
1F
100
AcDbEntity
  8
0
  6
Continuous
 62
     7
 48
0.5
370
    -3
100
AcDbLine
 10
461.4999999998273
 20
145.2999999999871
 30
0.0
 11
588.4999999998363
 21
145.2999999999872
 31
0.0
  0
LINE
  5
99AE
330
1F
100
AcDbEntity
  8
0
  6
Continuous
 62
     7
 48
0.5
370
    -3
100
AcDbLine
 10
461.4999999998359
 20
70.29999999998715
 30
0.0
 11
472.4999999998277
 21
70.29999999998733
 31
0.0
  0
ARC
  5
99B0
330
1F
100
AcDbEntity
  8
0
  6
Continuous
 62
     7
 48
0.5
370
    -3
100
AcDbCircle
 10
472.4999999998273
 20
55.29999999998812
 30
0.0
 40
15.0
100
AcDbArc
 50
0.0
 51
90.0
  0
LINE
  5
99B6
330
1F
100
AcDbEntity
  8
0
  6
Continuous
 62
     7
 48
0.5
370
    -3
100
AcDbLine
 10
461.4999999998364
 20
69.29999999998739
 30
0.0
 11
461.4999999998182
 21
146.2999999999879
 31
0.0
  0
LINE
  5
99BB
330
1F
100
AcDbEntity
  8
0
  6
Continuous
 62
     7
 48
0.5
370
    -3
100
AcDbLine
 10
450.4999999998368
 20
69.29999999998518
 30
0.0
 11
450.4999999998185
 21
146.2999999999874
 31
0.0
  0
LINE
  5
99BD
330
1F
100
AcDbEntity
  8
0
  6
Continuous
 62
     7
 48
0.5
370
    -3
100
AcDbLine
 10
599.499999999846
 20
2.999999999995478
 30
0.0
 11
450.4999999998459
 21
2.999999999993647
 31
0.0
  0
LINE
  5
99BF
330
1F
100
AcDbEntity
  8
0
  6
Continuous
 62
     7
 48
0.5
370
    -3
100
AcDbLine
 10
450.4999999998459
 20
22.29999999999388
 30
0.0
 11
450.4999999998459
 21
2.999999999993789
 31
0.0
  0
LINE
  5
99C0
330
1F
100
AcDbEntity
  8
0
  6
Continuous
 62
     7
 48
0.5
370
    -3
100
AcDbLine
 10
512.4077161235324
 20
21.29999999999392
 30
0.0
 11
461.499999999845
 21
21.29999999999389
 31
0.0
  0
LINE
  5
99C1
330
1F
100
AcDbEntity
  8
0
  6
Continuous
 62
     7
 48
0.5
370
    -3
100
AcDbLine
 10
485.4999999998459
 20
4.499999999994499
 30
0.0
 11
461.499999999845
 21
4.499999999994471
 31
0.0
  0
LINE
  5
99C2
330
1F
100
AcDbEntity
  8
0
  6
Continuous
 62
     7
 48
0.5
370
    -3
100
AcDbLine
 10
487.6336951555805
 20
6.899999999994022
 30
0.0
 11
461.499999999845
 21
6.899999999994022
 31
0.0
  0
ARC
  5
99C7
330
1F
100
AcDbEntity
  8
0
  6
Continuous
 62
     7
 48
0.5
370
    -3
100
AcDbCircle
 10
455.9999999998454
 20
7.674999999998916
 30
0.0
 40
15.62499999999536
100
AcDbArc
 50
69.39030706247639
 51
110.6096929375514
  0
LINE
  5
99C8
330
1F
100
AcDbEntity
  8
0
  6
Continuous
 62
     7
 48
0.5
370
    -3
100
AcDbLine
 10
461.499999999845
 20
22.29999999999419
 30
0.0
 11
461.499999999845
 21
2.99999999999376
 31
0.0
  0
ARC
  5
99D2
330
1F
100
AcDbEntity
  8
0
  6
Continuous
 62
     7
 48
0.5
370
    -3
100
AcDbCircle
 10
486.4999999998273
 20
34.29999999998746
 30
0.0
 40
1.0
100
AcDbArc
 50
180.0
 51
270.0
  0
ARC
  5
99D3
330
1F
100
AcDbEntity
  8
0
  6
Continuous
 62
     7
 48
0.5
370
    -3
100
AcDbCircle
 10
486.4999999998273
 20
43.29999999998665
 30
0.0
 40
1.0
100
AcDbArc
 50
90.0
 51
180.0
  0
LINE
  5
99D4
330
1F
100
AcDbEntity
  8
0
  6
Continuous
 62
     7
 48
0.5
370
    -3
100
AcDbLine
 10
485.4999999998272
 20
43.29999999998665
 30
0.0
 11
485.4999999998272
 21
34.29999999998746
 31
0.0
  0
ARC
  5
99D5
330
1F
100
AcDbEntity
  8
0
  6
Continuous
 62
     7
 48
0.5
370
    -3
100
AcDbCircle
 10
451.4999999998281
 20
69.2999999999867
 30
0.0
 40
1.0
100
AcDbArc
 50
180.0
 51
270.0
  0
ARC
  5
99D6
330
1F
100
AcDbEntity
  8
0
  6
Continuous
 62
     7
 48
0.5
370
    -3
100
AcDbCircle
 10
460.4999999998272
 20
69.2999999999867
 30
0.0
 40
1.0
100
AcDbArc
 50
270.0
 51
0.0
  0
LINE
  5
99D7
330
1F
100
AcDbEntity
  8
0
  6
Continuous
 62
     7
 48
0.5
370
    -3
100
AcDbLine
 10
460.4999999998272
 20
68.29999999998669
 30
0.0
 11
451.4999999998281
 21
68.29999999998669
 31
0.0
  0
ARC
  5
99D8
330
1F
100
AcDbEntity
  8
0
  6
Continuous
 62
     7
 48
0.5
370
    -3
100
AcDbCircle
 10
451.4999999998277
 20
146.2999999999876
 30
0.0
 40
1.0
100
AcDbArc
 50
90.0
 51
180.0
  0
ARC
  5
99D9
330
1F
100
AcDbEntity
  8
0
  6
Continuous
 62
     7
 48
0.5
370
    -3
100
AcDbCircle
 10
460.4999999998272
 20
146.2999999999876
 30
0.0
 40
1.0
100
AcDbArc
 50
0.0
 51
90.0
  0
LINE
  5
99DA
330
1F
100
AcDbEntity
  8
0
  6
Continuous
 62
     7
 48
0.5
370
    -3
100
AcDbLine
 10
460.4999999998272
 20
147.2999999999876
 30
0.0
 11
451.4999999998277
 21
147.2999999999876
 31
0.0
  0
LINE
  5
9AE8
330
1F
100
AcDbEntity
  8
0
  6
CENTER2
 62
     2
 48
0.5
370
    -3
100
AcDbLine
 10
734.4999999998301
 20
-0.0000000000055493
 30
0.0
 11
734.4999999998301
 21
30.29999999999427
 31
0.0
  0
LINE
  5
9B1F
330
1F
100
AcDbEntity
  8
0
  6
CENTER2
 62
     2
 48
0.5
370
    -3
100
AcDbLine
 10
734.4999999998301
 20
34.29999999999428
 30
0.0
 11
734.4999999998301
 21
190.2999999999971
 31
0.0
  0
ARC
  5
9B50
330
1F
100
AcDbEntity
  8
0
  6
Continuous
 62
     7
 48
0.5
370
    -3
100
AcDbCircle
 10
659.4999999998877
 20
67.29999999993968
 30
0.0
 40
30.0
100
AcDbArc
 50
0.0
 51
90.0
  0
ARC
  5
9B51
330
1F
100
AcDbEntity
  8
0
  6
Continuous
 62
     7
 48
0.5
370
    -3
100
AcDbCircle
 10
659.4999999998301
 20
67.29999999999687
 30
0.0
 40
34.0
100
AcDbArc
 50
0.0
 51
90.0
  0
LINE
  5
9B52
330
1F
100
AcDbEntity
  8
0
  6
Continuous
 62
     7
 48
0.5
370
    -3
100
AcDbLine
 10
689.4999999998874
 20
67.29999999994468
 30
0.0
 11
689.4999999998904
 21
51.29999999999875
 31
0.0
  0
LINE
  5
9B53
330
1F
100
AcDbEntity
  8
0
  6
Continuous
 62
     7
 48
0.5
370
    -3
100
AcDbLine
 10
693.4999999998301
 20
51.29999999998704
 30
0.0
 11
693.4999999998301
 21
67.29999999999687
 31
0.0
  0
LINE
  5
9B55
330
1F
100
AcDbEntity
  8
0
  6
Continuous
 62
     7
 48
0.5
370
    -3
100
AcDbLine
 10
688.4999999998294
 20
37.29999999999433
 30
0.0
 11
780.4999999998297
 21
37.29999999999423
 31
0.0
  0
LINE
  5
9B56
330
1F
100
AcDbEntity
  8
0
  6
Continuous
 62
     7
 48
0.5
370
    -3
100
AcDbLine
 10
780.4999999998297
 20
51.29999999998637
 30
0.0
 11
688.4999999998301
 21
51.29999999999887
 31
0.0
  0
ARC
  5
9B58
330
1F
100
AcDbEntity
  8
0
  6
Continuous
 62
     7
 48
0.5
370
    -3
100
AcDbCircle
 10
688.4999999998304
 20
38.59999999999395
 30
0.0
 40
1.3
100
AcDbArc
 50
180.0
 51
270.0
  0
LINE
  5
9B59
330
1F
100
AcDbEntity
  8
0
  6
Continuous
 62
     7
 48
0.5
370
    -3
100
AcDbLine
 10
687.1999999998304
 20
38.59999999999395
 30
0.0
 11
687.1999999998304
 21
49.99999999999857
 31
0.0
  0
ARC
  5
9B5C
330
1F
100
AcDbEntity
  8
0
  6
Continuous
 62
     7
 48
0.5
370
    -3
100
AcDbCircle
 10
688.4999999998304
 20
49.99999999999857
 30
0.0
 40
1.3
100
AcDbArc
 50
90.0
 51
180.0
  0
LINE
  5
9B5D
330
1F
100
AcDbEntity
  8
0
  6
Continuous
 62
     7
 48
0.5
370
    -3
100
AcDbLine
 10
825.4999999998288
 20
187.2999999999971
 30
0.0
 11
643.4999999998317
 21
187.299999999997
 31
0.0
  0
LINE
  5
9B5E
330
1F
100
AcDbEntity
  8
0
  6
Continuous
 62
     7
 48
0.5
370
    -3
100
AcDbLine
 10
643.4999999998312
 20
183.2999999999969
 30
0.0
 11
825.4999999998288
 21
183.2999999999962
 31
0.0
  0
LINE
  5
9B64
330
1F
100
AcDbEntity
  8
0
  6
Continuous
 62
     7
 48
0.5
370
    -3
100
AcDbLine
 10
643.4999999998218
 20
188.2999999999972
 30
0.0
 11
643.4999999998317
 21
96.29999999999697
 31
0.0
  0
LINE
  5
9B65
330
1F
100
AcDbEntity
  8
0
  6
Continuous
 62
     7
 48
0.5
370
    -3
100
AcDbLine
 10
629.4999999998273
 20
96.29999999999682
 30
0.0
 11
629.4999999998281
 21
188.2999999999971
 31
0.0
  0
LINE
  5
9B67
330
1F
100
AcDbEntity
  8
0
  6
Continuous
 62
     7
 48
0.5
370
    -3
100
AcDbLine
 10
643.4999999998312
 20
101.299999999997
 30
0.0
 11
659.4999999998301
 21
101.2999999999969
 31
0.0
  0
LINE
  5
9B68
330
1F
100
AcDbEntity
  8
0
  6
Continuous
 62
     7
 48
0.5
370
    -3
100
AcDbLine
 10
659.4999999998304
 20
97.299999999997
 30
0.0
 11
643.4999999998317
 21
97.299999999997
 31
0.0
  0
ARC
  5
9B69
330
1F
100
AcDbEntity
  8
0
  6
Continuous
 62
     7
 48
0.5
370
    -3
100
AcDbCircle
 10
630.7999999998274
 20
96.29999999999682
 30
0.0
 40
1.3
100
AcDbArc
 50
180.0
 51
270.0
  0
ARC
  5
9B6A
330
1F
100
AcDbEntity
  8
0
  6
Continuous
 62
     7
 48
0.5
370
    -3
100
AcDbCircle
 10
642.1999999998321
 20
96.29999999999682
 30
0.0
 40
1.3
100
AcDbArc
 50
270.0
 51
0.0000000000081422
  0
LINE
  5
9B6B
330
1F
100
AcDbEntity
  8
0
  6
Continuous
 62
     7
 48
0.5
370
    -3
100
AcDbLine
 10
630.7999999998274
 20
94.99999999999682
 30
0.0
 11
642.1999999998321
 21
94.99999999999682
 31
0.0
  0
ARC
  5
9B6F
330
1F
100
AcDbEntity
  8
0
  6
Continuous
 62
     7
 48
0.5
370
    -3
100
AcDbCircle
 10
630.7999999998274
 20
188.2999999999971
 30
0.0
 40
1.3
100
AcDbArc
 50
90.0
 51
180.0
  0
ARC
  5
9B70
330
1F
100
AcDbEntity
  8
0
  6
Continuous
 62
     7
 48
0.5
370
    -3
100
AcDbCircle
 10
642.1999999998321
 20
188.2999999999971
 30
0.0
 40
1.3
100
AcDbArc
 50
359.9999999999935
 51
90.0
  0
LINE
  5
9B74
330
1F
100
AcDbEntity
  8
0
  6
Continuous
 62
     7
 48
0.5
370
    -3
100
AcDbLine
 10
630.7999999998274
 20
189.599999999997
 30
0.0
 11
642.1999999998321
 21
189.599999999997
 31
0.0
  0
LINE
  5
9B75
330
1F
100
AcDbEntity
  8
0
  6
Continuous
 62
     7
 48
0.5
370
    -3
100
AcDbLine
 10
839.4999999998329
 20
3.000000000021656
 30
0.0
 11
629.4999999998267
 21
3.000000000023347
 31
0.0
  0
LINE
  5
9B76
330
1F
100
AcDbEntity
  8
0
  6
Continuous
 62
     7
 48
0.5
370
    -3
100
AcDbLine
 10
720.7474023461396
 20
25.00195067462644
 30
0.0
 11
643.4999999998312
 21
25.00195067462633
 31
0.0
  0
LINE
  5
9B77
330
1F
100
AcDbEntity
  8
0
  6
Continuous
 62
     7
 48
0.5
370
    -3
100
AcDbLine
 10
687.2002088692697
 20
4.501950674626413
 30
0.0
 11
643.4999999998311
 21
4.501950674626343
 31
0.0
  0
LINE
  5
9B78
330
1F
100
AcDbEntity
  8
0
  6
Continuous
 62
     7
 48
0.5
370
    -3
100
AcDbLine
 10
689.0720581177284
 20
6.901950674626389
 30
0.0
 11
643.4999999998311
 21
6.901950674626319
 31
0.0
  0
ARC
  5
9B7B
330
1F
100
AcDbEntity
  8
0
  6
Continuous
 62
     7
 48
0.5
370
    -3
100
AcDbCircle
 10
734.4999999998312
 20
-15.00000000000571
 30
0.0
 40
37.5
100
AcDbArc
 50
58.73130814397399
 51
121.2686918559956
  0
ARC
  5
9B7D
330
1F
100
AcDbEntity
  8
0
  6
Continuous
 62
     7
 48
0.5
370
    -3
100
AcDbCircle
 10
734.4999999998301
 20
-15.00000000000571
 30
0.0
 40
42.29999999999999
100
AcDbArc
 50
58.73130814398923
 51
121.2686918560242
  0
ARC
  5
9B7E
330
1F
100
AcDbEntity
  8
0
  6
Continuous
 62
     7
 48
0.5
370
    -3
100
AcDbCircle
 10
734.4999999998301
 20
-15.00000000000571
 30
0.0
 40
40.99999999999999
100
AcDbArc
 50
58.73130814398923
 51
121.2686918560242
  0
ARC
  5
9B7F
330
1F
100
AcDbEntity
  8
0
  6
Continuous
 62
     7
 48
0.5
370
    -3
100
AcDbCircle
 10
734.4999999998301
 20
-15.00000000000571
 30
0.0
 40
40.49999999999999
100
AcDbArc
 50
58.73130814398923
 51
121.2686918560242
  0
LINE
  5
9B80
330
1F
100
AcDbEntity
  8
0
  6
Continuous
 62
     7
 48
0.5
370
    -3
100
AcDbLine
 10
705.0419165433834
 20
10.98410258184427
 30
0.0
 11
715.0355450409486
 21
17.05284688062991
 31
0.0
  0
LINE
  5
9B81
330
1F
100
AcDbEntity
  8
0
  6
Continuous
 62
     7
 48
0.5
370
    -3
100
AcDbLine
 10
689.2404739337114
 20
4.898325905364287
 30
0.0
 11
713.4783886442428
 21
19.61707463108714
 31
0.0
  0
LINE
  5
9B82
330
1F
100
AcDbEntity
  8
0
  6
Continuous
 62
     7
 48
0.5
370
    -3
100
AcDbLine
 10
688.4999999998301
 20
5.033636147286983
 30
0.0
 11
713.2188625781248
 21
20.04444592282906
 31
0.0
  0
LINE
  5
9B83
330
1F
100
AcDbEntity
  8
0
  6
Continuous
 62
     7
 48
0.5
370
    -3
100
AcDbLine
 10
687.8252322279224
 20
6.144801505815905
 30
0.0
 11
712.544094806217
 21
21.15561128135798
 31
0.0
  0
LINE
  5
9B84
330
1F
100
AcDbEntity
  8
0
  6
Continuous
 62
     7
 48
0.5
370
    -3
100
AcDbLine
 10
693.4999999997675
 20
4.500000000019169
 30
0.0
 11
704.3999999998301
 21
4.500000000019156
 31
0.0
  0
LINE
  5
9B88
330
1F
100
AcDbEntity
  8
0
  6
Continuous
 62
     7
 48
0.5
370
    -3
100
AcDbLine
 10
704.7508267527364
 20
4.643740839512312
 30
0.0
 11
703.6374772059692
 21
7.898229976856693
 31
0.0
  0
LINE
  5
9B8B
330
1F
100
AcDbEntity
  8
0
  6
Continuous
 62
     7
 48
0.5
370
    -3
100
AcDbLine
 10
701.6999999998297
 20
5.001408832306112
 30
0.0
 11
701.6999999998297
 21
8.066083727986693
 31
0.0
  0
LINE
  5
9B8C
330
1F
100
AcDbEntity
  8
0
  6
Continuous
 62
     7
 48
0.5
370
    -3
100
AcDbLine
 10
695.9999999998301
 20
5.493296165832148
 30
0.0
 11
700.9404739337115
 21
8.493455019728543
 31
0.0
  0
ARC
  5
9B8F
330
1F
100
AcDbEntity
  8
0
  6
Continuous
 62
     7
 48
0.5
370
    -3
100
AcDbCircle
 10
702.1999999998309
 20
5.000000000018358
 30
0.0
 40
0.5
100
AcDbArc
 50
180.0000000000015
 51
270.0
  0
ARC
  5
9B92
330
1F
100
AcDbEntity
  8
0
  6
Continuous
 62
     7
 48
0.5
370
    -3
100
AcDbCircle
 10
695.69999999983
 20
4.799999999994227
 30
0.0
 40
0.3
100
AcDbArc
 50
270.0
 51
0.0
  0
LINE
  5
9B93
330
1F
100
AcDbEntity
  8
0
  6
Continuous
 62
     7
 48
0.5
370
    -3
100
AcDbLine
 10
695.9999999998301
 20
4.799999999994227
 30
0.0
 11
695.9999999998301
 21
5.493296165832148
 31
0.0
  0
ARC
  5
9B95
330
1F
100
AcDbEntity
  8
0
  6
Continuous
 62
     7
 48
0.5
370
    -3
100
AcDbCircle
 10
705.5609686756203
 20
10.12935999836062
 30
0.0
 40
1.0
100
AcDbArc
 50
121.2686918560261
 51
152.8706418453645
  0
LINE
  5
9B96
330
1F
100
AcDbEntity
  8
0
  6
Continuous
 62
     7
 48
0.5
370
    -3
100
AcDbLine
 10
703.693664443945
 20
8.677911275515413
 30
0.0
 11
704.6709894074598
 21
10.58536098766285
 31
0.0
  0
ARC
  5
9B97
330
1F
100
AcDbEntity
  8
0
  6
Continuous
 62
     7
 48
0.5
370
    -3
100
AcDbCircle
 10
704.5836437121055
 20
8.221910286213187
 30
0.0
 40
1.0
100
AcDbArc
 50
152.8706418453656
 51
198.8856410913544
  0
LINE
  5
9B9D
330
1F
100
AcDbEntity
  8
0
  6
Continuous
 62
     7
 48
0.5
370
    -3
100
AcDbLine
 10
706.2999999998301
 20
10.40000000029331
 30
0.0
 11
704.6982653333036
 21
10.40000000029331
 31
0.0
  0
ARC
  5
9B9E
330
1F
100
AcDbEntity
  8
0
  6
Continuous
 62
     7
 48
0.5
370
    -3
100
AcDbCircle
 10
701.1999999998301
 20
8.066083727986637
 30
0.0
 40
0.5
100
AcDbArc
 50
0.0000000000008142
 51
121.2686918559956
  0
LINE
  5
9B9F
330
1F
100
AcDbEntity
  8
0
  6
Continuous
 62
     7
 48
0.5
370
    -3
100
AcDbLine
 10
688.9999999998301
 20
4.200000000012586
 30
0.0
 11
693.4999999998301
 21
6.90000000008713
 31
0.0
  0
LINE
  5
9BA0
330
1F
100
AcDbEntity
  8
0
  6
Continuous
 62
     7
 48
0.5
370
    -3
100
AcDbLine
 10
693.4999999997675
 20
4.500000000019169
 30
0.0
 11
693.49999999977
 21
6.900000000051133
 31
0.0
  0
ARC
  5
9BA3
330
1F
100
AcDbEntity
  8
0
  6
Continuous
 62
     7
 48
0.5
370
    -3
100
AcDbCircle
 10
688.4999999998301
 20
5.033636147286983
 30
0.0
 40
1.3
100
AcDbArc
 50
121.2686918559956
 51
180.0
  0
LINE
  5
9BA4
330
1F
100
AcDbEntity
  8
0
  6
Continuous
 62
     7
 48
0.5
370
    -3
100
AcDbLine
 10
689.4999999998308
 20
3.000000000021656
 30
0.0
 11
689.4999999998315
 21
4.500000000021657
 31
0.0
  0
LINE
  5
9BA5
330
1F
100
AcDbEntity
  8
0
  6
Continuous
 62
     7
 48
0.5
370
    -3
100
AcDbLine
 10
693.4999999998301
 20
5.499999999994216
 30
0.0
 11
694.4999999998302
 21
4.499999999994215
 31
0.0
  0
ARC
  5
9BA6
330
1F
100
AcDbEntity
  8
0
  6
Continuous
 62
     7
 48
0.5
370
    -3
100
AcDbCircle
 10
689.4999999998301
 20
4.470954613622382
 30
0.0
 40
0.5
100
AcDbArc
 50
121.2686918560242
 51
180.0
  0
LINE
  5
9BA8
330
1F
100
AcDbEntity
  8
0
  6
Continuous
 62
     7
 48
0.5
370
    -3
100
AcDbLine
 10
688.9999999998301
 20
2.999999999994201
 30
0.0
 11
688.9999999998301
 21
4.470954613622382
 31
0.0
  0
LINE
  5
9BA9
330
1F
100
AcDbEntity
  8
0
  6
Continuous
 62
     7
 48
0.5
370
    -3
100
AcDbLine
 10
687.1999999998297
 20
2.999999999994201
 30
0.0
 11
687.1999999998297
 21
5.033636147286983
 31
0.0
  0
ARC
  5
9BAA
330
1F
100
AcDbEntity
  8
0
  6
Continuous
 62
     7
 48
0.5
370
    -3
100
AcDbCircle
 10
693.1999999997688
 20
6.37014288635224
 30
0.0
 40
0.3
100
AcDbArc
 50
359.999999999974
 51
120.9637565327746
  0
LINE
  5
9BAC
330
1F
100
AcDbEntity
  8
0
  6
Continuous
 62
     7
 48
0.5
370
    -3
100
AcDbLine
 10
643.4999999998311
 20
2.99999999999413
 30
0.0
 11
643.4999999998312
 21
25.99999999999412
 31
0.0
  0
LINE
  5
9BAD
330
1F
100
AcDbEntity
  8
0
  6
Continuous
 62
     7
 48
0.5
370
    -3
100
AcDbLine
 10
629.4999999998267
 20
25.99999999999412
 30
0.0
 11
629.4999999998267
 21
2.999999999994101
 31
0.0
  0
ARC
  5
9BB2
330
1F
100
AcDbEntity
  8
0
  6
Continuous
 62
     7
 48
0.5
370
    -3
100
AcDbCircle
 10
636.4999999998286
 20
7.803846153828457
 30
0.0
 40
19.4961538461656
100
AcDbArc
 50
68.95843137224416
 51
111.0415686277558
  0
LINE
  5
9CBE
330
1F
100
AcDbEntity
  8
0
  6
CENTER2
 62
     2
 48
0.5
370
    -3
100
AcDbLine
 10
979.4999999998337
 20
35.79999999999559
 30
0.0
 11
979.4999999998337
 21
-0.0000000000048743
 31
0.0
  0
LINE
  5
9D06
330
1F
100
AcDbEntity
  8
0
  6
Continuous
 62
     7
 48
0.5
370
    -3
100
AcDbLine
 10
941.9253898663248
 20
14.99518133658487
 30
0.0
 11
940.2073152510309
 21
10.87707390541364
 31
0.0
  0
LINE
  5
9D07
330
1F
100
AcDbEntity
  8
0
  6
Continuous
 62
     7
 48
0.5
370
    -3
100
AcDbLine
 10
937.5499999998329
 20
5.99999999999413
 30
0.0
 11
937.5499999998329
 21
11.64502802848992
 31
0.0
  0
LINE
  5
9D08
330
1F
100
AcDbEntity
  8
0
  6
Continuous
 62
     7
 48
0.5
370
    -3
100
AcDbLine
 10
944.8499999998336
 20
5.49999999999507
 30
0.0
 11
1014.149999999833
 21
5.499999999995861
 31
0.0
  0
LINE
  5
9D0B
330
1F
100
AcDbEntity
  8
0
  6
Continuous
 62
     7
 48
0.5
370
    -3
100
AcDbLine
 10
941.9948275860397
 20
5.637931034477717
 30
0.0
 11
940.2017406217249
 21
10.12064844526498
 31
0.0
  0
ARC
  5
9D0C
330
1F
100
AcDbEntity
  8
0
  6
Continuous
 62
     7
 48
0.5
370
    -3
100
AcDbCircle
 10
941.1302173126109
 20
10.49203912161922
 30
0.0
 40
1.0
100
AcDbArc
 50
157.3541003000169
 51
201.8014094863502
  0
ARC
  5
9D0D
330
1F
100
AcDbEntity
  8
0
  6
Continuous
 62
     7
 48
0.5
370
    -3
100
AcDbCircle
 10
938.0499999998336
 20
5.999999999994144
 30
0.0
 40
0.5
100
AcDbArc
 50
180.0000000000007
 51
270.0
  0
ARC
  5
9D11
330
1F
100
AcDbEntity
  8
0
  6
Continuous
 62
     7
 48
0.5
370
    -3
100
AcDbCircle
 10
970.7515091125609
 20
-10.51527319994201
 30
0.0
 40
37.0
100
AcDbArc
 50
103.2392692707449
 51
121.4874693642086
  0
ARC
  5
9D12
330
1F
100
AcDbEntity
  8
0
  6
Continuous
 62
     7
 48
0.5
370
    -3
100
AcDbCircle
 10
970.7515091125609
 20
-10.51527319994201
 30
0.0
 40
42.29999999999999
100
AcDbArc
 50
103.2392692707449
 51
121.4874693642086
  0
ARC
  5
9D13
330
1F
100
AcDbEntity
  8
0
  6
Continuous
 62
     7
 48
0.5
370
    -3
100
AcDbCircle
 10
970.7515091125609
 20
-10.51527319994201
 30
0.0
 40
41.0
100
AcDbArc
 50
103.2392692707449
 51
121.4874693642086
  0
ARC
  5
9D14
330
1F
100
AcDbEntity
  8
0
  6
Continuous
 62
     7
 48
0.5
370
    -3
100
AcDbCircle
 10
970.7515091125609
 20
-10.51527319994201
 30
0.0
 40
40.49999999999999
100
AcDbArc
 50
103.2392692707449
 51
121.4874693642086
  0
ARC
  5
9D16
330
1F
100
AcDbEntity
  8
0
  6
Continuous
 62
     7
 48
0.5
370
    -3
100
AcDbCircle
 10
979.4999999998349
 20
-47.7000000000044
 30
0.0
 40
75.2
100
AcDbArc
 50
76.76073072924172
 51
103.2392692707449
  0
ARC
  5
9D1A
330
1F
100
AcDbEntity
  8
0
  6
Continuous
 62
     7
 48
0.5
370
    -3
100
AcDbCircle
 10
979.4999999998349
 20
-47.7000000000044
 30
0.0
 40
80.5
100
AcDbArc
 50
76.76073072924172
 51
103.2392692707449
  0
ARC
  5
9D1B
330
1F
100
AcDbEntity
  8
0
  6
Continuous
 62
     7
 48
0.5
370
    -3
100
AcDbCircle
 10
979.4999999998349
 20
-47.7000000000044
 30
0.0
 40
79.2
100
AcDbArc
 50
76.76073072924172
 51
103.2392692707449
  0
ARC
  5
9D1C
330
1F
100
AcDbEntity
  8
0
  6
Continuous
 62
     7
 48
0.5
370
    -3
100
AcDbCircle
 10
979.4999999998349
 20
-47.7000000000044
 30
0.0
 40
78.7
100
AcDbArc
 50
76.76073072924172
 51
103.2392692707449
  0
LINE
  5
9D1D
330
1F
100
AcDbEntity
  8
0
  6
Continuous
 62
     7
 48
0.5
370
    -3
100
AcDbLine
 10
942.3259798488139
 20
15.46290096763384
 30
0.0
 11
951.4259621861706
 21
21.03664014926537
 31
0.0
  0
LINE
  5
9D1E
330
1F
100
AcDbEntity
  8
0
  6
Continuous
 62
     7
 48
0.5
370
    -3
100
AcDbLine
 10
941.9355079075728
 20
14.69999999999512
 30
0.0
 11
943.8499999998327
 21
14.69999999999522
 31
0.0
  0
ARC
  5
9D24
330
1F
100
AcDbEntity
  8
0
  6
Continuous
 62
     7
 48
0.5
370
    -3
100
AcDbCircle
 10
942.8482919279046
 20
14.6101465527904
 30
0.0
 40
1.0
100
AcDbArc
 50
121.4874693642086
 51
157.3541003000169
  0
ARC
  5
9D25
330
1F
100
AcDbEntity
  8
0
  6
Continuous
 62
     7
 48
0.5
370
    -3
100
AcDbCircle
 10
937.0499999998337
 20
11.64502802848992
 30
0.0
 40
0.5
100
AcDbArc
 50
0.0000000000008142
 51
121.4874693642086
  0
LINE
  5
9D26
330
1F
100
AcDbEntity
  8
0
  6
Continuous
 62
     7
 48
0.5
370
    -3
100
AcDbLine
 10
917.1999999998346
 20
5.49999999999494
 30
0.0
 11
893.4999999998197
 21
5.499999999994657
 31
0.0
  0
LINE
  5
9D27
330
1F
100
AcDbEntity
  8
0
  6
Continuous
 62
     7
 48
0.5
370
    -3
100
AcDbLine
 10
960.4056227641379
 20
30.49999999999542
 30
0.0
 11
893.4999999998368
 21
30.49999999999461
 31
0.0
  0
LINE
  5
9D28
330
1F
100
AcDbEntity
  8
0
  6
Continuous
 62
     7
 48
0.5
370
    -3
100
AcDbLine
 10
879.4999999998328
 20
2.999999999994002
 30
0.0
 11
1079.499999999834
 21
2.999999999994442
 31
0.0
  0
LINE
  5
9D29
330
1F
100
AcDbEntity
  8
0
  6
Continuous
 62
     7
 48
0.5
370
    -3
100
AcDbLine
 10
893.4999999998176
 20
2.999999999994143
 30
0.0
 11
893.4999999998368
 21
31.49999999999466
 31
0.0
  0
LINE
  5
9D2A
330
1F
100
AcDbEntity
  8
0
  6
Continuous
 62
     7
 48
0.5
370
    -3
100
AcDbLine
 10
879.4999999998328
 20
31.49999999999456
 30
0.0
 11
879.4999999998328
 21
2.999999999994101
 31
0.0
  0
ARC
  5
9D2C
330
1F
100
AcDbEntity
  8
0
  6
Continuous
 62
     7
 48
0.5
370
    -3
100
AcDbCircle
 10
886.4999999998349
 20
13.30384615382893
 30
0.0
 40
19.4961538461656
100
AcDbArc
 50
68.95843137227207
 51
111.0415686277558
  0
LINE
  5
9D2D
330
1F
100
AcDbEntity
  8
0
  6
Continuous
 62
     7
 48
0.5
370
    -3
100
AcDbLine
 10
928.9999999998338
 20
7.300738310133694
 30
0.0
 11
936.7888439602879
 21
12.07140523591186
 31
0.0
  0
LINE
  5
9D2E
330
1F
100
AcDbEntity
  8
0
  6
Continuous
 62
     7
 48
0.5
370
    -3
100
AcDbLine
 10
919.2388439602886
 20
5.426377207416592
 30
0.0
 11
949.5978699093498
 21
24.02128060121744
 31
0.0
  0
LINE
  5
9D2F
330
1F
100
AcDbEntity
  8
0
  6
Continuous
 62
     7
 48
0.5
370
    -3
100
AcDbLine
 10
918.499999999835
 20
5.560170563281814
 30
0.0
 11
949.3367138698038
 21
24.44765780863914
 31
0.0
  0
LINE
  5
9D30
330
1F
100
AcDbEntity
  8
0
  6
Continuous
 62
     7
 48
0.5
370
    -3
100
AcDbLine
 10
917.8209942970147
 20
6.668751302578412
 30
0.0
 11
948.6577081669848
 21
25.55623854793561
 31
0.0
  0
LINE
  5
9D33
330
1F
100
AcDbEntity
  8
0
  6
Continuous
 62
     7
 48
0.5
370
    -3
100
AcDbLine
 10
925.9999999998328
 20
5.499999999994512
 30
0.0
 11
941.6499999998327
 21
5.499999999994923
 31
0.0
  0
ARC
  5
9D35
330
1F
100
AcDbEntity
  8
0
  6
Continuous
 62
     7
 48
0.5
370
    -3
100
AcDbCircle
 10
925.6999999998329
 20
8.463130672552978
 30
0.0
 40
0.3
100
AcDbArc
 50
0.0000000000008142
 51
121.6075022462547
  0
LINE
  5
9D38
330
1F
100
AcDbEntity
  8
0
  6
Continuous
 62
     7
 48
0.5
370
    -3
100
AcDbLine
 10
928.9999999998338
 20
7.300738310133638
 30
0.0
 11
928.9999999998338
 21
5.499999999994783
 31
0.0
  0
LINE
  5
9D39
330
1F
100
AcDbEntity
  8
0
  6
Continuous
 62
     7
 48
0.5
370
    -3
100
AcDbLine
 10
925.9999999998338
 20
7.499999999994798
 30
0.0
 11
927.4999999998337
 21
5.499999999994812
 31
0.0
  0
LINE
  5
9D3A
330
1F
100
AcDbEntity
  8
0
  6
Continuous
 62
     7
 48
0.5
370
    -3
100
AcDbLine
 10
919.4999999998328
 20
4.999999999994441
 30
0.0
 11
919.4999999998328
 21
2.999999999994442
 31
0.0
  0
ARC
  5
9D3B
330
1F
100
AcDbEntity
  8
0
  6
Continuous
 62
     7
 48
0.5
370
    -3
100
AcDbCircle
 10
919.499999999835
 20
4.99999999999484
 30
0.0
 40
0.5
100
AcDbArc
 50
121.4874693642086
 51
180.0000000000007
  0
LINE
  5
9D3D
330
1F
100
AcDbEntity
  8
0
  6
Continuous
 62
     7
 48
0.5
370
    -3
100
AcDbLine
 10
918.9999999998349
 20
2.999999999994442
 30
0.0
 11
918.9999999998349
 21
4.99999999999484
 31
0.0
  0
ARC
  5
9D3E
330
1F
100
AcDbEntity
  8
0
  6
Continuous
 62
     7
 48
0.5
370
    -3
100
AcDbCircle
 10
918.499999999835
 20
5.560170563281928
 30
0.0
 40
1.3
100
AcDbArc
 50
121.4874693642086
 51
180.0000000000007
  0
LINE
  5
9D3F
330
1F
100
AcDbEntity
  8
0
  6
Continuous
 62
     7
 48
0.5
370
    -3
100
AcDbLine
 10
917.1999999998346
 20
2.999999999994413
 30
0.0
 11
917.1999999998346
 21
5.560170563281915
 31
0.0
  0
LINE
  5
9D43
330
1F
100
AcDbEntity
  8
0
  6
CENTER2
 62
     2
 48
0.5
370
    -3
100
AcDbLine
 10
979.4999999998408
 20
42.79999999999558
 30
0.0
 11
979.4999999998408
 21
208.8000000000016
 31
0.0
  0
ARC
  5
9D69
330
1F
100
AcDbEntity
  8
0
  6
Continuous
 62
     7
 48
0.5
370
    -3
100
AcDbCircle
 10
909.4999999998409
 20
75.80000000000819
 30
0.0
 40
10.0
100
AcDbArc
 50
0.0
 51
90.0
  0
ARC
  5
9D6A
330
1F
100
AcDbEntity
  8
0
  6
Continuous
 62
     7
 48
0.5
370
    -3
100
AcDbCircle
 10
909.4999999998409
 20
75.80000000000819
 30
0.0
 40
16.5
100
AcDbArc
 50
0.0
 51
90.0
  0
LINE
  5
9D6C
330
1F
100
AcDbEntity
  8
0
  6
Continuous
 62
     7
 48
0.5
370
    -3
100
AcDbLine
 10
880.7999999998399
 20
83.5000000000083
 30
0.0
 11
892.1999999998439
 21
83.50000000000841
 31
0.0
  0
LINE
  5
9D6D
330
1F
100
AcDbEntity
  8
0
  6
Continuous
 62
     7
 48
0.5
370
    -3
100
AcDbLine
 10
893.4999999998437
 20
85.8000000000081
 30
0.0
 11
909.49999999984
 21
85.8000000000082
 31
0.0
  0
ARC
  5
9D6F
330
1F
100
AcDbEntity
  8
0
  6
Continuous
 62
     7
 48
0.5
370
    -3
100
AcDbCircle
 10
892.1999999998439
 20
84.80000000000837
 30
0.0
 40
1.3
100
AcDbArc
 50
270.0
 51
0.0000000000065138
  0
ARC
  5
9D70
330
1F
100
AcDbEntity
  8
0
  6
Continuous
 62
     7
 48
0.5
370
    -3
100
AcDbCircle
 10
880.7999999998399
 20
84.80000000000837
 30
0.0
 40
1.3
100
AcDbArc
 50
180.0
 51
270.0
  0
LINE
  5
9D71
330
1F
100
AcDbEntity
  8
0
  6
Continuous
 62
     7
 48
0.5
370
    -3
100
AcDbLine
 10
893.4999999998437
 20
92.30000000000808
 30
0.0
 11
909.49999999984
 21
92.30000000000819
 31
0.0
  0
LINE
  5
9D73
330
1F
100
AcDbEntity
  8
0
  6
Continuous
 62
     7
 48
0.5
370
    -3
100
AcDbLine
 10
893.4999999998426
 20
84.80000000000837
 30
0.0
 11
893.4999999998437
 21
206.8000000000083
 31
0.0
  0
LINE
  5
9D75
330
1F
100
AcDbEntity
  8
0
  6
Continuous
 62
     7
 48
0.5
370
    -3
100
AcDbLine
 10
879.4999999998438
 20
84.80000000000828
 30
0.0
 11
879.4999999998367
 21
206.8000000000009
 31
0.0
  0
LINE
  5
9D76
330
1F
100
AcDbEntity
  8
0
  6
Continuous
 62
     7
 48
0.5
370
    -3
100
AcDbLine
 10
893.4999999998437
 20
199.3000000000082
 30
0.0
 11
1065.499999999836
 21
199.3000000000092
 31
0.0
  0
LINE
  5
9D77
330
1F
100
AcDbEntity
  8
0
  6
Continuous
 62
     7
 48
0.5
370
    -3
100
AcDbLine
 10
893.4999999998437
 20
205.8000000000011
 30
0.0
 11
1065.499999999836
 21
205.8000000000021
 31
0.0
  0
LINE
  5
9D79
330
1F
100
AcDbEntity
  8
0
  6
Continuous
 62
     7
 48
0.5
370
    -3
100
AcDbLine
 10
880.7999999998399
 20
208.1000000000086
 30
0.0
 11
892.1999999998439
 21
208.1000000000087
 31
0.0
  0
ARC
  5
9D7C
330
1F
100
AcDbEntity
  8
0
  6
Continuous
 62
     7
 48
0.5
370
    -3
100
AcDbCircle
 10
892.1999999998439
 20
206.8000000000087
 30
0.0
 40
1.3
100
AcDbArc
 50
359.9999999999935
 51
90.0
  0
ARC
  5
9D7D
330
1F
100
AcDbEntity
  8
0
  6
Continuous
 62
     7
 48
0.5
370
    -3
100
AcDbCircle
 10
880.7999999998399
 20
206.8000000000087
 30
0.0
 40
1.3
100
AcDbArc
 50
90.0
 51
180.0
  0
LINE
  5
9D7E
330
1F
100
AcDbEntity
  8
0
  6
Continuous
 62
     7
 48
0.5
370
    -3
100
AcDbLine
 10
1040.49999999984
 20
59.79999999999762
 30
0.0
 11
918.4999999998399
 21
59.79999999999899
 31
0.0
  0
LINE
  5
9D7F
330
1F
100
AcDbEntity
  8
0
  6
Continuous
 62
     7
 48
0.5
370
    -3
100
AcDbLine
 10
1040.49999999984
 20
45.79999999999194
 30
0.0
 11
918.4999999998318
 21
45.79999999999921
 31
0.0
  0
LINE
  5
9D80
330
1F
100
AcDbEntity
  8
0
  6
Continuous
 62
     7
 48
0.5
370
    -3
100
AcDbLine
 10
925.9999999998408
 20
59.79999999999829
 30
0.0
 11
925.9999999998408
 21
75.80000000000819
 31
0.0
  0
LINE
  5
9D81
330
1F
100
AcDbEntity
  8
0
  6
Continuous
 62
     7
 48
0.5
370
    -3
100
AcDbLine
 10
919.4999999998408
 20
59.79999999999887
 30
0.0
 11
919.4999999998408
 21
75.80000000000819
 31
0.0
  0
LINE
  5
9D86
330
1F
100
AcDbEntity
  8
0
  6
Continuous
 62
     7
 48
0.5
370
    -3
100
AcDbLine
 10
917.19999999984
 20
47.09999999999427
 30
0.0
 11
917.19999999984
 21
58.4999999999988
 31
0.0
  0
ARC
  5
9D87
330
1F
100
AcDbEntity
  8
0
  6
Continuous
 62
     7
 48
0.5
370
    -3
100
AcDbCircle
 10
918.4999999998399
 20
47.09999999999427
 30
0.0
 40
1.3
100
AcDbArc
 50
180.0
 51
270.0
  0
ARC
  5
9D88
330
1F
100
AcDbEntity
  8
0
  6
Continuous
 62
     7
 48
0.5
370
    -3
100
AcDbCircle
 10
918.4999999998399
 20
58.4999999999988
 30
0.0
 40
1.3
100
AcDbArc
 50
90.0
 51
180.0
  0
LINE
  5
9F2B
330
1F
100
AcDbEntity
  8
0
  6
Continuous
 62
     7
 48
0.5
370
    -3
100
AcDbLine
 10
-24.00000000000088
 20
4.499999999999204
 30
0.0
 11
-44.50000000000088
 21
4.499999999999204
 31
0.0
  0
LINE
  5
A13D
330
1F
100
AcDbEntity
  8
0
  6
Continuous
 62
     7
 48
0.5
370
    -3
100
AcDbLine
 10
707.2999999998301
 20
4.500000000290056
 30
0.0
 11
761.6999999998297
 21
4.500000000290113
 31
0.0
  0
LINE
  5
A1A5
330
1F
100
AcDbEntity
  8
0
  6
Continuous
 62
     7
 48
0.5
370
    -3
100
AcDbLine
 10
925.9999999998328
 20
5.49999999999376
 30
0.0
 11
925.9999999998328
 21
8.999999999993525
 31
0.0
  0
LINE
  5
A1A6
330
1F
100
AcDbEntity
  8
0
  6
Continuous
 62
     7
 48
0.5
370
    -3
100
AcDbLine
 10
925.9999999998328
 20
8.999999999993946
 30
0.0
 11
918.9999999998349
 21
4.692307692302299
 31
0.0
  0
LINE
  5
A1AE
330
1F
100
AcDbEntity
  8
0
  6
Continuous
 62
     7
 48
0.5
370
    -3
100
AcDbLine
 10
921.2403891867687
 20
8.763130672552101
 30
0.0
 11
893.4999999998208
 21
8.763130672551397
 31
0.0
  0
MTEXT
  5
A46A
330
1F
100
AcDbEntity
  8
0
  6
Continuous
 62
     1
 48
0.5
370
    -3
100
AcDbMText
 10
0.0
 20
-6.249999999965767
 30
0.0
 40
2.5
 41
21.46998266137598
 46
0.0
 71
     5
 72
     5
  1
3号
 73
     1
 44
1.0
1001
ACAD
1000
MTEXTBEGIN
1070
    73
1070
     1
1070
    44
1040
1.0
1070
    74
1070
     0
1000
MTEXTEND
1000
ACAD_MTEXT_COLUMN_INFO_BEGIN
1070
    75
1070
     2
1070
    79
1070
     0
1070
    76
1070
     1
1070
    78
1070
     0
1070
    48
1040
21.46998266137598
1070
    49
1040
12.5
1070
    50
1070
     1
1040
0.0
1000
ACAD_MTEXT_COLUMN_INFO_END
  0
MTEXT
  5
A46B
330
1F
100
AcDbEntity
  8
0
  6
Continuous
 62
     1
 48
0.5
370
    -3
100
AcDbMText
 10
0.0
 20
-14.24999999996576
 30
0.0
 40
2.5
 41
21.46998266137598
 46
0.0
 71
     5
 72
     5
  1
GAT3□
 73
     1
 44
1.0
1001
ACAD
1000
MTEXTBEGIN
1070
    73
1070
     1
1070
    44
1040
1.0
1070
    74
1070
     0
1000
MTEXTEND
1000
ACAD_MTEXT_COLUMN_INFO_BEGIN
1070
    75
1070
     2
1070
    79
1070
     0
1070
    76
1070
     1
1070
    78
1070
     0
1070
    48
1040
21.46998266137598
1070
    49
1040
12.5
1070
    50
1070
     1
1040
0.0
1000
ACAD_MTEXT_COLUMN_INFO_END
  0
MTEXT
  5
A46C
330
1F
100
AcDbEntity
  8
0
  6
Continuous
 62
     1
 48
0.5
370
    -3
100
AcDbMText
 10
149.4999999999326
 20
-6.250000000005981
 30
0.0
 40
2.5
 41
21.46998266137598
 46
0.0
 71
     5
 72
     5
  1
4号
 73
     1
 44
1.0
1001
ACAD
1000
MTEXTBEGIN
1070
    73
1070
     1
1070
    44
1040
1.0
1070
    74
1070
     0
1000
MTEXTEND
1000
ACAD_MTEXT_COLUMN_INFO_BEGIN
1070
    75
1070
     2
1070
    79
1070
     0
1070
    76
1070
     1
1070
    78
1070
     0
1070
    48
1040
21.46998266137598
1070
    49
1040
12.5
1070
    50
1070
     1
1040
0.0
1000
ACAD_MTEXT_COLUMN_INFO_END
  0
MTEXT
  5
A46D
330
1F
100
AcDbEntity
  8
0
  6
Continuous
 62
     1
 48
0.5
370
    -3
100
AcDbMText
 10
149.4999999999326
 20
-14.25000000000598
 30
0.0
 40
2.5
 41
21.46998266137598
 46
0.0
 71
     5
 72
     5
  1
GAT4□
 73
     1
 44
1.0
1001
ACAD
1000
MTEXTBEGIN
1070
    73
1070
     1
1070
    44
1040
1.0
1070
    74
1070
     0
1000
MTEXTEND
1000
ACAD_MTEXT_COLUMN_INFO_BEGIN
1070
    75
1070
     2
1070
    79
1070
     0
1070
    76
1070
     1
1070
    78
1070
     0
1070
    48
1040
21.46998266137598
1070
    49
1040
12.5
1070
    50
1070
     1
1040
0.0
1000
ACAD_MTEXT_COLUMN_INFO_END
  0
MTEXT
  5
A46E
330
1F
100
AcDbEntity
  8
0
  6
Continuous
 62
     1
 48
0.5
370
    -3
100
AcDbMText
 10
333.4999999998387
 20
-6.250000000005981
 30
0.0
 40
2.5
 41
21.46998266137598
 46
0.0
 71
     5
 72
     5
  1
特4号
 73
     1
 44
1.0
1001
ACAD
1000
MTEXTBEGIN
1070
    73
1070
     1
1070
    44
1040
1.0
1070
    74
1070
     0
1000
MTEXTEND
1000
ACAD_MTEXT_COLUMN_INFO_BEGIN
1070
    75
1070
     2
1070
    79
1070
     0
1070
    76
1070
     1
1070
    78
1070
     0
1070
    48
1040
21.46998266137598
1070
    49
1040
12.5
1070
    50
1070
     1
1040
0.0
1000
ACAD_MTEXT_COLUMN_INFO_END
  0
MTEXT
  5
A46F
330
1F
100
AcDbEntity
  8
0
  6
Continuous
 62
     1
 48
0.5
370
    -3
100
AcDbMText
 10
333.4999999998387
 20
-14.25000000000598
 30
0.0
 40
2.5
 41
21.46998266137598
 46
0.0
 71
     5
 72
     5
  1
GBT4□
 73
     1
 44
1.0
1001
ACAD
1000
MTEXTBEGIN
1070
    73
1070
     1
1070
    44
1040
1.0
1070
    74
1070
     0
1000
MTEXTEND
1000
ACAD_MTEXT_COLUMN_INFO_BEGIN
1070
    75
1070
     2
1070
    79
1070
     0
1070
    76
1070
     1
1070
    78
1070
     0
1070
    48
1040
21.46998266137598
1070
    49
1040
12.5
1070
    50
1070
     1
1040
0.0
1000
ACAD_MTEXT_COLUMN_INFO_END
  0
MTEXT
  5
A470
330
1F
100
AcDbEntity
  8
0
  6
Continuous
 62
     1
 48
0.5
370
    -3
100
AcDbMText
 10
524.9999999998459
 20
-6.250000000005981
 30
0.0
 40
2.5
 41
21.46998266137598
 46
0.0
 71
     5
 72
     5
  1
5号
 73
     1
 44
1.0
1001
ACAD
1000
MTEXTBEGIN
1070
    73
1070
     1
1070
    44
1040
1.0
1070
    74
1070
     0
1000
MTEXTEND
1000
ACAD_MTEXT_COLUMN_INFO_BEGIN
1070
    75
1070
     2
1070
    79
1070
     0
1070
    76
1070
     1
1070
    78
1070
     0
1070
    48
1040
21.46998266137598
1070
    49
1040
12.5
1070
    50
1070
     1
1040
0.0
1000
ACAD_MTEXT_COLUMN_INFO_END
  0
MTEXT
  5
A471
330
1F
100
AcDbEntity
  8
0
  6
Continuous
 62
     1
 48
0.5
370
    -3
100
AcDbMText
 10
524.9999999998459
 20
-14.25000000000598
 30
0.0
 40
2.5
 41
21.46998266137598
 46
0.0
 71
     5
 72
     5
  1
GAT5□
 73
     1
 44
1.0
1001
ACAD
1000
MTEXTBEGIN
1070
    73
1070
     1
1070
    44
1040
1.0
1070
    74
1070
     0
1000
MTEXTEND
1000
ACAD_MTEXT_COLUMN_INFO_BEGIN
1070
    75
1070
     2
1070
    79
1070
     0
1070
    76
1070
     1
1070
    78
1070
     0
1070
    48
1040
21.46998266137598
1070
    49
1040
12.5
1070
    50
1070
     1
1040
0.0
1000
ACAD_MTEXT_COLUMN_INFO_END
  0
MTEXT
  5
A472
330
1F
100
AcDbEntity
  8
0
  6
Continuous
 62
     1
 48
0.5
370
    -3
100
AcDbMText
 10
734.4999999998301
 20
-6.250000000005981
 30
0.0
 40
2.5
 41
21.46998266137598
 46
0.0
 71
     5
 72
     5
  1
6号
 73
     1
 44
1.0
1001
ACAD
1000
MTEXTBEGIN
1070
    73
1070
     1
1070
    44
1040
1.0
1070
    74
1070
     0
1000
MTEXTEND
1000
ACAD_MTEXT_COLUMN_INFO_BEGIN
1070
    75
1070
     2
1070
    79
1070
     0
1070
    76
1070
     1
1070
    78
1070
     0
1070
    48
1040
21.46998266137598
1070
    49
1040
12.5
1070
    50
1070
     1
1040
0.0
1000
ACAD_MTEXT_COLUMN_INFO_END
  0
MTEXT
  5
A473
330
1F
100
AcDbEntity
  8
0
  6
Continuous
 62
     1
 48
0.5
370
    -3
100
AcDbMText
 10
734.4999999998301
 20
-14.25000000000598
 30
0.0
 40
2.5
 41
21.46998266137598
 46
0.0
 71
     5
 72
     5
  1
GAT6□
 73
     1
 44
1.0
1001
ACAD
1000
MTEXTBEGIN
1070
    73
1070
     1
1070
    44
1040
1.0
1070
    74
1070
     0
1000
MTEXTEND
1000
ACAD_MTEXT_COLUMN_INFO_BEGIN
1070
    75
1070
     2
1070
    79
1070
     0
1070
    76
1070
     1
1070
    78
1070
     0
1070
    48
1040
21.46998266137598
1070
    49
1040
12.5
1070
    50
1070
     1
1040
0.0
1000
ACAD_MTEXT_COLUMN_INFO_END
  0
MTEXT
  5
A474
330
1F
100
AcDbEntity
  8
0
  6
Continuous
 62
     1
 48
0.5
370
    -3
100
AcDbMText
 10
979.4999999998337
 20
-6.250000000005981
 30
0.0
 40
2.5
 41
21.46998266137598
 46
0.0
 71
     5
 72
     5
  1
7号
 73
     1
 44
1.0
1001
ACAD
1000
MTEXTBEGIN
1070
    73
1070
     1
1070
    44
1040
1.0
1070
    74
1070
     0
1000
MTEXTEND
1000
ACAD_MTEXT_COLUMN_INFO_BEGIN
1070
    75
1070
     2
1070
    79
1070
     0
1070
    76
1070
     1
1070
    78
1070
     0
1070
    48
1040
21.46998266137598
1070
    49
1040
12.5
1070
    50
1070
     1
1040
0.0
1000
ACAD_MTEXT_COLUMN_INFO_END
  0
MTEXT
  5
A475
330
1F
100
AcDbEntity
  8
0
  6
Continuous
 62
     1
 48
0.5
370
    -3
100
AcDbMText
 10
979.4999999998337
 20
-14.25000000000598
 30
0.0
 40
2.5
 41
21.46998266137598
 46
0.0
 71
     5
 72
     5
  1
GAT7□
 73
     1
 44
1.0
1001
ACAD
1000
MTEXTBEGIN
1070
    73
1070
     1
1070
    44
1040
1.0
1070
    74
1070
     0
1000
MTEXTEND
1000
ACAD_MTEXT_COLUMN_INFO_BEGIN
1070
    75
1070
     2
1070
    79
1070
     0
1070
    76
1070
     1
1070
    78
1070
     0
1070
    48
1040
21.46998266137598
1070
    49
1040
12.5
1070
    50
1070
     1
1040
0.0
1000
ACAD_MTEXT_COLUMN_INFO_END
  0
LINE
  5
A5A7
330
1F
100
AcDbEntity
  8
0
  6
Continuous
 62
     7
 48
0.5
370
    -3
100
AcDbLine
 10
314.0999999998386
 20
9.599999999990078
 30
0.0
 11
314.0999999998386
 21
5.199999999989939
 31
0.0
  0
ARC
  5
A5A8
330
1F
100
AcDbEntity
  8
0
  6
Continuous
 62
     7
 48
0.5
370
    -3
100
AcDbCircle
 10
314.5999999998387
 20
5.199999999989939
 30
0.0
 40
0.5
100
AcDbArc
 50
180.0
 51
269.9999999999984
  0
ARC
  5
A5A9
330
1F
100
AcDbEntity
  8
0
  6
Continuous
 62
     7
 48
0.5
370
    -3
100
AcDbCircle
 10
313.5999999998386
 20
9.599999999990084
 30
0.0
 40
0.5
100
AcDbArc
 50
0.0
 51
90.00000000003257
  0
LINE
  5
A5AE
330
1F
100
AcDbEntity
  8
0
  6
Continuous
 62
     7
 48
0.5
370
    -3
100
AcDbLine
 10
312.1999999998395
 20
9.599999999989583
 30
0.0
 11
312.1999999998395
 21
5.19999999998997
 31
0.0
  0
ARC
  5
A5AF
330
1F
100
AcDbEntity
  8
0
  6
Continuous
 62
     7
 48
0.5
370
    -3
100
AcDbCircle
 10
311.6999999998395
 20
5.19999999998997
 30
0.0
 40
0.5
100
AcDbArc
 50
269.9999999999821
 51
0.0
  0
ARC
  5
A5B0
330
1F
100
AcDbEntity
  8
0
  6
Continuous
 62
     7
 48
0.5
370
    -3
100
AcDbCircle
 10
312.6999999998395
 20
9.599999999989583
 30
0.0
 40
0.5
100
AcDbArc
 50
90.00000000003257
 51
180.0
  0
LINE
  5
A5B4
330
1F
100
AcDbEntity
  8
0
  6
Continuous
 62
     7
 48
0.5
370
    -3
100
AcDbLine
 10
706.7999999998301
 20
5.000000000290056
 30
0.0
 11
706.7999999998301
 21
9.900000000293319
 31
0.0
  0
ARC
  5
A5B5
330
1F
100
AcDbEntity
  8
0
  6
Continuous
 62
     7
 48
0.5
370
    -3
100
AcDbCircle
 10
707.2999999998301
 20
5.000000000290056
 30
0.0
 40
0.5
100
AcDbArc
 50
180.0
 51
270.0
  0
ARC
  5
A5B6
330
1F
100
AcDbEntity
  8
0
  6
Continuous
 62
     7
 48
0.5
370
    -3
100
AcDbCircle
 10
706.2999999998301
 20
9.900000000293319
 30
0.0
 40
0.5
100
AcDbArc
 50
0.0
 51
90.0
  0
LINE
  5
A5BD
330
1F
100
AcDbEntity
  8
0
  6
Continuous
 62
     7
 48
0.5
370
    -3
100
AcDbLine
 10
704.8999999998301
 20
9.900000000293319
 30
0.0
 11
704.8999999998301
 21
5.000000000019154
 31
0.0
  0
ARC
  5
A5BE
330
1F
100
AcDbEntity
  8
0
  6
Continuous
 62
     7
 48
0.5
370
    -3
100
AcDbCircle
 10
704.3999999998301
 20
5.000000000019156
 30
0.0
 40
0.5
100
AcDbArc
 50
270.0
 51
0.0
  0
ARC
  5
A5BF
330
1F
100
AcDbEntity
  8
0
  6
Continuous
 62
     7
 48
0.5
370
    -3
100
AcDbCircle
 10
705.3999999998301
 20
9.900000000293319
 30
0.0
 40
0.5
100
AcDbArc
 50
90.0
 51
180.0
  0
LINE
  5
A5CA
330
1F
100
AcDbEntity
  8
0
  6
Continuous
 62
     7
 48
0.5
370
    -3
100
AcDbLine
 10
944.3499999998328
 20
14.19999999999522
 30
0.0
 11
944.3499999998337
 21
5.999999999995063
 31
0.0
  0
ARC
  5
A5CB
330
1F
100
AcDbEntity
  8
0
  6
Continuous
 62
     7
 48
0.5
370
    -3
100
AcDbCircle
 10
944.8499999998336
 20
5.999999999995072
 30
0.0
 40
0.5
100
AcDbArc
 50
180.0000000000006
 51
270.0
  0
ARC
  5
A5CC
330
1F
100
AcDbEntity
  8
0
  6
Continuous
 62
     7
 48
0.5
370
    -3
100
AcDbCircle
 10
943.8499999998327
 20
14.19999999999522
 30
0.0
 40
0.5
100
AcDbArc
 50
0.0000000000008651
 51
90.00000000000651
  0
LINE
  5
A5CD
330
1F
100
AcDbEntity
  8
0
  6
Continuous
 62
     7
 48
0.5
370
    -3
100
AcDbLine
 10
942.1499999998328
 20
14.19999999999515
 30
0.0
 11
942.1499999998328
 21
5.999999999994923
 31
0.0
  0
ARC
  5
A5CE
330
1F
100
AcDbEntity
  8
0
  6
Continuous
 62
     7
 48
0.5
370
    -3
100
AcDbCircle
 10
941.6499999998327
 20
5.999999999994923
 30
0.0
 40
0.5
100
AcDbArc
 50
270.0000000000017
 51
0.0
  0
ARC
  5
A5CF
330
1F
100
AcDbEntity
  8
0
  6
Continuous
 62
     7
 48
0.5
370
    -3
100
AcDbCircle
 10
942.6499999998327
 20
14.19999999999515
 30
0.0
 40
0.5
100
AcDbArc
 50
90.00000000000325
 51
180.0
  0
ARC
  5
A73A
330
1F
100
AcDbEntity
  8
0
  6
Continuous
 62
     7
 48
0.5
370
    -3
100
AcDbCircle
 10
-11.2519395739462
 20
8.299999999999545
 30
0.0
 40
0.2
100
AcDbArc
 50
90.0
 51
119.3791685219958
  0
LINE
  5
A73B
330
1F
100
AcDbEntity
  8
0
  6
Continuous
 62
     7
 48
0.5
370
    -3
100
AcDbLine
 10
11.99999999999923
 20
4.500000000004109
 30
0.0
 11
18.89999999999892
 21
4.500000000006507
 31
0.0
  0
ARC
  5
A73C
330
1F
100
AcDbEntity
  8
0
  6
Continuous
 62
     7
 48
0.5
370
    -3
100
AcDbCircle
 10
11.999999999999
 20
5.000000000004109
 30
0.0
 40
0.5
100
AcDbArc
 50
180.0000000000185
 51
270.0000000000228
  0
LINE
  5
A73D
330
1F
100
AcDbEntity
  8
0
  6
Continuous
 62
     7
 48
0.5
370
    -3
100
AcDbLine
 10
22.4999999999998
 20
3.000000000007764
 30
0.0
 11
22.49999999999923
 21
4.500000000007763
 31
0.0
  0
LINE
  5
A73E
330
1F
100
AcDbEntity
  8
0
  6
Continuous
 62
     7
 48
0.5
370
    -3
100
AcDbLine
 10
10.499999999999
 20
5.000000000003653
 30
0.0
 11
10.4999999999977
 21
8.50000000000354
 31
0.0
  0
ARC
  5
A73F
330
1F
100
AcDbEntity
  8
0
  6
Continuous
 62
     7
 48
0.5
370
    -3
100
AcDbCircle
 10
9.999999999999005
 20
5.000000000003349
 30
0.0
 40
0.5
100
AcDbArc
 50
270.0000000000228
 51
0.0000000000218063
  0
LINE
  5
A740
330
1F
100
AcDbEntity
  8
0
  6
Continuous
 62
     7
 48
0.5
370
    -3
100
AcDbLine
 10
19.19999999999894
 20
4.800000000006576
 30
0.0
 11
19.19999999999848
 21
6.008594758333542
 31
0.0
  0
ARC
  5
A741
330
1F
100
AcDbEntity
  8
0
  6
Continuous
 62
     7
 48
0.5
370
    -3
100
AcDbCircle
 10
18.89999999999875
 20
4.800000000006462
 30
0.0
 40
0.3
100
AcDbArc
 50
270.0000000000228
 51
0.0000000000185494
  0
ARC
  5
A742
330
1F
100
AcDbEntity
  8
0
  6
Continuous
 62
     7
 48
0.5
370
    -3
100
AcDbCircle
 10
19.3999999999983
 20
6.00859475833362
 30
0.0
 40
0.2
100
AcDbArc
 50
60.7247457227558
 51
180.0000000000185
  0
LINE
  5
A743
330
1F
100
AcDbEntity
  8
0
  6
Continuous
 62
     7
 48
0.5
370
    -3
100
AcDbLine
 10
10.4999999999977
 20
8.50000000000354
 30
0.0
 11
11.25193957394302
 21
8.500000000003826
 31
0.0
  0
LINE
  5
A744
330
1F
100
AcDbEntity
  8
0
  6
Continuous
 62
     7
 48
0.5
370
    -3
100
AcDbLine
 10
11.49999999999789
 20
8.00000000000392
 30
0.0
 11
11.499999999999
 21
5.000000000003919
 31
0.0
  0
ARC
  5
A745
330
1F
100
AcDbEntity
  8
0
  6
Continuous
 62
     7
 48
0.5
370
    -3
100
AcDbCircle
 10
10.9999999999979
 20
8.000000000003728
 30
0.0
 40
0.5
100
AcDbArc
 50
0.0000000000185748
 51
90.00000000002279
  0
LINE
  5
A746
330
1F
100
AcDbEntity
  8
0
  6
Continuous
 62
     7
 48
0.5
370
    -3
100
AcDbLine
 10
22.79999999999953
 20
4.331818181825951
 30
0.0
 11
19.19999999999831
 21
6.350000000006647
 31
0.0
  0
LINE
  5
A747
330
1F
100
AcDbEntity
  8
0
  6
Continuous
 62
     7
 48
0.5
370
    -3
100
AcDbLine
 10
12.39580191441112
 20
7.187405743243514
 30
0.0
 11
11.57752551286015
 21
4.732576538586584
 31
0.0
  0
LINE
  5
A748
330
1F
100
AcDbEntity
  8
0
  6
Continuous
 62
     7
 48
0.5
370
    -3
100
AcDbLine
 10
22.4999999999998
 20
3.000000000007764
 30
0.0
 11
52.49999999999997
 21
3.000000000016549
 31
0.0
  0
LINE
  5
A749
330
1F
100
AcDbEntity
  8
0
  6
Continuous
 62
     7
 48
0.5
370
    -3
100
AcDbLine
 10
22.50872921308152
 20
6.208594758334621
 30
0.0
 11
44.49999999999849
 21
6.208594758342192
 31
0.0
  0
LINE
  5
A74A
330
1F
100
AcDbEntity
  8
0
  6
Continuous
 62
     7
 48
0.5
370
    -3
100
AcDbLine
 10
22.79999999999993
 20
3.000000000007764
 30
0.0
 11
22.79999999999942
 21
4.375206642482487
 31
0.0
  0
ARC
  5
A74B
330
1F
100
AcDbEntity
  8
0
  6
Continuous
 62
     7
 48
0.5
370
    -3
100
AcDbCircle
 10
22.29999999999941
 20
4.375206642482297
 30
0.0
 40
0.5
100
AcDbArc
 50
0.0000000000185494
 51
60.62083147804145
  0
LINE
  5
A74C
330
1F
100
AcDbEntity
  8
0
  6
Continuous
 62
     7
 48
0.5
370
    -3
100
AcDbLine
 10
13.99999999999912
 20
4.800000000004827
 30
0.0
 11
13.99999999999838
 21
6.467233877283757
 31
0.0
  0
LINE
  5
A74D
330
1F
100
AcDbEntity
  8
0
  6
Continuous
 62
     7
 48
0.5
370
    -3
100
AcDbLine
 10
10.04678909060664
 20
11.84746231992467
 30
0.0
 11
22.54529348355212
 21
4.810902760122241
 31
0.0
  0
LINE
  5
A74E
330
1F
100
AcDbEntity
  8
0
  6
Continuous
 62
     7
 48
0.5
370
    -3
100
AcDbLine
 10
10.6354934511333
 20
12.8931330022603
 30
0.0
 11
23.64341087697332
 21
5.569777916065177
 31
0.0
  0
LINE
  5
A74F
330
1F
100
AcDbEntity
  8
0
  6
Continuous
 62
     7
 48
0.5
370
    -3
100
AcDbLine
 10
10.29208257415931
 20
12.2831584375645
 30
0.0
 11
23.29999999999925
 21
4.959803351369371
 31
0.0
  0
LINE
  5
A750
330
1F
100
AcDbEntity
  8
0
  6
Continuous
 62
     7
 48
0.5
370
    -3
100
AcDbLine
 10
8.918439066263005
 20
9.843260178781271
 30
0.0
 11
11.4999999999977
 21
8.389861700340983
 31
0.0
  0
ARC
  5
A751
330
1F
100
AcDbEntity
  8
0
  6
Continuous
 62
     7
 48
0.5
370
    -3
100
AcDbCircle
 10
11.25193957394313
 20
8.300000000003826
 30
0.0
 40
0.2
100
AcDbArc
 50
60.62083147802654
 51
90.00000000002279
  0
ARC
  5
A752
330
1F
100
AcDbEntity
  8
0
  6
Continuous
 62
     7
 48
0.5
370
    -3
100
AcDbCircle
 10
2.540808493886004
 20
-1.48483887985543
 30
0.0
 40
15.3
100
AcDbArc
 50
60.62083147804145
 51
68.39330988732221
  0
ARC
  5
A753
330
1F
100
AcDbEntity
  8
0
  6
Continuous
 62
     7
 48
0.5
370
    -3
100
AcDbCircle
 10
2.540808493886004
 20
-1.48483887985543
 30
0.0
 40
16.5
100
AcDbArc
 50
60.62083147804145
 51
68.39330988732221
  0
ARC
  5
A754
330
1F
100
AcDbEntity
  8
0
  6
Continuous
 62
     7
 48
0.5
370
    -3
100
AcDbCircle
 10
2.540808493886004
 20
-1.48483887985543
 30
0.0
 40
15.8
100
AcDbArc
 50
60.62083147804145
 51
68.39330988732221
  0
ARC
  5
A755
330
1F
100
AcDbEntity
  8
0
  6
Continuous
 62
     7
 48
0.5
370
    -3
100
AcDbCircle
 10
2.540808493886004
 20
-1.48483887985543
 30
0.0
 40
13.0
100
AcDbArc
 50
60.62083147804145
 51
68.39330988732221
  0
ARC
  5
A756
330
1F
100
AcDbEntity
  8
0
  6
Continuous
 62
     7
 48
0.5
370
    -3
100
AcDbCircle
 10
11.9214602653864
 20
7.345519626251745
 30
0.0
 40
0.5
100
AcDbArc
 50
341.5650511771
 51
48.33533930518997
  0
LINE
  5
A757
330
1F
100
AcDbEntity
  8
0
  6
Continuous
 62
     7
 48
0.5
370
    -3
100
AcDbLine
 10
11.4999999999977
 20
8.389861700340983
 30
0.0
 11
12.25384512101195
 21
7.71904379916532
 31
0.0
  0
LINE
  5
A758
330
1F
100
AcDbEntity
  8
0
  6
Continuous
 62
     7
 48
0.5
370
    -3
100
AcDbLine
 10
44.49999999999564
 20
14.00000000001533
 30
0.0
 11
8.243178998416823
 21
14.00000000000279
 31
0.0
  0
LINE
  5
A759
330
1F
100
AcDbEntity
  8
0
  6
Continuous
 62
     7
 48
0.5
370
    -3
100
AcDbLine
 10
22.79999999999993
 20
3.000000000007764
 30
0.0
 11
23.9999999999998
 21
3.000000000008221
 31
0.0
  0
LINE
  5
A75A
330
1F
100
AcDbEntity
  8
0
  6
Continuous
 62
     7
 48
0.5
370
    -3
100
AcDbLine
 10
23.9999999999998
 20
3.000000000008221
 30
0.0
 11
23.99999999999912
 21
4.959803351369635
 31
0.0
  0
ARC
  5
A75B
330
1F
100
AcDbEntity
  8
0
  6
Continuous
 62
     7
 48
0.5
370
    -3
100
AcDbCircle
 10
23.29999999999925
 20
4.959803351369371
 30
0.0
 40
0.7
100
AcDbArc
 50
0.0000000000185494
 51
60.62083147804145
  0
LINE
  5
A75C
330
1F
100
AcDbEntity
  8
0
  6
Continuous
 62
     7
 48
0.5
370
    -3
100
AcDbLine
 10
14.44717609013079
 20
6.730624767708643
 30
0.0
 11
18.32546458068023
 21
4.547178885235362
 31
0.0
  0
ARC
  5
A75D
330
1F
100
AcDbEntity
  8
0
  6
Continuous
 62
     7
 48
0.5
370
    -3
100
AcDbCircle
 10
14.29999999999862
 20
6.469207097124791
 30
0.0
 40
0.3
100
AcDbArc
 50
60.62083147804145
 51
180.0000000000185
  0
LINE
  5
A75E
330
1F
100
AcDbEntity
  8
0
  6
Continuous
 62
     7
 48
0.5
370
    -3
100
AcDbLine
 10
19.19999999999831
 20
6.350000000006628
 30
0.0
 11
18.76224968872074
 21
4.730323848276588
 31
0.0
  0
ARC
  5
A75F
330
1F
100
AcDbEntity
  8
0
  6
Continuous
 62
     7
 48
0.5
370
    -3
100
AcDbCircle
 10
18.47264067081235
 20
4.808596555819329
 30
0.0
 40
0.3
100
AcDbArc
 50
240.6208314780414
 51
344.8759926917144
  0
LINE
  5
A760
330
1F
100
AcDbEntity
  8
0
  6
Continuous
 62
     7
 48
0.5
370
    -3
100
AcDbLine
 10
44.4999999999998
 20
3.000000000014201
 30
0.0
 11
44.49999999999531
 21
14.8000000000154
 31
0.0
  0
LINE
  5
A761
330
1F
100
AcDbEntity
  8
0
  6
Continuous
 62
     7
 48
0.5
370
    -3
100
AcDbLine
 10
52.49999999999997
 20
3.000000000017019
 30
0.0
 11
52.49999999999548
 21
14.8000000000181
 31
0.0
  0
ARC
  5
A762
330
1F
100
AcDbEntity
  8
0
  6
Continuous
 62
     7
 48
0.5
370
    -3
100
AcDbCircle
 10
48.49999999999951
 20
3.721428571445165
 30
0.0
 40
11.77857142857161
100
AcDbArc
 50
70.14750898670707
 51
109.8524910133345
  0
ARC
  5
A763
330
1F
100
AcDbEntity
  8
0
  6
Continuous
 62
     7
 48
0.5
370
    -3
100
AcDbCircle
 10
13.69999999999893
 20
4.80000000000471
 30
0.0
 40
0.3
100
AcDbArc
 50
270.0000000000228
 51
0.0000000000185494
  0
LINE
  5
A764
330
1F
100
AcDbEntity
  8
0
  6
Continuous
 62
     7
 48
0.5
370
    -3
100
AcDbLine
 10
23.99999999999923
 20
4.500000000008334
 30
0.0
 11
44.49999999999917
 21
4.500000000016133
 31
0.0
  0
ARC
  5
A765
330
1F
100
AcDbEntity
  8
0
  6
Continuous
 62
     7
 48
0.5
370
    -3
100
AcDbCircle
 10
23.29999999999202
 20
26.19999999999917
 30
0.0
 40
0.7
100
AcDbArc
 50
270.0
 51
359.9999999999968
  0
LINE
  5
A766
330
1F
100
AcDbEntity
  8
0
  6
Continuous
 62
     7
 48
0.5
370
    -3
100
AcDbLine
 10
23.99999999999281
 20
26.19999999999917
 30
0.0
 11
23.99999999999281
 21
32.79999999999907
 31
0.0
  0
ARC
  5
A767
330
1F
100
AcDbEntity
  8
0
  6
Continuous
 62
     7
 48
0.5
370
    -3
100
AcDbCircle
 10
23.29999999999288
 20
32.79999999999907
 30
0.0
 40
0.7
100
AcDbArc
 50
359.9999999999968
 51
90.0
  0
LINE
  5
A768
330
1F
100
AcDbEntity
  8
0
  6
Continuous
 62
     7
 48
0.5
370
    -3
100
AcDbLine
 10
52.4999999999948
 20
101.2999999999981
 30
0.0
 11
52.49999999999343
 21
54.69999999999802
 31
0.0
  0
ARC
  5
A769
330
1F
100
AcDbEntity
  8
0
  6
Continuous
 62
     7
 48
0.5
370
    -3
100
AcDbCircle
 10
51.79999999999498
 20
101.2999999999981
 30
0.0
 40
0.7
100
AcDbArc
 50
359.9999999999968
 51
90.0
  0
LINE
  5
A76A
330
1F
100
AcDbEntity
  8
0
  6
Continuous
 62
     7
 48
0.5
370
    -3
100
AcDbLine
 10
51.79999999999322
 20
53.9999999999982
 30
0.0
 11
45.19999999999342
 21
53.99999999999843
 31
0.0
  0
ARC
  5
A76B
330
1F
100
AcDbEntity
  8
0
  6
Continuous
 62
     7
 48
0.5
370
    -3
100
AcDbCircle
 10
51.79999999999322
 20
54.69999999999802
 30
0.0
 40
0.7
100
AcDbArc
 50
270.0
 51
359.9999999999968
  0
LINE
  5
A76C
330
1F
100
AcDbEntity
  8
0
  6
Continuous
 62
     7
 48
0.5
370
    -3
100
AcDbLine
 10
51.79999999999498
 20
101.9999999999979
 30
0.0
 11
45.19999999999519
 21
101.9999999999982
 31
0.0
  0
ARC
  5
A76D
330
1F
100
AcDbEntity
  8
0
  6
Continuous
 62
     7
 48
0.5
370
    -3
100
AcDbCircle
 10
45.19999999999519
 20
101.2999999999984
 30
0.0
 40
0.7
100
AcDbArc
 50
90.0
 51
179.9999999999966
  0
ARC
  5
A76E
330
1F
100
AcDbEntity
  8
0
  6
Continuous
 62
     7
 48
0.5
370
    -3
100
AcDbCircle
 10
45.19999999999342
 20
54.69999999999826
 30
0.0
 40
0.7
100
AcDbArc
 50
179.9999999999966
 51
270.0
  0
LINE
  5
A76F
330
1F
100
AcDbEntity
  8
0
  6
Continuous
 62
     7
 48
0.5
370
    -3
100
AcDbLine
 10
44.49999999999451
 20
101.2999999999984
 30
0.0
 11
44.4999999999936
 21
54.69999999999826
 31
0.0
  0
LINE
  5
A770
330
1F
100
AcDbEntity
  8
0
  6
Continuous
 62
     7
 48
0.5
370
    -3
100
AcDbLine
 10
32.4999999999927
 20
58.7999999999993
 30
0.0
 11
44.4999999999936
 21
58.79999999999839
 31
0.0
  0
ARC
  5
A771
330
1F
100
AcDbEntity
  8
0
  6
Continuous
 62
     7
 48
0.5
370
    -3
100
AcDbCircle
 10
32.4999999999927
 20
45.49999999999911
 30
0.0
 40
13.3
100
AcDbArc
 50
90.0
 51
179.9999999999966
  0
LINE
  5
A772
330
1F
100
AcDbEntity
  8
0
  6
Continuous
 62
     7
 48
0.5
370
    -3
100
AcDbLine
 10
32.4999999999927
 20
55.49999999999911
 30
0.0
 11
44.4999999999936
 21
55.49999999999866
 31
0.0
  0
ARC
  5
A773
330
1F
100
AcDbEntity
  8
0
  6
Continuous
 62
     7
 48
0.5
370
    -3
100
AcDbCircle
 10
32.4999999999927
 20
45.49999999999911
 30
0.0
 40
10.0
100
AcDbArc
 50
90.0
 51
179.9999999999966
  0
LINE
  5
A774
330
1F
100
AcDbEntity
  8
0
  6
Continuous
 62
     7
 48
0.5
370
    -3
100
AcDbLine
 10
19.19999999999262
 20
33.49999999999935
 30
0.0
 11
19.19999999999262
 21
45.49999999999957
 31
0.0
  0
LINE
  5
A775
330
1F
100
AcDbEntity
  8
0
  6
Continuous
 62
     7
 48
0.5
370
    -3
100
AcDbLine
 10
22.49999999999184
 20
33.49999999999913
 30
0.0
 11
22.49999999999269
 21
45.49999999999957
 31
0.0
  0
ARC
  5
A776
330
1F
100
AcDbEntity
  8
0
  6
Continuous
 62
     7
 48
0.5
370
    -3
100
AcDbCircle
 10
132.987949691183
 20
8.799999999994074
 30
0.0
 40
0.2
100
AcDbArc
 50
90.0
 51
142.7972662840345
  0
ARC
  5
A777
330
1F
100
AcDbEntity
  8
0
  6
Continuous
 62
     7
 48
0.5
370
    -3
100
AcDbCircle
 10
155.196112743648
 20
-3.307252613953137
 30
0.0
 40
20.0
100
AcDbArc
 50
63.01976928176385
 51
73.86752595236043
  0
ARC
  5
A778
330
1F
100
AcDbEntity
  8
0
  6
Continuous
 62
     7
 48
0.5
370
    -3
100
AcDbCircle
 10
155.196112743648
 20
-3.307252613953137
 30
0.0
 40
19.0
100
AcDbArc
 50
63.01976928176385
 51
73.86752595236043
  0
ARC
  5
A779
330
1F
100
AcDbEntity
  8
0
  6
Continuous
 62
     7
 48
0.5
370
    -3
100
AcDbCircle
 10
163.4999999999326
 20
5.499999999994045
 30
0.0
 40
1.0
100
AcDbArc
 50
270.0
 51
0.0000000000032639
  0
LINE
  5
A77A
330
1F
100
AcDbEntity
  8
0
  6
Continuous
 62
     7
 48
0.5
370
    -3
100
AcDbLine
 10
162.4550413943675
 20
10.95135723566995
 30
0.0
 11
165.9999999999336
 21
9.146651036472304
 31
0.0
  0
LINE
  5
A77B
330
1F
100
AcDbEntity
  8
0
  6
Continuous
 62
     7
 48
0.5
370
    -3
100
AcDbLine
 10
163.5892489960406
 20
13.17926502467413
 30
0.0
 11
179.7268415202684
 21
4.963763375976057
 31
0.0
  0
LINE
  5
A77C
330
1F
100
AcDbEntity
  8
0
  6
Continuous
 62
     7
 48
0.5
370
    -3
100
AcDbLine
 10
205.4999999998627
 20
15.49999999999412
 30
0.0
 11
161.9995860562412
 21
15.49999999999415
 31
0.0
  0
ARC
  5
A77D
330
1F
100
AcDbEntity
  8
0
  6
Continuous
 62
     7
 48
0.5
370
    -3
100
AcDbCircle
 10
210.9999999998626
 20
1.874999999994101
 30
0.0
 40
15.625
100
AcDbArc
 50
69.39030706258775
 51
110.6096929375236
  0
LINE
  5
A77E
330
1F
100
AcDbEntity
  8
0
  6
Continuous
 62
     7
 48
0.5
370
    -3
100
AcDbLine
 10
216.4999999998626
 20
2.999999999994101
 30
0.0
 11
205.4999999998627
 21
2.999999999994101
 31
0.0
  0
LINE
  5
A77F
330
1F
100
AcDbEntity
  8
0
  6
Continuous
 62
     7
 48
0.5
370
    -3
100
AcDbLine
 10
216.4999999998353
 20
2.999999999994101
 30
0.0
 11
216.4999999998353
 21
16.5000000000044
 31
0.0
  0
LINE
  5
A780
330
1F
100
AcDbEntity
  8
0
  6
Continuous
 62
     7
 48
0.5
370
    -3
100
AcDbLine
 10
205.4999999998627
 20
16.49999999999409
 30
0.0
 11
205.4999999998627
 21
2.999999999994101
 31
0.0
  0
LINE
  5
A781
330
1F
100
AcDbEntity
  8
0
  6
Continuous
 62
     7
 48
0.5
370
    -3
100
AcDbLine
 10
163.8160905163754
 20
13.62484658247485
 30
0.0
 11
180.4999999999326
 21
5.131219936300354
 31
0.0
  0
LINE
  5
A782
330
1F
100
AcDbEntity
  8
0
  6
Continuous
 62
     7
 48
0.5
370
    -3
100
AcDbLine
 10
164.2697735570454
 20
14.51600969807635
 30
0.0
 11
180.9536830406035
 21
6.022383051900774
 31
0.0
  0
LINE
  5
A783
330
1F
100
AcDbEntity
  8
0
  6
Continuous
 62
     7
 48
0.5
370
    -3
100
AcDbLine
 10
180.6588839858354
 20
6.172243786803746
 30
0.0
 11
205.4999999998627
 21
6.172243786803746
 31
0.0
  0
LINE
  5
A784
330
1F
100
AcDbEntity
  8
0
  6
Continuous
 62
     7
 48
0.5
370
    -3
100
AcDbLine
 10
181.4999999999331
 20
4.499999999994102
 30
0.0
 11
205.4999999998627
 21
4.499999999994102
 31
0.0
  0
LINE
  5
A785
330
1F
100
AcDbEntity
  8
0
  6
Continuous
 62
     7
 48
0.5
370
    -3
100
AcDbLine
 10
167.0287354027864
 20
6.968964966842705
 30
0.0
 11
166.0894311959382
 21
4.714634870403984
 31
0.0
  0
ARC
  5
A786
330
1F
100
AcDbEntity
  8
0
  6
Continuous
 62
     7
 48
0.5
370
    -3
100
AcDbCircle
 10
166.1056584797093
 20
7.353580351457948
 30
0.0
 40
1.0
100
AcDbArc
 50
337.3801350519894
 51
37.20273371595683
  0
ARC
  5
A787
330
1F
100
AcDbEntity
  8
0
  6
Continuous
 62
     7
 48
0.5
370
    -3
100
AcDbCircle
 10
169.2499999999322
 20
6.931041068319769
 30
0.0
 40
0.5
100
AcDbArc
 50
63.01976928176385
 51
180.0
  0
LINE
  5
A788
330
1F
100
AcDbEntity
  8
0
  6
Continuous
 62
     7
 48
0.5
370
    -3
100
AcDbLine
 10
168.7499999999326
 20
4.999999999994102
 30
0.0
 11
168.7499999999322
 21
6.931041068319769
 31
0.0
  0
ARC
  5
A789
330
1F
100
AcDbEntity
  8
0
  6
Continuous
 62
     7
 48
0.5
370
    -3
100
AcDbCircle
 10
168.2499999999326
 20
4.999999999994159
 30
0.0
 40
0.5
100
AcDbArc
 50
270.0
 51
359.9999999999935
  0
LINE
  5
A78A
330
1F
100
AcDbEntity
  8
0
  6
Continuous
 62
     7
 48
0.5
370
    -3
100
AcDbLine
 10
165.9999999999326
 20
9.146651036473498
 30
0.0
 11
166.9021595499856
 21
7.958217469941885
 31
0.0
  0
ARC
  5
A78B
330
1F
100
AcDbEntity
  8
0
  6
Continuous
 62
     7
 48
0.5
370
    -3
100
AcDbCircle
 10
166.0120503086825
 20
8.799999999994074
 30
0.0
 40
0.2
100
AcDbArc
 50
37.20273371596679
 51
90.0
  0
LINE
  5
A78C
330
1F
100
AcDbEntity
  8
0
  6
Continuous
 62
     7
 48
0.5
370
    -3
100
AcDbLine
 10
169.476841520267
 20
7.376622626120492
 30
0.0
 11
174.9400259374524
 21
4.595365104643988
 31
0.0
  0
LINE
  5
A78D
330
1F
100
AcDbEntity
  8
0
  6
Continuous
 62
     7
 48
0.5
370
    -3
100
AcDbLine
 10
165.9999999999331
 20
4.99999999999413
 30
0.0
 11
165.9999999999326
 21
8.49999999999413
 31
0.0
  0
ARC
  5
A78E
330
1F
100
AcDbEntity
  8
0
  6
Continuous
 62
     7
 48
0.5
370
    -3
100
AcDbCircle
 10
166.4999999999331
 20
4.99999999999413
 30
0.0
 40
0.5
100
AcDbArc
 50
180.0
 51
270.0
  0
LINE
  5
A78F
330
1F
100
AcDbEntity
  8
0
  6
Continuous
 62
     7
 48
0.5
370
    -3
100
AcDbLine
 10
166.0120503086825
 20
8.999999999994072
 30
0.0
 11
164.9999999999322
 21
8.999999999994072
 31
0.0
  0
ARC
  5
A790
330
1F
100
AcDbEntity
  8
0
  6
Continuous
 62
     7
 48
0.5
370
    -3
100
AcDbCircle
 10
165.4999999999327
 20
8.499999999994072
 30
0.0
 40
0.5
100
AcDbArc
 50
0.000000000000007
 51
90.0
  0
ARC
  5
A791
330
1F
100
AcDbEntity
  8
0
  6
Continuous
 62
     7
 48
0.5
370
    -3
100
AcDbCircle
 10
164.9999999999322
 20
8.499999999994072
 30
0.0
 40
0.5
100
AcDbArc
 50
90.0
 51
180.0000000000031
  0
LINE
  5
A792
330
1F
100
AcDbEntity
  8
0
  6
Continuous
 62
     7
 48
0.5
370
    -3
100
AcDbLine
 10
164.4999999999327
 20
5.49999999999413
 30
0.0
 11
164.4999999999322
 21
8.499999999994017
 31
0.0
  0
LINE
  5
A793
330
1F
100
AcDbEntity
  8
0
  6
Continuous
 62
     7
 48
0.5
370
    -3
100
AcDbLine
 10
175.6999999999325
 20
4.499999999994159
 30
0.0
 11
166.4999999999331
 21
4.49999999999413
 31
0.0
  0
ARC
  5
A794
330
1F
100
AcDbEntity
  8
0
  6
Continuous
 62
     7
 48
0.5
370
    -3
100
AcDbCircle
 10
155.196112743648
 20
-3.307252613953137
 30
0.0
 40
18.5
100
AcDbArc
 50
63.01976928176385
 51
73.86752595236043
  0
ARC
  5
A795
330
1F
100
AcDbEntity
  8
0
  6
Continuous
 62
     7
 48
0.5
370
    -3
100
AcDbCircle
 10
155.196112743648
 20
-3.307252613953137
 30
0.0
 40
16.0
100
AcDbArc
 50
63.01976928176385
 51
73.86752595236043
  0
LINE
  5
A796
330
1F
100
AcDbEntity
  8
0
  6
Continuous
 62
     7
 48
0.5
370
    -3
100
AcDbLine
 10
181.4999999999326
 20
2.999999999993704
 30
0.0
 11
181.4999999999341
 21
5.131219936298705
 31
0.0
  0
ARC
  5
A797
330
1F
100
AcDbEntity
  8
0
  6
Continuous
 62
     7
 48
0.5
370
    -3
100
AcDbCircle
 10
180.499999999934
 20
5.131219936299302
 30
0.0
 40
1.0
100
AcDbArc
 50
359.9999999999643
 51
63.01976928176389
  0
LINE
  5
A798
330
1F
100
AcDbEntity
  8
0
  6
Continuous
 62
     7
 48
0.5
370
    -3
100
AcDbLine
 10
179.9999999999327
 20
2.999999999994045
 30
0.0
 11
179.9999999999336
 21
4.51818181817542
 31
0.0
  0
LINE
  5
A799
330
1F
100
AcDbEntity
  8
0
  6
Continuous
 62
     7
 48
0.5
370
    -3
100
AcDbLine
 10
179.4999999999326
 20
2.999999999994101
 30
0.0
 11
179.4999999999326
 21
4.499999999994102
 31
0.0
  0
LINE
  5
A79A
330
1F
100
AcDbEntity
  8
0
  6
Continuous
 62
     7
 48
0.5
370
    -3
100
AcDbLine
 10
179.4999999999326
 20
2.999999999994101
 30
0.0
 11
179.4999999999326
 21
4.499999999994102
 31
0.0
  0
LINE
  5
A79B
330
1F
100
AcDbEntity
  8
0
  6
Continuous
 62
     7
 48
0.5
370
    -3
100
AcDbLine
 10
179.4999999999326
 20
2.999999999994101
 30
0.0
 11
179.4999999999326
 21
4.499999999994102
 31
0.0
  0
LINE
  5
A79C
330
1F
100
AcDbEntity
  8
0
  6
Continuous
 62
     7
 48
0.5
370
    -3
100
AcDbLine
 10
179.4999999999326
 20
2.999999999994101
 30
0.0
 11
179.4999999999326
 21
4.499999999994102
 31
0.0
  0
ARC
  5
A79D
330
1F
100
AcDbEntity
  8
0
  6
Continuous
 62
     7
 48
0.5
370
    -3
100
AcDbCircle
 10
179.4999999999336
 20
4.518181818175533
 30
0.0
 40
0.5
100
AcDbArc
 50
359.999999999987
 51
63.01976928176385
  0
ARC
  5
A79E
330
1F
100
AcDbEntity
  8
0
  6
Continuous
 62
     7
 48
0.5
370
    -3
100
AcDbCircle
 10
175.0761308496535
 20
4.862714039324443
 30
0.0
 40
0.3
100
AcDbArc
 50
243.0197692817638
 51
337.3801350519274
  0
LINE
  5
A79F
330
1F
100
AcDbEntity
  8
0
  6
Continuous
 62
     7
 48
0.5
370
    -3
100
AcDbLine
 10
175.0761308496535
 20
4.562714039324432
 30
0.0
 11
175.8835629942123
 21
4.562714039324432
 31
0.0
  0
LINE
  5
A7A0
330
1F
100
AcDbEntity
  8
0
  6
Continuous
 62
     7
 48
0.5
370
    -3
100
AcDbLine
 10
175.9999999999328
 20
6.299999999994014
 30
0.0
 11
175.3530539265766
 21
4.747329423939802
 31
0.0
  0
ARC
  5
A7A1
330
1F
100
AcDbEntity
  8
0
  6
Continuous
 62
     7
 48
0.5
370
    -3
100
AcDbCircle
 10
175.6999999999325
 20
4.79999999999417
 30
0.0
 40
0.3
100
AcDbArc
 50
270.0
 51
0.000000000000007
  0
LINE
  5
A7A2
330
1F
100
AcDbEntity
  8
0
  6
Continuous
 62
     7
 48
0.5
370
    -3
100
AcDbLine
 10
175.9999999999326
 20
4.79999999999417
 30
0.0
 11
175.9999999999326
 21
5.972243786803757
 31
0.0
  0
ARC
  5
A7A3
330
1F
100
AcDbEntity
  8
0
  6
Continuous
 62
     7
 48
0.5
370
    -3
100
AcDbCircle
 10
176.1999999999325
 20
5.97224378680353
 30
0.0
 40
0.2
100
AcDbArc
 50
62.78388844267916
 51
180.0
  0
LINE
  5
A7A4
330
1F
100
AcDbEntity
  8
0
  6
Continuous
 62
     7
 48
0.5
370
    -3
100
AcDbLine
 10
175.9999999999326
 20
4.79999999999417
 30
0.0
 11
175.9999999999326
 21
5.972243786803757
 31
0.0
  0
LINE
  5
A7A5
330
1F
100
AcDbEntity
  8
0
  6
Continuous
 62
     7
 48
0.5
370
    -3
100
AcDbLine
 10
175.9999999999328
 20
6.299999999994035
 30
0.0
 11
179.9999999999334
 21
4.242857142850902
 31
0.0
  0
ARC
  5
A7A6
330
1F
100
AcDbEntity
  8
0
  6
Continuous
 62
     7
 48
0.5
370
    -3
100
AcDbCircle
 10
175.6999999999325
 20
4.799999999994142
 30
0.0
 40
0.3
100
AcDbArc
 50
270.0
 51
0.000000000000007
  0
ARC
  5
A7A7
330
1F
100
AcDbEntity
  8
0
  6
Continuous
 62
     7
 48
0.5
370
    -3
100
AcDbCircle
 10
176.1999999999325
 20
5.972243786803757
 30
0.0
 40
0.2
100
AcDbArc
 50
62.78388844267916
 51
180.0
  0
LINE
  5
A7A8
330
1F
100
AcDbEntity
  8
0
  6
Continuous
 62
     7
 48
0.5
370
    -3
100
AcDbLine
 10
216.4999999998966
 20
125.4999999999249
 30
0.0
 11
216.4999999998322
 21
63.49999999992964
 31
0.0
  0
LINE
  5
A7A9
330
1F
100
AcDbEntity
  8
0
  6
Continuous
 62
     7
 48
0.5
370
    -3
100
AcDbLine
 10
205.4999999998968
 20
125.499999999923
 30
0.0
 11
205.4999999998322
 21
63.49999999993601
 31
0.0
  0
ARC
  5
A7AA
330
1F
100
AcDbEntity
  8
0
  6
Continuous
 62
     7
 48
0.5
370
    -3
100
AcDbCircle
 10
194.4999999999284
 20
49.49999999992918
 30
0.0
 40
15.0
100
AcDbArc
 50
90.0
 51
180.0
  0
ARC
  5
A7AB
330
1F
100
AcDbEntity
  8
0
  6
Continuous
 62
     7
 48
0.5
370
    -3
100
AcDbCircle
 10
194.4999999999284
 20
49.49999999992918
 30
0.0
 40
18.5
100
AcDbArc
 50
90.0
 51
180.0
  0
LINE
  5
A7AC
330
1F
100
AcDbEntity
  8
0
  6
Continuous
 62
     7
 48
0.5
370
    -3
100
AcDbLine
 10
175.999999999929
 20
38.50000000002264
 30
0.0
 11
175.999999999929
 21
49.49999999999945
 31
0.0
  0
LINE
  5
A7AD
330
1F
100
AcDbEntity
  8
0
  6
Continuous
 62
     7
 48
0.5
370
    -3
100
AcDbLine
 10
179.4999999999286
 20
49.49999999992925
 30
0.0
 11
179.4999999999172
 21
38.50000000002644
 31
0.0
  0
LINE
  5
A7AE
330
1F
100
AcDbEntity
  8
0
  6
Continuous
 62
     7
 48
0.5
370
    -3
100
AcDbLine
 10
194.499999999929
 20
64.49999999992925
 30
0.0
 11
205.4999999998331
 21
64.49999999992925
 31
0.0
  0
LINE
  5
A7AF
330
1F
100
AcDbEntity
  8
0
  6
Continuous
 62
     7
 48
0.5
370
    -3
100
AcDbLine
 10
205.4999999998363
 20
67.99999999993055
 30
0.0
 11
194.4999999998599
 21
67.99999999993009
 31
0.0
  0
ARC
  5
A7B0
330
1F
100
AcDbEntity
  8
0
  6
Continuous
 62
     7
 48
0.5
370
    -3
100
AcDbCircle
 10
180.4999999999222
 20
37.50000000004083
 30
0.0
 40
1.0
100
AcDbArc
 50
0.0000000000260621
 51
90.00000000010421
  0
ARC
  5
A7B1
330
1F
100
AcDbEntity
  8
0
  6
Continuous
 62
     7
 48
0.5
370
    -3
100
AcDbCircle
 10
180.4999999999263
 20
28.50000000004083
 30
0.0
 40
1.0
100
AcDbArc
 50
270.0000000001042
 51
0.0000000000260621
  0
LINE
  5
A7B2
330
1F
100
AcDbEntity
  8
0
  6
Continuous
 62
     7
 48
0.5
370
    -3
100
AcDbLine
 10
181.4999999999263
 20
28.50000000004174
 30
0.0
 11
181.4999999999222
 21
37.50000000004128
 31
0.0
  0
ARC
  5
A7B3
330
1F
100
AcDbEntity
  8
0
  6
Continuous
 62
     7
 48
0.5
370
    -3
100
AcDbCircle
 10
206.4999999998308
 20
63.49999999993398
 30
0.0
 40
1.0
100
AcDbArc
 50
179.9999999999381
 51
270.0
  0
ARC
  5
A7B4
330
1F
100
AcDbEntity
  8
0
  6
Continuous
 62
     7
 48
0.5
370
    -3
100
AcDbCircle
 10
215.4999999998303
 20
63.49999999993396
 30
0.0
 40
1.0
100
AcDbArc
 50
270.0
 51
359.9999999999381
  0
LINE
  5
A7B5
330
1F
100
AcDbEntity
  8
0
  6
Continuous
 62
     7
 48
0.5
370
    -3
100
AcDbLine
 10
215.4999999998303
 20
62.49999999993396
 30
0.0
 11
206.4999999998308
 21
62.499999999934
 31
0.0
  0
ARC
  5
A7B6
330
1F
100
AcDbEntity
  8
0
  6
Continuous
 62
     7
 48
0.5
370
    -3
100
AcDbCircle
 10
206.4999999998167
 20
125.4999999999219
 30
0.0
 40
1.0
100
AcDbArc
 50
90.00000000002605
 51
180.000000000088
  0
ARC
  5
A7B7
330
1F
100
AcDbEntity
  8
0
  6
Continuous
 62
     7
 48
0.5
370
    -3
100
AcDbCircle
 10
215.4999999998167
 20
125.499999999926
 30
0.0
 40
1.0
100
AcDbArc
 50
0.000000000087943
 51
90.00000000002605
  0
LINE
  5
A7B8
330
1F
100
AcDbEntity
  8
0
  6
Continuous
 62
     7
 48
0.5
370
    -3
100
AcDbLine
 10
215.4999999998158
 20
126.499999999926
 30
0.0
 11
206.4999999998163
 21
126.4999999999219
 31
0.0
  0
ARC
  5
A7B9
330
1F
100
AcDbEntity
  8
0
  6
Continuous
 62
     7
 48
0.5
370
    -3
100
AcDbCircle
 10
312.0105882954039
 20
9.899999999989201
 30
0.0
 40
0.2
100
AcDbArc
 50
90.00000000003094
 51
147.1150239767849
  0
LINE
  5
A7BA
330
1F
100
AcDbEntity
  8
0
  6
Continuous
 62
     7
 48
0.5
370
    -3
100
AcDbLine
 10
352.899999999839
 20
9.599999999990078
 30
0.0
 11
352.899999999839
 21
5.199999999989939
 31
0.0
  0
ARC
  5
A7BB
330
1F
100
AcDbEntity
  8
0
  6
Continuous
 62
     7
 48
0.5
370
    -3
100
AcDbCircle
 10
352.3999999998388
 20
5.199999999989939
 30
0.0
 40
0.5
100
AcDbArc
 50
270.0
 51
0.000000000000007
  0
LINE
  5
A7BC
330
1F
100
AcDbEntity
  8
0
  6
Continuous
 62
     7
 48
0.5
370
    -3
100
AcDbLine
 10
349.3871016864271
 20
16.99999999999409
 30
0.0
 11
409.4999999998324
 21
16.99999999999398
 31
0.0
  0
LINE
  5
A7BD
330
1F
100
AcDbEntity
  8
0
  6
Continuous
 62
     7
 48
0.5
370
    -3
100
AcDbLine
 10
375.497827315244
 20
4.699999999994033
 30
0.0
 11
409.4999999998327
 21
4.699999999993919
 31
0.0
  0
LINE
  5
A7BE
330
1F
100
AcDbEntity
  8
0
  6
Continuous
 62
     7
 48
0.5
370
    -3
100
AcDbLine
 10
372.6300656092445
 20
7.099999999993897
 30
0.0
 11
409.4999999998327
 21
7.09999999999401
 31
0.0
  0
LINE
  5
A7BF
330
1F
100
AcDbEntity
  8
0
  6
Continuous
 62
     7
 48
0.5
370
    -3
100
AcDbLine
 10
358.4273945107485
 20
12.23916364273715
 30
0.0
 11
373.7159796606818
 21
4.916736018295309
 31
0.0
  0
LINE
  5
A7C0
330
1F
100
AcDbEntity
  8
0
  6
Continuous
 62
     7
 48
0.5
370
    -3
100
AcDbLine
 10
358.6433741715911
 20
12.69011018735433
 30
0.0
 11
374.4999999998387
 21
5.095620974877888
 31
0.0
  0
LINE
  5
A7C1
330
1F
100
AcDbEntity
  8
0
  6
Continuous
 62
     7
 48
0.5
370
    -3
100
AcDbLine
 10
359.0753334932772
 20
13.59200327658846
 30
0.0
 11
374.9319593215247
 21
5.997514064112252
 31
0.0
  0
LINE
  5
A7C2
330
1F
100
AcDbEntity
  8
0
  6
Continuous
 62
     7
 48
0.5
370
    -3
100
AcDbLine
 10
355.0734508811727
 20
10.13837563867174
 30
0.0
 11
356.316354842307
 21
8.21603354088212
 31
0.0
  0
ARC
  5
A7C3
330
1F
100
AcDbEntity
  8
0
  6
Continuous
 62
     7
 48
0.5
370
    -3
100
AcDbCircle
 10
354.9894117042737
 20
9.899999999989201
 30
0.0
 40
0.2
100
AcDbArc
 50
32.88497602321789
 51
89.99999999997395
  0
LINE
  5
A7C4
330
1F
100
AcDbEntity
  8
0
  6
Continuous
 62
     7
 48
0.5
370
    -3
100
AcDbLine
 10
355.2999999998383
 20
4.699999999989969
 30
0.0
 11
367.9999999998382
 21
4.699999999994033
 31
0.0
  0
LINE
  5
A7C5
330
1F
100
AcDbEntity
  8
0
  6
Continuous
 62
     7
 48
0.5
370
    -3
100
AcDbLine
 10
354.9716869329691
 20
4.822891885355631
 30
0.0
 11
356.340371477497
 21
7.169208247403013
 31
0.0
  0
LINE
  5
A7C6
330
1F
100
AcDbEntity
  8
0
  6
Continuous
 62
     7
 48
0.5
370
    -3
100
AcDbLine
 10
358.8659796606819
 20
8.591889943523611
 30
0.0
 11
364.4999999998388
 21
5.893490728453812
 31
0.0
  0
LINE
  5
A7C7
330
1F
100
AcDbEntity
  8
0
  6
Continuous
 62
     7
 48
0.5
370
    -3
100
AcDbLine
 10
358.1499999998388
 20
5.199999999993919
 30
0.0
 11
358.1499999998388
 21
8.140943398906429
 31
0.0
  0
ARC
  5
A7C8
330
1F
100
AcDbEntity
  8
0
  6
Continuous
 62
     7
 48
0.5
370
    -3
100
AcDbCircle
 10
358.6499999998388
 20
8.140943398906429
 30
0.0
 40
0.5
100
AcDbArc
 50
64.40803197569147
 51
180.0
  0
LINE
  5
A7C9
330
1F
100
AcDbEntity
  8
0
  6
Continuous
 62
     7
 48
0.5
370
    -3
100
AcDbLine
 10
364.4999999998388
 20
5.893490728453812
 30
0.0
 11
364.4999999998388
 21
5.199999999993919
 31
0.0
  0
ARC
  5
A7CA
330
1F
100
AcDbEntity
  8
0
  6
Continuous
 62
     7
 48
0.5
370
    -3
100
AcDbCircle
 10
364.9999999998388
 20
5.199999999993919
 30
0.0
 40
0.5
100
AcDbArc
 50
180.0
 51
270.0
  0
ARC
  5
A7CB
330
1F
100
AcDbEntity
  8
0
  6
Continuous
 62
     7
 48
0.5
370
    -3
100
AcDbCircle
 10
355.4765925765965
 20
7.673079272928375
 30
0.0
 40
1.0
100
AcDbArc
 50
329.7435628364766
 51
32.88497602320299
  0
ARC
  5
A7CC
330
1F
100
AcDbEntity
  8
0
  6
Continuous
 62
     7
 48
0.5
370
    -3
100
AcDbCircle
 10
357.6499999998388
 20
5.199999999993919
 30
0.0
 40
0.5
100
AcDbArc
 50
270.0
 51
0.000000000000007
  0
ARC
  5
A7CD
330
1F
100
AcDbEntity
  8
0
  6
Continuous
 62
     7
 48
0.5
370
    -3
100
AcDbCircle
 10
368.2999999998385
 20
6.641772730423228
 30
0.0
 40
0.3
100
AcDbArc
 50
80.98748666236543
 51
175.4132969346679
  0
LINE
  5
A7CE
330
1F
100
AcDbEntity
  8
0
  6
Continuous
 62
     7
 48
0.5
370
    -3
100
AcDbLine
 10
373.4999999998382
 20
3.000000000023319
 30
0.0
 11
373.4999999998382
 21
4.53333333332749
 31
0.0
  0
LINE
  5
A7CF
330
1F
100
AcDbEntity
  8
0
  6
Continuous
 62
     7
 48
0.5
370
    -3
100
AcDbLine
 10
367.9999999998382
 20
6.641772730422999
 30
0.0
 11
367.9999999998382
 21
4.699999999994033
 31
0.0
  0
ARC
  5
A7D0
330
1F
100
AcDbEntity
  8
0
  6
Continuous
 62
     7
 48
0.5
370
    -3
100
AcDbCircle
 10
368.2999999998385
 20
6.641772730423228
 30
0.0
 40
0.3
100
AcDbArc
 50
175.4132969346679
 51
180.0
  0
ARC
  5
A7D1
330
1F
100
AcDbEntity
  8
0
  6
Continuous
 62
     7
 48
0.5
370
    -3
100
AcDbCircle
 10
373.4999999998388
 20
4.465789473678128
 30
0.0
 40
0.5
100
AcDbArc
 50
0.000000000000007
 51
64.40803197569147
  0
ARC
  5
A7D2
330
1F
100
AcDbEntity
  8
0
  6
Continuous
 62
     7
 48
0.5
370
    -3
100
AcDbCircle
 10
374.4999999998387
 20
5.095620974877888
 30
0.0
 40
1.0
100
AcDbArc
 50
359.9999999999968
 51
64.40803197569147
  0
LINE
  5
A7D3
330
1F
100
AcDbEntity
  8
0
  6
Continuous
 62
     7
 48
0.5
370
    -3
100
AcDbLine
 10
367.9999999998388
 20
5.599999999993896
 30
0.0
 11
366.799999999839
 21
4.699999999993919
 31
0.0
  0
LINE
  5
A7D4
330
1F
100
AcDbEntity
  8
0
  6
Continuous
 62
     7
 48
0.5
370
    -3
100
AcDbLine
 10
367.9999999998388
 20
7.099999999993783
 30
0.0
 11
367.9999999998388
 21
5.599999999993896
 31
0.0
  0
LINE
  5
A7D5
330
1F
100
AcDbEntity
  8
0
  6
Continuous
 62
     7
 48
0.5
370
    -3
100
AcDbLine
 10
367.9999999998388
 20
7.09999999999401
 30
0.0
 11
373.9999999998387
 21
4.299999999993828
 31
0.0
  0
LINE
  5
A7D6
330
1F
100
AcDbEntity
  8
0
  6
Continuous
 62
     7
 48
0.5
370
    -3
100
AcDbLine
 10
375.4999999998388
 20
2.999999999993873
 30
0.0
 11
375.4999999998388
 21
5.095620974877888
 31
0.0
  0
LINE
  5
A7D7
330
1F
100
AcDbEntity
  8
0
  6
Continuous
 62
     7
 48
0.5
370
    -3
100
AcDbLine
 10
373.9999999998387
 20
2.999999999993873
 30
0.0
 11
373.9999999998387
 21
4.465789473678128
 31
0.0
  0
LINE
  5
A7D8
330
1F
100
AcDbEntity
  8
0
  6
Continuous
 62
     7
 48
0.5
370
    -3
100
AcDbLine
 10
354.9894117042737
 20
10.09999999998919
 30
0.0
 11
353.399999999839
 21
10.09999999999007
 31
0.0
  0
ARC
  5
A7D9
330
1F
100
AcDbEntity
  8
0
  6
Continuous
 62
     7
 48
0.5
370
    -3
100
AcDbCircle
 10
353.399999999839
 20
9.599999999990084
 30
0.0
 40
0.5
100
AcDbArc
 50
89.99999999997395
 51
180.0
  0
ARC
  5
A7DA
330
1F
100
AcDbEntity
  8
0
  6
Continuous
 62
     7
 48
0.5
370
    -3
100
AcDbCircle
 10
354.2336886154623
 20
9.595421370717998
 30
0.0
 40
1.0
100
AcDbArc
 50
32.88497602320299
 51
68.56765204867762
  0
ARC
  5
A7DB
330
1F
100
AcDbEntity
  8
0
  6
Continuous
 62
     7
 48
0.5
370
    -3
100
AcDbCircle
 10
340.9330419824689
 20
-24.28750647125319
 30
0.0
 40
37.4
100
AcDbArc
 50
68.56765204867762
 51
70.34615499480411
  0
ARC
  5
A7DC
330
1F
100
AcDbEntity
  8
0
  6
Continuous
 62
     7
 48
0.5
370
    -3
100
AcDbCircle
 10
340.9330419824689
 20
-24.28750647125319
 30
0.0
 40
41.0
100
AcDbArc
 50
64.40803197569147
 51
70.34615499480411
  0
ARC
  5
A7DD
330
1F
100
AcDbEntity
  8
0
  6
Continuous
 62
     7
 48
0.5
370
    -3
100
AcDbCircle
 10
340.9330419824689
 20
-24.28750647125319
 30
0.0
 40
40.49999999999999
100
AcDbArc
 50
64.40803197569147
 51
70.34615499480411
  0
ARC
  5
A7DE
330
1F
100
AcDbEntity
  8
0
  6
Continuous
 62
     7
 48
0.5
370
    -3
100
AcDbCircle
 10
340.9330419824689
 20
-24.28750647125319
 30
0.0
 40
42.0
100
AcDbArc
 50
64.40803197569147
 51
70.34615499480411
  0
LINE
  5
A7DF
330
1F
100
AcDbEntity
  8
0
  6
Continuous
 62
     7
 48
0.5
370
    -3
100
AcDbLine
 10
420.4999999998387
 20
2.999999999994101
 30
0.0
 11
420.4999999998382
 21
17.99999999999364
 31
0.0
  0
LINE
  5
A7E0
330
1F
100
AcDbEntity
  8
0
  6
Continuous
 62
     7
 48
0.5
370
    -3
100
AcDbLine
 10
409.4999999998333
 20
2.999999999994329
 30
0.0
 11
409.4999999998324
 21
17.9999999999941
 31
0.0
  0
ARC
  5
A7E1
330
1F
100
AcDbEntity
  8
0
  6
Continuous
 62
     7
 48
0.5
370
    -3
100
AcDbCircle
 10
414.9999999998347
 20
3.374999999980232
 30
0.0
 40
15.62500000001371
100
AcDbArc
 50
69.39030706247639
 51
110.6096929375236
  0
LINE
  5
A7E2
330
1F
100
AcDbEntity
  8
0
  6
Continuous
 62
     7
 48
0.5
370
    -3
100
AcDbLine
 10
354.7999999998381
 20
9.599999999989583
 30
0.0
 11
354.7999999998381
 21
5.19999999998997
 31
0.0
  0
ARC
  5
A7E3
330
1F
100
AcDbEntity
  8
0
  6
Continuous
 62
     7
 48
0.5
370
    -3
100
AcDbCircle
 10
354.299999999838
 20
9.599999999989583
 30
0.0
 40
0.5
100
AcDbArc
 50
0.000000000000007
 51
89.99999999997395
  0
ARC
  5
A7E4
330
1F
100
AcDbEntity
  8
0
  6
Continuous
 62
     7
 48
0.5
370
    -3
100
AcDbCircle
 10
355.2999999998381
 20
5.19999999998997
 30
0.0
 40
0.5
100
AcDbArc
 50
180.0
 51
270.000000000013
  0
LINE
  5
A7E5
330
1F
100
AcDbEntity
  8
0
  6
Continuous
 62
     7
 48
0.5
370
    -3
100
AcDbLine
 10
375.4999999998274
 20
38.99999999999657
 30
0.0
 11
375.4999999998274
 21
29.99999999999351
 31
0.0
  0
ARC
  5
A7E6
330
1F
100
AcDbEntity
  8
0
  6
Continuous
 62
     7
 48
0.5
370
    -3
100
AcDbCircle
 10
374.4999999998274
 20
29.99999999999351
 30
0.0
 40
1.0
100
AcDbArc
 50
270.0
 51
0.000000000000007
  0
LINE
  5
A7E7
330
1F
100
AcDbEntity
  8
0
  6
Continuous
 62
     7
 48
0.5
370
    -3
100
AcDbLine
 10
420.4999999998278
 20
156.999999999993
 30
0.0
 11
420.4999999998269
 21
74.99999999999397
 31
0.0
  0
LINE
  5
A7E8
330
1F
100
AcDbEntity
  8
0
  6
Continuous
 62
     7
 48
0.5
370
    -3
100
AcDbLine
 10
409.4999999998237
 20
156.9999999999931
 30
0.0
 11
409.4999999998219
 21
74.99999999999397
 31
0.0
  0
LINE
  5
A7E9
330
1F
100
AcDbEntity
  8
0
  6
Continuous
 62
     7
 48
0.5
370
    -3
100
AcDbLine
 10
410.499999999824
 20
73.99999999999373
 30
0.0
 11
419.4999999998274
 21
73.99999999999373
 31
0.0
  0
ARC
  5
A7EA
330
1F
100
AcDbEntity
  8
0
  6
Continuous
 62
     7
 48
0.5
370
    -3
100
AcDbCircle
 10
419.4999999998274
 20
74.99999999999373
 30
0.0
 40
0.9999999999999998
100
AcDbArc
 50
270.0
 51
0.000000000000007
  0
LINE
  5
A7EB
330
1F
100
AcDbEntity
  8
0
  6
Continuous
 62
     7
 48
0.5
370
    -3
100
AcDbLine
 10
393.4999999998278
 20
75.99999999999351
 30
0.0
 11
409.4999999998219
 21
75.99999999999351
 31
0.0
  0
ARC
  5
A7EC
330
1F
100
AcDbEntity
  8
0
  6
Continuous
 62
     7
 48
0.5
370
    -3
100
AcDbCircle
 10
410.499999999824
 20
74.99999999999373
 30
0.0
 40
0.9999999999999998
100
AcDbArc
 50
179.9999999999935
 51
270.0
  0
LINE
  5
A7ED
330
1F
100
AcDbEntity
  8
0
  6
Continuous
 62
     7
 48
0.5
370
    -3
100
AcDbLine
 10
409.4999999998224
 20
81.4999999999935
 30
0.0
 11
393.4999999998274
 21
81.49999999999373
 31
0.0
  0
ARC
  5
A7EE
330
1F
100
AcDbEntity
  8
0
  6
Continuous
 62
     7
 48
0.5
370
    -3
100
AcDbCircle
 10
393.4999999998274
 20
55.99999999999338
 30
0.0
 40
19.99999999999988
100
AcDbArc
 50
90.0
 51
180.0
  0
ARC
  5
A7EF
330
1F
100
AcDbEntity
  8
0
  6
Continuous
 62
     7
 48
0.5
370
    -3
100
AcDbCircle
 10
393.4999999998274
 20
55.99999999999373
 30
0.0
 40
25.49999999999954
100
AcDbArc
 50
90.0
 51
180.0
  0
LINE
  5
A7F0
330
1F
100
AcDbEntity
  8
0
  6
Continuous
 62
     7
 48
0.5
370
    -3
100
AcDbLine
 10
373.4999999998274
 20
55.99999999999327
 30
0.0
 11
373.4999999998274
 21
39.99999999999918
 31
0.0
  0
LINE
  5
A7F1
330
1F
100
AcDbEntity
  8
0
  6
Continuous
 62
     7
 48
0.5
370
    -3
100
AcDbLine
 10
367.9999999998274
 20
39.99999999999918
 30
0.0
 11
367.9999999998271
 21
55.99999999999395
 31
0.0
  0
ARC
  5
A7F2
330
1F
100
AcDbEntity
  8
0
  6
Continuous
 62
     7
 48
0.5
370
    -3
100
AcDbCircle
 10
374.4999999998274
 20
38.99999999999657
 30
0.0
 40
1.0
100
AcDbArc
 50
0.000000000000007
 51
90.0
  0
ARC
  5
A7F3
330
1F
100
AcDbEntity
  8
0
  6
Continuous
 62
     7
 48
0.5
370
    -3
100
AcDbCircle
 10
410.499999999824
 20
156.9999999999931
 30
0.0
 40
1.0
100
AcDbArc
 50
90.0
 51
180.0000000000064
  0
ARC
  5
A7F4
330
1F
100
AcDbEntity
  8
0
  6
Continuous
 62
     7
 48
0.5
370
    -3
100
AcDbCircle
 10
419.4999999998274
 20
156.999999999993
 30
0.0
 40
1.0
100
AcDbArc
 50
0.000000000000007
 51
90.0
  0
LINE
  5
A7F5
330
1F
100
AcDbEntity
  8
0
  6
Continuous
 62
     7
 48
0.5
370
    -3
100
AcDbLine
 10
410.499999999824
 20
157.999999999993
 30
0.0
 11
419.4999999998274
 21
157.999999999993
 31
0.0
  0
ARC
  5
A7F6
330
1F
100
AcDbEntity
  8
0
  6
Continuous
 62
     7
 48
0.5
370
    -3
100
AcDbCircle
 10
502.0956767814472
 20
10.29999999999417
 30
0.0
 40
0.2
100
AcDbArc
 50
89.99999999999186
 51
153.8798343150388
  0
ARC
  5
A7F7
330
1F
100
AcDbEntity
  8
0
  6
Continuous
 62
     7
 48
0.5
370
    -3
100
AcDbCircle
 10
530.4245134086777
 20
0.5004070586524137
 30
0.0
 40
22.0
100
AcDbArc
 50
58.84936944200799
 51
73.22955470953762
  0
ARC
  5
A7F8
330
1F
100
AcDbEntity
  8
0
  6
Continuous
 62
     7
 48
0.5
370
    -3
100
AcDbCircle
 10
530.4245134086777
 20
0.5004070586524137
 30
0.0
 40
20.5
100
AcDbArc
 50
58.84936944200799
 51
73.22955470953762
  0
ARC
  5
A7F9
330
1F
100
AcDbEntity
  8
0
  6
Continuous
 62
     7
 48
0.5
370
    -3
100
AcDbCircle
 10
530.4245134086777
 20
0.5004070586524137
 30
0.0
 40
21.0
100
AcDbArc
 50
58.84936944200799
 51
73.22955470953762
  0
LINE
  5
A7FA
330
1F
100
AcDbEntity
  8
0
  6
Continuous
 62
     7
 48
0.5
370
    -3
100
AcDbLine
 10
562.4999999998459
 20
2.999999999993817
 30
0.0
 11
562.4999999998459
 21
4.499999999994042
 31
0.0
  0
ARC
  5
A7FB
330
1F
100
AcDbEntity
  8
0
  6
Continuous
 62
     7
 48
0.5
370
    -3
100
AcDbCircle
 10
550.9999999998464
 20
4.999999999993988
 30
0.0
 40
0.5
100
AcDbArc
 50
270.0
 51
0.0000000000032639
  0
LINE
  5
A7FC
330
1F
100
AcDbEntity
  8
0
  6
Continuous
 62
     7
 48
0.5
370
    -3
100
AcDbLine
 10
558.4999999998456
 20
6.899999999994047
 30
0.0
 11
557.9077006566767
 21
5.004642101852211
 31
0.0
  0
ARC
  5
A7FD
330
1F
100
AcDbEntity
  8
0
  6
Continuous
 62
     7
 48
0.5
370
    -3
100
AcDbCircle
 10
557.6213566632665
 20
5.094124599792976
 30
0.0
 40
0.3
100
AcDbArc
 50
238.849369442008
 51
342.6459753637412
  0
LINE
  5
A7FE
330
1F
100
AcDbEntity
  8
0
  6
Continuous
 62
     7
 48
0.5
370
    -3
100
AcDbLine
 10
551.4999999998459
 20
7.557135811780326
 30
0.0
 11
551.4999999998464
 21
4.999999999994045
 31
0.0
  0
ARC
  5
A7FF
330
1F
100
AcDbEntity
  8
0
  6
Continuous
 62
     7
 48
0.5
370
    -3
100
AcDbCircle
 10
551.9999999998459
 20
7.557135811780326
 30
0.0
 40
0.5
100
AcDbArc
 50
58.84936944200799
 51
180.0000000000031
  0
LINE
  5
A800
330
1F
100
AcDbEntity
  8
0
  6
Continuous
 62
     7
 48
0.5
370
    -3
100
AcDbLine
 10
557.4661697278929
 20
4.837381508182956
 30
0.0
 11
552.2586448921348
 21
7.985040964463747
 31
0.0
  0
LINE
  5
A801
330
1F
100
AcDbEntity
  8
0
  6
Continuous
 62
     7
 48
0.5
370
    -3
100
AcDbLine
 10
547.9999999998459
 20
10.55915521046916
 30
0.0
 11
539.5805425956955
 21
15.64824946364469
 31
0.0
  0
ARC
  5
A802
330
1F
100
AcDbEntity
  8
0
  6
Continuous
 62
     7
 48
0.5
370
    -3
100
AcDbCircle
 10
548.3841321214478
 20
7.504332220697065
 30
0.0
 40
1.0
100
AcDbArc
 50
333.4349488229226
 51
26.12016568496923
  0
LINE
  5
A803
330
1F
100
AcDbEntity
  8
0
  6
Continuous
 62
     7
 48
0.5
370
    -3
100
AcDbLine
 10
547.9999999998459
 20
10.55915521046916
 30
0.0
 11
549.2820048016566
 21
7.944587430926858
 31
0.0
  0
ARC
  5
A804
330
1F
100
AcDbEntity
  8
0
  6
Continuous
 62
     7
 48
0.5
370
    -3
100
AcDbCircle
 10
547.9043232182446
 20
10.29999999999417
 30
0.0
 40
0.2
100
AcDbArc
 50
26.12016568496366
 51
90.00000000001303
  0
LINE
  5
A805
330
1F
100
AcDbEntity
  8
0
  6
Continuous
 62
     7
 48
0.5
370
    -3
100
AcDbLine
 10
549.2785593124475
 20
7.057118625197077
 30
0.0
 11
548.0999999998458
 21
4.699999999994425
 31
0.0
  0
ARC
  5
A806
330
1F
100
AcDbEntity
  8
0
  6
Continuous
 62
     7
 48
0.5
370
    -3
100
AcDbCircle
 10
530.4245134086777
 20
0.5004070586524137
 30
0.0
 40
17.7
100
AcDbArc
 50
58.84936944200799
 51
73.22955470953762
  0
LINE
  5
A807
330
1F
100
AcDbEntity
  8
0
  6
Continuous
 62
     7
 48
0.5
370
    -3
100
AcDbLine
 10
547.9999999998459
 20
10.47563016102126
 30
0.0
 11
547.9999999998459
 21
4.999999999994499
 31
0.0
  0
LINE
  5
A808
330
1F
100
AcDbEntity
  8
0
  6
Continuous
 62
     7
 48
0.5
370
    -3
100
AcDbLine
 10
546.4999999998455
 20
9.999999999994045
 30
0.0
 11
546.4999999998459
 21
5.499999999994783
 31
0.0
  0
LINE
  5
A809
330
1F
100
AcDbEntity
  8
0
  6
Continuous
 62
     7
 48
0.5
370
    -3
100
AcDbLine
 10
558.1999999998462
 20
4.499999999994045
 30
0.0
 11
548.4999999998459
 21
4.499999999994499
 31
0.0
  0
ARC
  5
A80A
330
1F
100
AcDbEntity
  8
0
  6
Continuous
 62
     7
 48
0.5
370
    -3
100
AcDbCircle
 10
548.4999999998459
 20
4.999999999994499
 30
0.0
 40
0.5
100
AcDbArc
 50
180.0000000000031
 51
270.0
  0
ARC
  5
A80B
330
1F
100
AcDbEntity
  8
0
  6
Continuous
 62
     7
 48
0.5
370
    -3
100
AcDbCircle
 10
545.4999999998459
 20
5.499999999994783
 30
0.0
 40
1.0
100
AcDbArc
 50
270.0
 51
0.0000000000032639
  0
LINE
  5
A80C
330
1F
100
AcDbEntity
  8
0
  6
Continuous
 62
     7
 48
0.5
370
    -3
100
AcDbLine
 10
562.999999999844
 20
4.199999999995303
 30
0.0
 11
558.4999999998456
 21
6.899999999994112
 31
0.0
  0
LINE
  5
A80D
330
1F
100
AcDbEntity
  8
0
  6
Continuous
 62
     7
 48
0.5
370
    -3
100
AcDbLine
 10
558.4999999998459
 20
6.546761924200168
 30
0.0
 11
558.4999999998459
 21
4.799999999994057
 31
0.0
  0
ARC
  5
A80E
330
1F
100
AcDbEntity
  8
0
  6
Continuous
 62
     7
 48
0.5
370
    -3
100
AcDbCircle
 10
558.6999999998461
 20
6.546761924200168
 30
0.0
 40
0.2
100
AcDbArc
 50
59.03624346792422
 51
180.0
  0
ARC
  5
A80F
330
1F
100
AcDbEntity
  8
0
  6
Continuous
 62
     7
 48
0.5
370
    -3
100
AcDbCircle
 10
558.1999999998462
 20
4.799999999994057
 30
0.0
 40
0.3
100
AcDbArc
 50
270.0
 51
0.000000000000007
  0
ARC
  5
A810
330
1F
100
AcDbEntity
  8
0
  6
Continuous
 62
     7
 48
0.5
370
    -3
100
AcDbCircle
 10
546.9999999998454
 20
9.999999999994045
 30
0.0
 40
0.5
100
AcDbArc
 50
90.0
 51
180.0000000000031
  0
LINE
  5
A811
330
1F
100
AcDbEntity
  8
0
  6
Continuous
 62
     7
 48
0.5
370
    -3
100
AcDbLine
 10
547.9043232182446
 20
10.49999999999418
 30
0.0
 11
546.9999999998454
 21
10.49999999999404
 31
0.0
  0
LINE
  5
A812
330
1F
100
AcDbEntity
  8
0
  6
Continuous
 62
     7
 48
0.5
370
    -3
100
AcDbLine
 10
564.0172897844214
 20
5.902071324957275
 30
0.0
 11
541.8048886693769
 21
19.32823377672033
 31
0.0
  0
ARC
  5
A813
330
1F
100
AcDbEntity
  8
0
  6
Continuous
 62
     7
 48
0.5
370
    -3
100
AcDbCircle
 10
563.499999999844
 20
5.046261019590517
 30
0.0
 40
1.0
100
AcDbArc
 50
359.9999999999935
 51
58.84936944200799
  0
LINE
  5
A814
330
1F
100
AcDbEntity
  8
0
  6
Continuous
 62
     7
 48
0.5
370
    -3
100
AcDbLine
 10
562.7586448921324
 20
4.910127374896163
 30
0.0
 11
541.0289539925106
 21
18.04451831867023
 31
0.0
  0
LINE
  5
A815
330
1F
100
AcDbEntity
  8
0
  6
Continuous
 62
     7
 48
0.5
370
    -3
100
AcDbLine
 10
563.499999999844
 20
5.046261019590573
 30
0.0
 11
541.2875988847995
 21
18.4724234713536
 31
0.0
  0
LINE
  5
A816
330
1F
100
AcDbEntity
  8
0
  6
Continuous
 62
     7
 48
0.5
370
    -3
100
AcDbLine
 10
562.9999999998435
 20
2.999999999990407
 30
0.0
 11
562.999999999844
 21
4.482222222212796
 31
0.0
  0
LINE
  5
A817
330
1F
100
AcDbEntity
  8
0
  6
Continuous
 62
     7
 48
0.5
370
    -3
100
AcDbLine
 10
564.4999999998437
 20
2.999999999990264
 30
0.0
 11
564.4999999998441
 21
5.046261019590374
 31
0.0
  0
ARC
  5
A818
330
1F
100
AcDbEntity
  8
0
  6
Continuous
 62
     7
 48
0.5
370
    -3
100
AcDbCircle
 10
562.499999999844
 20
4.482222222212826
 30
0.0
 40
0.5
100
AcDbArc
 50
359.9999999999935
 51
58.84936944200797
  0
LINE
  5
A819
330
1F
100
AcDbEntity
  8
0
  6
Continuous
 62
     7
 48
0.5
370
    -3
100
AcDbLine
 10
599.499999999846
 20
22.29999999999388
 30
0.0
 11
599.499999999846
 21
2.999999999993789
 31
0.0
  0
LINE
  5
A81A
330
1F
100
AcDbEntity
  8
0
  6
Continuous
 62
     7
 48
0.5
370
    -3
100
AcDbLine
 10
537.5922838761596
 20
21.29999999999392
 30
0.0
 11
588.4999999998468
 21
21.29999999999389
 31
0.0
  0
LINE
  5
A81B
330
1F
100
AcDbEntity
  8
0
  6
Continuous
 62
     7
 48
0.5
370
    -3
100
AcDbLine
 10
564.4999999998459
 20
4.499999999994499
 30
0.0
 11
588.4999999998468
 21
4.499999999994471
 31
0.0
  0
LINE
  5
A81C
330
1F
100
AcDbEntity
  8
0
  6
Continuous
 62
     7
 48
0.5
370
    -3
100
AcDbLine
 10
562.3663048441112
 20
6.899999999994022
 30
0.0
 11
588.4999999998468
 21
6.899999999994022
 31
0.0
  0
ARC
  5
A81D
330
1F
100
AcDbEntity
  8
0
  6
Continuous
 62
     7
 48
0.5
370
    -3
100
AcDbCircle
 10
593.9999999998462
 20
7.674999999998916
 30
0.0
 40
15.62499999999536
100
AcDbArc
 50
69.39030706244857
 51
110.6096929375236
  0
LINE
  5
A81E
330
1F
100
AcDbEntity
  8
0
  6
Continuous
 62
     7
 48
0.5
370
    -3
100
AcDbLine
 10
588.4999999998468
 20
22.29999999999419
 30
0.0
 11
588.4999999998468
 21
2.99999999999376
 31
0.0
  0
LINE
  5
A81F
330
1F
100
AcDbEntity
  8
0
  6
Continuous
 62
     7
 48
0.5
370
    -3
100
AcDbLine
 10
558.4999999998273
 20
44.29999999997876
 30
0.0
 11
558.4999999998277
 21
55.29999999998715
 31
0.0
  0
LINE
  5
A820
330
1F
100
AcDbEntity
  8
0
  6
Continuous
 62
     7
 48
0.5
370
    -3
100
AcDbLine
 10
562.4999999998267
 20
44.29999999997703
 30
0.0
 11
562.4999999998267
 21
55.29999999998812
 31
0.0
  0
LINE
  5
A821
330
1F
100
AcDbEntity
  8
0
  6
Continuous
 62
     7
 48
0.5
370
    -3
100
AcDbLine
 10
588.4999999998204
 20
74.29999999998727
 30
0.0
 11
577.4999999998276
 21
74.29999999998727
 31
0.0
  0
ARC
  5
A822
330
1F
100
AcDbEntity
  8
0
  6
Continuous
 62
     7
 48
0.5
370
    -3
100
AcDbCircle
 10
577.4999999998276
 20
55.29999999998727
 30
0.0
 40
19.0
100
AcDbArc
 50
90.0
 51
180.0
  0
LINE
  5
A823
330
1F
100
AcDbEntity
  8
0
  6
Continuous
 62
     7
 48
0.5
370
    -3
100
AcDbLine
 10
588.4999999998195
 20
70.29999999998715
 30
0.0
 11
577.4999999998276
 21
70.29999999998733
 31
0.0
  0
ARC
  5
A824
330
1F
100
AcDbEntity
  8
0
  6
Continuous
 62
     7
 48
0.5
370
    -3
100
AcDbCircle
 10
577.4999999998282
 20
55.29999999998812
 30
0.0
 40
15.0
100
AcDbArc
 50
90.0
 51
180.0
  0
LINE
  5
A825
330
1F
100
AcDbEntity
  8
0
  6
Continuous
 62
     7
 48
0.5
370
    -3
100
AcDbLine
 10
588.4999999998191
 20
69.29999999998739
 30
0.0
 11
588.4999999998373
 21
146.2999999999879
 31
0.0
  0
LINE
  5
A826
330
1F
100
AcDbEntity
  8
0
  6
Continuous
 62
     7
 48
0.5
370
    -3
100
AcDbLine
 10
599.4999999998185
 20
69.29999999998518
 30
0.0
 11
599.499999999837
 21
146.2999999999874
 31
0.0
  0
ARC
  5
A827
330
1F
100
AcDbEntity
  8
0
  6
Continuous
 62
     7
 48
0.5
370
    -3
100
AcDbCircle
 10
563.4999999998281
 20
34.29999999998746
 30
0.0
 40
1.0
100
AcDbArc
 50
270.0
 51
0.000000000000007
  0
ARC
  5
A828
330
1F
100
AcDbEntity
  8
0
  6
Continuous
 62
     7
 48
0.5
370
    -3
100
AcDbCircle
 10
563.4999999998281
 20
43.29999999998665
 30
0.0
 40
1.0
100
AcDbArc
 50
0.000000000000007
 51
90.0
  0
LINE
  5
A829
330
1F
100
AcDbEntity
  8
0
  6
Continuous
 62
     7
 48
0.5
370
    -3
100
AcDbLine
 10
564.499999999828
 20
43.29999999998665
 30
0.0
 11
564.499999999828
 21
34.29999999998746
 31
0.0
  0
ARC
  5
A82A
330
1F
100
AcDbEntity
  8
0
  6
Continuous
 62
     7
 48
0.5
370
    -3
100
AcDbCircle
 10
598.4999999998272
 20
69.2999999999867
 30
0.0
 40
1.0
100
AcDbArc
 50
270.0
 51
0.000000000000007
  0
ARC
  5
A82B
330
1F
100
AcDbEntity
  8
0
  6
Continuous
 62
     7
 48
0.5
370
    -3
100
AcDbCircle
 10
589.499999999828
 20
69.2999999999867
 30
0.0
 40
1.0
100
AcDbArc
 50
180.0
 51
270.0
  0
LINE
  5
A82C
330
1F
100
AcDbEntity
  8
0
  6
Continuous
 62
     7
 48
0.5
370
    -3
100
AcDbLine
 10
589.499999999828
 20
68.29999999998669
 30
0.0
 11
598.4999999998272
 21
68.29999999998669
 31
0.0
  0
ARC
  5
A82D
330
1F
100
AcDbEntity
  8
0
  6
Continuous
 62
     7
 48
0.5
370
    -3
100
AcDbCircle
 10
598.4999999998276
 20
146.2999999999876
 30
0.0
 40
1.0
100
AcDbArc
 50
0.000000000000007
 51
90.0
  0
ARC
  5
A82E
330
1F
100
AcDbEntity
  8
0
  6
Continuous
 62
     7
 48
0.5
370
    -3
100
AcDbCircle
 10
589.499999999828
 20
146.2999999999876
 30
0.0
 40
1.0
100
AcDbArc
 50
90.0
 51
180.0
  0
LINE
  5
A82F
330
1F
100
AcDbEntity
  8
0
  6
Continuous
 62
     7
 48
0.5
370
    -3
100
AcDbLine
 10
589.499999999828
 20
147.2999999999876
 30
0.0
 11
598.4999999998276
 21
147.2999999999876
 31
0.0
  0
ARC
  5
A875
330
1F
100
AcDbEntity
  8
0
  6
Continuous
 62
     7
 48
0.5
370
    -3
100
AcDbCircle
 10
704.6982653333036
 20
10.20000000029331
 30
0.0
 40
0.2
100
AcDbArc
 50
90.0
 51
152.8706418453605
  0
LINE
  5
A876
330
1F
100
AcDbEntity
  8
0
  6
Continuous
 62
     7
 48
0.5
370
    -3
100
AcDbLine
 10
762.1999999998297
 20
5.000000000290056
 30
0.0
 11
762.1999999998297
 21
9.900000000293319
 31
0.0
  0
ARC
  5
A877
330
1F
100
AcDbEntity
  8
0
  6
Continuous
 62
     7
 48
0.5
370
    -3
100
AcDbCircle
 10
762.6999999998297
 20
9.900000000293319
 30
0.0
 40
0.5
100
AcDbArc
 50
90.0
 51
180.0
  0
ARC
  5
A878
330
1F
100
AcDbEntity
  8
0
  6
Continuous
 62
     7
 48
0.5
370
    -3
100
AcDbCircle
 10
761.6999999998297
 20
5.000000000290056
 30
0.0
 40
0.5
100
AcDbArc
 50
270.0
 51
0.000000000000007
  0
LINE
  5
A879
330
1F
100
AcDbEntity
  8
0
  6
Continuous
 62
     7
 48
0.5
370
    -3
100
AcDbLine
 10
748.2525976535204
 20
25.00195067462644
 30
0.0
 11
825.4999999998288
 21
25.00195067462633
 31
0.0
  0
LINE
  5
A87A
330
1F
100
AcDbEntity
  8
0
  6
Continuous
 62
     7
 48
0.5
370
    -3
100
AcDbLine
 10
781.7997911303899
 20
4.501950674626413
 30
0.0
 11
825.4999999998288
 21
4.501950674626343
 31
0.0
  0
LINE
  5
A87B
330
1F
100
AcDbEntity
  8
0
  6
Continuous
 62
     7
 48
0.5
370
    -3
100
AcDbLine
 10
779.9279418819319
 20
6.901950674626389
 30
0.0
 11
825.4999999998288
 21
6.901950674626319
 31
0.0
  0
LINE
  5
A87C
330
1F
100
AcDbEntity
  8
0
  6
Continuous
 62
     7
 48
0.5
370
    -3
100
AcDbLine
 10
763.9580834562767
 20
10.98410258184427
 30
0.0
 11
753.9644549587111
 21
17.05284688062991
 31
0.0
  0
LINE
  5
A87D
330
1F
100
AcDbEntity
  8
0
  6
Continuous
 62
     7
 48
0.5
370
    -3
100
AcDbLine
 10
779.7595260659477
 20
4.898325905364287
 30
0.0
 11
755.5216113554167
 21
19.61707463108714
 31
0.0
  0
LINE
  5
A87E
330
1F
100
AcDbEntity
  8
0
  6
Continuous
 62
     7
 48
0.5
370
    -3
100
AcDbLine
 10
780.4999999998297
 20
5.033636147286983
 30
0.0
 11
755.7811374215348
 21
20.04444592282906
 31
0.0
  0
LINE
  5
A87F
330
1F
100
AcDbEntity
  8
0
  6
Continuous
 62
     7
 48
0.5
370
    -3
100
AcDbLine
 10
781.1747677717378
 20
6.144801505815905
 30
0.0
 11
756.4559051934427
 21
21.15561128135798
 31
0.0
  0
LINE
  5
A880
330
1F
100
AcDbEntity
  8
0
  6
Continuous
 62
     7
 48
0.5
370
    -3
100
AcDbLine
 10
775.4999999998918
 20
4.500000000019169
 30
0.0
 11
764.5999999998298
 21
4.500000000019156
 31
0.0
  0
LINE
  5
A881
330
1F
100
AcDbEntity
  8
0
  6
Continuous
 62
     7
 48
0.5
370
    -3
100
AcDbLine
 10
764.2491732469237
 20
4.643740839512312
 30
0.0
 11
765.3625227936906
 21
7.898229976856693
 31
0.0
  0
LINE
  5
A882
330
1F
100
AcDbEntity
  8
0
  6
Continuous
 62
     7
 48
0.5
370
    -3
100
AcDbLine
 10
767.2999999998297
 20
5.001408832306112
 30
0.0
 11
767.2999999998297
 21
8.066083727986693
 31
0.0
  0
LINE
  5
A883
330
1F
100
AcDbEntity
  8
0
  6
Continuous
 62
     7
 48
0.5
370
    -3
100
AcDbLine
 10
772.9999999998298
 20
5.493296165832148
 30
0.0
 11
768.0595260659487
 21
8.493455019728543
 31
0.0
  0
ARC
  5
A884
330
1F
100
AcDbEntity
  8
0
  6
Continuous
 62
     7
 48
0.5
370
    -3
100
AcDbCircle
 10
766.7999999998287
 20
5.000000000018358
 30
0.0
 40
0.5
100
AcDbArc
 50
270.0
 51
359.9999999999984
  0
ARC
  5
A885
330
1F
100
AcDbEntity
  8
0
  6
Continuous
 62
     7
 48
0.5
370
    -3
100
AcDbCircle
 10
773.2999999998297
 20
4.799999999994227
 30
0.0
 40
0.3
100
AcDbArc
 50
180.0
 51
270.0
  0
LINE
  5
A886
330
1F
100
AcDbEntity
  8
0
  6
Continuous
 62
     7
 48
0.5
370
    -3
100
AcDbLine
 10
772.9999999998298
 20
4.799999999994227
 30
0.0
 11
772.9999999998298
 21
5.493296165832148
 31
0.0
  0
ARC
  5
A887
330
1F
100
AcDbEntity
  8
0
  6
Continuous
 62
     7
 48
0.5
370
    -3
100
AcDbCircle
 10
763.4390313240398
 20
10.12935999836062
 30
0.0
 40
1.0
100
AcDbArc
 50
27.12935815463444
 51
58.73130814397391
  0
LINE
  5
A888
330
1F
100
AcDbEntity
  8
0
  6
Continuous
 62
     7
 48
0.5
370
    -3
100
AcDbLine
 10
765.3063355557146
 20
8.677911275515413
 30
0.0
 11
764.3290105921997
 21
10.58536098766285
 31
0.0
  0
ARC
  5
A889
330
1F
100
AcDbEntity
  8
0
  6
Continuous
 62
     7
 48
0.5
370
    -3
100
AcDbCircle
 10
764.3017346663558
 20
10.20000000029331
 30
0.0
 40
0.2
100
AcDbArc
 50
27.12935815463777
 51
90.0
  0
ARC
  5
A88A
330
1F
100
AcDbEntity
  8
0
  6
Continuous
 62
     7
 48
0.5
370
    -3
100
AcDbCircle
 10
764.4163562875537
 20
8.221910286213187
 30
0.0
 40
1.0
100
AcDbArc
 50
341.114358908647
 51
27.12935815463416
  0
LINE
  5
A88B
330
1F
100
AcDbEntity
  8
0
  6
Continuous
 62
     7
 48
0.5
370
    -3
100
AcDbLine
 10
762.6999999998297
 20
10.40000000029331
 30
0.0
 11
764.3017346663558
 21
10.40000000029331
 31
0.0
  0
ARC
  5
A88C
330
1F
100
AcDbEntity
  8
0
  6
Continuous
 62
     7
 48
0.5
370
    -3
100
AcDbCircle
 10
763.5999999998298
 20
9.900000000293319
 30
0.0
 40
0.5
100
AcDbArc
 50
0.000000000000007
 51
90.0
  0
ARC
  5
A88D
330
1F
100
AcDbEntity
  8
0
  6
Continuous
 62
     7
 48
0.5
370
    -3
100
AcDbCircle
 10
767.7999999998298
 20
8.066083727986637
 30
0.0
 40
0.5
100
AcDbArc
 50
58.73130814400437
 51
179.9999999999992
  0
LINE
  5
A88E
330
1F
100
AcDbEntity
  8
0
  6
Continuous
 62
     7
 48
0.5
370
    -3
100
AcDbLine
 10
779.9999999998297
 20
4.200000000012586
 30
0.0
 11
775.4999999998298
 21
6.90000000008713
 31
0.0
  0
LINE
  5
A88F
330
1F
100
AcDbEntity
  8
0
  6
Continuous
 62
     7
 48
0.5
370
    -3
100
AcDbLine
 10
775.4999999998918
 20
4.500000000019169
 30
0.0
 11
775.4999999998897
 21
6.900000000051133
 31
0.0
  0
ARC
  5
A890
330
1F
100
AcDbEntity
  8
0
  6
Continuous
 62
     7
 48
0.5
370
    -3
100
AcDbCircle
 10
780.4999999998297
 20
5.033636147286983
 30
0.0
 40
1.3
100
AcDbArc
 50
0.000000000000007
 51
58.73130814400437
  0
LINE
  5
A891
330
1F
100
AcDbEntity
  8
0
  6
Continuous
 62
     7
 48
0.5
370
    -3
100
AcDbLine
 10
779.4999999998286
 20
3.000000000021656
 30
0.0
 11
779.4999999998286
 21
4.500000000021657
 31
0.0
  0
LINE
  5
A892
330
1F
100
AcDbEntity
  8
0
  6
Continuous
 62
     7
 48
0.5
370
    -3
100
AcDbLine
 10
775.4999999998298
 20
5.499999999994216
 30
0.0
 11
774.4999999998298
 21
4.499999999994215
 31
0.0
  0
ARC
  5
A893
330
1F
100
AcDbEntity
  8
0
  6
Continuous
 62
     7
 48
0.5
370
    -3
100
AcDbCircle
 10
779.4999999998298
 20
4.470954613622382
 30
0.0
 40
0.5
100
AcDbArc
 50
0.000000000000007
 51
58.73130814397405
  0
LINE
  5
A894
330
1F
100
AcDbEntity
  8
0
  6
Continuous
 62
     7
 48
0.5
370
    -3
100
AcDbLine
 10
779.9999999998297
 20
2.999999999994201
 30
0.0
 11
779.9999999998297
 21
4.470954613622382
 31
0.0
  0
LINE
  5
A895
330
1F
100
AcDbEntity
  8
0
  6
Continuous
 62
     7
 48
0.5
370
    -3
100
AcDbLine
 10
781.7999999998298
 20
2.999999999994201
 30
0.0
 11
781.7999999998298
 21
5.033636147286983
 31
0.0
  0
ARC
  5
A896
330
1F
100
AcDbEntity
  8
0
  6
Continuous
 62
     7
 48
0.5
370
    -3
100
AcDbCircle
 10
775.7999999998908
 20
6.37014288635224
 30
0.0
 40
0.3
100
AcDbArc
 50
59.03624346722533
 51
180.000000000026
  0
LINE
  5
A897
330
1F
100
AcDbEntity
  8
0
  6
Continuous
 62
     7
 48
0.5
370
    -3
100
AcDbLine
 10
825.4999999998288
 20
2.99999999999413
 30
0.0
 11
825.4999999998288
 21
25.99999999999412
 31
0.0
  0
LINE
  5
A898
330
1F
100
AcDbEntity
  8
0
  6
Continuous
 62
     7
 48
0.5
370
    -3
100
AcDbLine
 10
839.4999999998329
 20
25.99999999999412
 30
0.0
 11
839.4999999998329
 21
2.999999999994101
 31
0.0
  0
ARC
  5
A899
330
1F
100
AcDbEntity
  8
0
  6
Continuous
 62
     7
 48
0.5
370
    -3
100
AcDbCircle
 10
832.4999999998317
 20
7.803846153828457
 30
0.0
 40
19.4961538461656
100
AcDbArc
 50
68.95843137224416
 51
111.0415686277558
  0
LINE
  5
A89A
330
1F
100
AcDbEntity
  8
0
  6
Continuous
 62
     7
 48
0.5
370
    -3
100
AcDbLine
 10
764.0999999998298
 20
9.900000000293319
 30
0.0
 11
764.0999999998298
 21
5.000000000019154
 31
0.0
  0
ARC
  5
A89B
330
1F
100
AcDbEntity
  8
0
  6
Continuous
 62
     7
 48
0.5
370
    -3
100
AcDbCircle
 10
764.5999999998298
 20
5.000000000019156
 30
0.0
 40
0.5
100
AcDbArc
 50
180.0
 51
270.0
  0
ARC
  5
A89C
330
1F
100
AcDbEntity
  8
0
  6
Continuous
 62
     7
 48
0.5
370
    -3
100
AcDbCircle
 10
809.4999999997718
 20
67.29999999993968
 30
0.0
 40
30.0
100
AcDbArc
 50
90.0
 51
180.0
  0
ARC
  5
A89D
330
1F
100
AcDbEntity
  8
0
  6
Continuous
 62
     7
 48
0.5
370
    -3
100
AcDbCircle
 10
809.4999999998297
 20
67.29999999999687
 30
0.0
 40
34.0
100
AcDbArc
 50
90.0
 51
180.0
  0
LINE
  5
A89E
330
1F
100
AcDbEntity
  8
0
  6
Continuous
 62
     7
 48
0.5
370
    -3
100
AcDbLine
 10
779.4999999997718
 20
67.29999999994468
 30
0.0
 11
779.4999999997697
 21
51.29999999999875
 31
0.0
  0
LINE
  5
A89F
330
1F
100
AcDbEntity
  8
0
  6
Continuous
 62
     7
 48
0.5
370
    -3
100
AcDbLine
 10
775.4999999998298
 20
51.29999999998704
 30
0.0
 11
775.4999999998298
 21
67.29999999999687
 31
0.0
  0
ARC
  5
A8A0
330
1F
100
AcDbEntity
  8
0
  6
Continuous
 62
     7
 48
0.5
370
    -3
100
AcDbCircle
 10
780.4999999998297
 20
38.59999999999395
 30
0.0
 40
1.3
100
AcDbArc
 50
270.0
 51
0.000000000000007
  0
LINE
  5
A8A1
330
1F
100
AcDbEntity
  8
0
  6
Continuous
 62
     7
 48
0.5
370
    -3
100
AcDbLine
 10
781.7999999998298
 20
38.59999999999395
 30
0.0
 11
781.7999999998298
 21
49.99999999999857
 31
0.0
  0
ARC
  5
A8A2
330
1F
100
AcDbEntity
  8
0
  6
Continuous
 62
     7
 48
0.5
370
    -3
100
AcDbCircle
 10
780.4999999998297
 20
49.99999999999857
 30
0.0
 40
1.3
100
AcDbArc
 50
0.000000000000007
 51
90.0
  0
LINE
  5
A8A3
330
1F
100
AcDbEntity
  8
0
  6
Continuous
 62
     7
 48
0.5
370
    -3
100
AcDbLine
 10
825.4999999998377
 20
188.2999999999972
 30
0.0
 11
825.4999999998279
 21
96.29999999999697
 31
0.0
  0
LINE
  5
A8A4
330
1F
100
AcDbEntity
  8
0
  6
Continuous
 62
     7
 48
0.5
370
    -3
100
AcDbLine
 10
839.4999999998329
 20
96.29999999999682
 30
0.0
 11
839.4999999998317
 21
188.2999999999971
 31
0.0
  0
LINE
  5
A8A5
330
1F
100
AcDbEntity
  8
0
  6
Continuous
 62
     7
 48
0.5
370
    -3
100
AcDbLine
 10
825.4999999998288
 20
101.299999999997
 30
0.0
 11
809.4999999998297
 21
101.2999999999969
 31
0.0
  0
LINE
  5
A8A6
330
1F
100
AcDbEntity
  8
0
  6
Continuous
 62
     7
 48
0.5
370
    -3
100
AcDbLine
 10
809.4999999998297
 20
97.299999999997
 30
0.0
 11
825.4999999998279
 21
97.299999999997
 31
0.0
  0
ARC
  5
A8A7
330
1F
100
AcDbEntity
  8
0
  6
Continuous
 62
     7
 48
0.5
370
    -3
100
AcDbCircle
 10
838.1999999998329
 20
96.29999999999682
 30
0.0
 40
1.3
100
AcDbArc
 50
270.0
 51
0.000000000000007
  0
ARC
  5
A8A8
330
1F
100
AcDbEntity
  8
0
  6
Continuous
 62
     7
 48
0.5
370
    -3
100
AcDbCircle
 10
826.7999999998277
 20
96.29999999999682
 30
0.0
 40
1.3
100
AcDbArc
 50
179.9999999999918
 51
270.0
  0
LINE
  5
A8A9
330
1F
100
AcDbEntity
  8
0
  6
Continuous
 62
     7
 48
0.5
370
    -3
100
AcDbLine
 10
838.1999999998329
 20
94.99999999999682
 30
0.0
 11
826.7999999998277
 21
94.99999999999682
 31
0.0
  0
ARC
  5
A8AA
330
1F
100
AcDbEntity
  8
0
  6
Continuous
 62
     7
 48
0.5
370
    -3
100
AcDbCircle
 10
838.1999999998329
 20
188.2999999999971
 30
0.0
 40
1.3
100
AcDbArc
 50
0.000000000000007
 51
90.0
  0
ARC
  5
A8AB
330
1F
100
AcDbEntity
  8
0
  6
Continuous
 62
     7
 48
0.5
370
    -3
100
AcDbCircle
 10
826.7999999998277
 20
188.2999999999971
 30
0.0
 40
1.3
100
AcDbArc
 50
90.0
 51
180.0000000000064
  0
LINE
  5
A8AC
330
1F
100
AcDbEntity
  8
0
  6
Continuous
 62
     7
 48
0.5
370
    -3
100
AcDbLine
 10
838.1999999998329
 20
189.599999999997
 30
0.0
 11
826.7999999998277
 21
189.599999999997
 31
0.0
  0
ARC
  5
A8AD
330
1F
100
AcDbEntity
  8
0
  6
Continuous
 62
     7
 48
0.5
370
    -3
100
AcDbCircle
 10
941.9355079075728
 20
14.49999999999512
 30
0.0
 40
0.2
100
AcDbArc
 50
90.00000000000325
 51
157.3541003000238
  0
LINE
  5
A8AE
330
1F
100
AcDbEntity
  8
0
  6
Continuous
 62
     7
 48
0.5
370
    -3
100
AcDbLine
 10
1014.649999999833
 20
14.19999999999522
 30
0.0
 11
1014.649999999833
 21
5.999999999995063
 31
0.0
  0
ARC
  5
A8AF
330
1F
100
AcDbEntity
  8
0
  6
Continuous
 62
     7
 48
0.5
370
    -3
100
AcDbCircle
 10
1014.149999999833
 20
5.999999999995072
 30
0.0
 40
0.5
100
AcDbArc
 50
270.0
 51
359.9999999999992
  0
LINE
  5
A8B0
330
1F
100
AcDbEntity
  8
0
  6
Continuous
 62
     7
 48
0.5
370
    -3
100
AcDbLine
 10
1017.074610133342
 20
14.99518133658487
 30
0.0
 11
1018.792684748635
 21
10.87707390541364
 31
0.0
  0
ARC
  5
A8B1
330
1F
100
AcDbEntity
  8
0
  6
Continuous
 62
     7
 48
0.5
370
    -3
100
AcDbCircle
 10
1017.064492092094
 20
14.49999999999512
 30
0.0
 40
0.2
100
AcDbArc
 50
22.64589969997768
 51
90.0
  0
LINE
  5
A8B2
330
1F
100
AcDbEntity
  8
0
  6
Continuous
 62
     7
 48
0.5
370
    -3
100
AcDbLine
 10
1021.449999999834
 20
5.99999999999413
 30
0.0
 11
1021.449999999834
 21
11.64502802848992
 31
0.0
  0
LINE
  5
A8B3
330
1F
100
AcDbEntity
  8
0
  6
Continuous
 62
     7
 48
0.5
370
    -3
100
AcDbLine
 10
1017.005172413627
 20
5.637931034477717
 30
0.0
 11
1018.798259377942
 21
10.12064844526498
 31
0.0
  0
ARC
  5
A8B4
330
1F
100
AcDbEntity
  8
0
  6
Continuous
 62
     7
 48
0.5
370
    -3
100
AcDbCircle
 10
1017.869782687055
 20
10.49203912161922
 30
0.0
 40
1.0
100
AcDbArc
 50
338.1985905136525
 51
22.64589969998303
  0
ARC
  5
A8B5
330
1F
100
AcDbEntity
  8
0
  6
Continuous
 62
     7
 48
0.5
370
    -3
100
AcDbCircle
 10
1020.949999999834
 20
5.999999999994144
 30
0.0
 40
0.5
100
AcDbArc
 50
270.0
 51
359.9999999999992
  0
ARC
  5
A8B6
330
1F
100
AcDbEntity
  8
0
  6
Continuous
 62
     7
 48
0.5
370
    -3
100
AcDbCircle
 10
988.2484908871058
 20
-10.51527319994201
 30
0.0
 40
37.0
100
AcDbArc
 50
58.51253063579132
 51
76.76073072925508
  0
ARC
  5
A8B7
330
1F
100
AcDbEntity
  8
0
  6
Continuous
 62
     7
 48
0.5
370
    -3
100
AcDbCircle
 10
988.2484908871058
 20
-10.51527319994201
 30
0.0
 40
42.29999999999999
100
AcDbArc
 50
58.51253063579132
 51
76.76073072925508
  0
ARC
  5
A8B8
330
1F
100
AcDbEntity
  8
0
  6
Continuous
 62
     7
 48
0.5
370
    -3
100
AcDbCircle
 10
988.2484908871058
 20
-10.51527319994201
 30
0.0
 40
41.0
100
AcDbArc
 50
58.51253063579132
 51
76.76073072925508
  0
ARC
  5
A8B9
330
1F
100
AcDbEntity
  8
0
  6
Continuous
 62
     7
 48
0.5
370
    -3
100
AcDbCircle
 10
988.2484908871058
 20
-10.51527319994201
 30
0.0
 40
40.49999999999999
100
AcDbArc
 50
58.51253063579132
 51
76.76073072925508
  0
LINE
  5
A8BA
330
1F
100
AcDbEntity
  8
0
  6
Continuous
 62
     7
 48
0.5
370
    -3
100
AcDbLine
 10
1016.674020150853
 20
15.46290096763384
 30
0.0
 11
1007.574037813496
 21
21.03664014926537
 31
0.0
  0
LINE
  5
A8BB
330
1F
100
AcDbEntity
  8
0
  6
Continuous
 62
     7
 48
0.5
370
    -3
100
AcDbLine
 10
1017.064492092094
 20
14.69999999999512
 30
0.0
 11
1015.149999999833
 21
14.69999999999522
 31
0.0
  0
ARC
  5
A8BC
330
1F
100
AcDbEntity
  8
0
  6
Continuous
 62
     7
 48
0.5
370
    -3
100
AcDbCircle
 10
1016.349999999833
 20
14.19999999999515
 30
0.0
 40
0.5
100
AcDbArc
 50
0.000000000000007
 51
90.0
  0
ARC
  5
A8BD
330
1F
100
AcDbEntity
  8
0
  6
Continuous
 62
     7
 48
0.5
370
    -3
100
AcDbCircle
 10
1015.149999999833
 20
14.19999999999522
 30
0.0
 40
0.5
100
AcDbArc
 50
90.0
 51
179.9999999999991
  0
ARC
  5
A8BE
330
1F
100
AcDbEntity
  8
0
  6
Continuous
 62
     7
 48
0.5
370
    -3
100
AcDbCircle
 10
1016.151708071762
 20
14.6101465527904
 30
0.0
 40
1.0
100
AcDbArc
 50
22.64589969998303
 51
58.51253063579132
  0
ARC
  5
A8BF
330
1F
100
AcDbEntity
  8
0
  6
Continuous
 62
     7
 48
0.5
370
    -3
100
AcDbCircle
 10
1021.949999999834
 20
11.64502802848992
 30
0.0
 40
0.5
100
AcDbArc
 50
58.51253063579132
 51
179.9999999999992
  0
LINE
  5
A8C0
330
1F
100
AcDbEntity
  8
0
  6
Continuous
 62
     7
 48
0.5
370
    -3
100
AcDbLine
 10
1041.799999999833
 20
5.49999999999494
 30
0.0
 11
1065.499999999847
 21
5.499999999994657
 31
0.0
  0
LINE
  5
A8C1
330
1F
100
AcDbEntity
  8
0
  6
Continuous
 62
     7
 48
0.5
370
    -3
100
AcDbLine
 10
998.5943772355296
 20
30.49999999999542
 30
0.0
 11
1065.49999999983
 21
30.49999999999461
 31
0.0
  0
LINE
  5
A8C2
330
1F
100
AcDbEntity
  8
0
  6
Continuous
 62
     7
 48
0.5
370
    -3
100
AcDbLine
 10
1065.499999999849
 20
2.999999999994143
 30
0.0
 11
1065.49999999983
 21
31.49999999999466
 31
0.0
  0
LINE
  5
A8C3
330
1F
100
AcDbEntity
  8
0
  6
Continuous
 62
     7
 48
0.5
370
    -3
100
AcDbLine
 10
1079.499999999834
 20
31.49999999999456
 30
0.0
 11
1079.499999999834
 21
2.999999999994101
 31
0.0
  0
ARC
  5
A8C4
330
1F
100
AcDbEntity
  8
0
  6
Continuous
 62
     7
 48
0.5
370
    -3
100
AcDbCircle
 10
1072.499999999831
 20
13.30384615382893
 30
0.0
 40
19.4961538461656
100
AcDbArc
 50
68.95843137224416
 51
111.0415686277279
  0
LINE
  5
A8C5
330
1F
100
AcDbEntity
  8
0
  6
Continuous
 62
     7
 48
0.5
370
    -3
100
AcDbLine
 10
1029.999999999833
 20
7.300738310133694
 30
0.0
 11
1022.211156039378
 21
12.07140523591186
 31
0.0
  0
LINE
  5
A8C6
330
1F
100
AcDbEntity
  8
0
  6
Continuous
 62
     7
 48
0.5
370
    -3
100
AcDbLine
 10
1039.761156039378
 20
5.426377207416592
 30
0.0
 11
1009.402130090317
 21
24.02128060121744
 31
0.0
  0
LINE
  5
A8C7
330
1F
100
AcDbEntity
  8
0
  6
Continuous
 62
     7
 48
0.5
370
    -3
100
AcDbLine
 10
1040.499999999833
 20
5.560170563281814
 30
0.0
 11
1009.663286129863
 21
24.44765780863914
 31
0.0
  0
LINE
  5
A8C8
330
1F
100
AcDbEntity
  8
0
  6
Continuous
 62
     7
 48
0.5
370
    -3
100
AcDbLine
 10
1041.179005702651
 20
6.668751302578412
 30
0.0
 11
1010.342291832682
 21
25.55623854793561
 31
0.0
  0
LINE
  5
A8C9
330
1F
100
AcDbEntity
  8
0
  6
Continuous
 62
     7
 48
0.5
370
    -3
100
AcDbLine
 10
1032.999999999834
 20
5.499999999994512
 30
0.0
 11
1017.349999999834
 21
5.499999999994923
 31
0.0
  0
ARC
  5
A8CA
330
1F
100
AcDbEntity
  8
0
  6
Continuous
 62
     7
 48
0.5
370
    -3
100
AcDbCircle
 10
1033.299999999834
 20
8.463130672552978
 30
0.0
 40
0.3
100
AcDbArc
 50
58.39249775374523
 51
179.9999999999992
  0
LINE
  5
A8CB
330
1F
100
AcDbEntity
  8
0
  6
Continuous
 62
     7
 48
0.5
370
    -3
100
AcDbLine
 10
1029.999999999833
 20
7.300738310133638
 30
0.0
 11
1029.999999999833
 21
5.499999999994783
 31
0.0
  0
LINE
  5
A8CC
330
1F
100
AcDbEntity
  8
0
  6
Continuous
 62
     7
 48
0.5
370
    -3
100
AcDbLine
 10
1032.999999999833
 20
7.499999999994798
 30
0.0
 11
1031.499999999833
 21
5.499999999994812
 31
0.0
  0
LINE
  5
A8CD
330
1F
100
AcDbEntity
  8
0
  6
Continuous
 62
     7
 48
0.5
370
    -3
100
AcDbLine
 10
1039.499999999834
 20
4.999999999994441
 30
0.0
 11
1039.499999999834
 21
2.999999999994442
 31
0.0
  0
ARC
  5
A8CE
330
1F
100
AcDbEntity
  8
0
  6
Continuous
 62
     7
 48
0.5
370
    -3
100
AcDbCircle
 10
1039.499999999832
 20
4.99999999999484
 30
0.0
 40
0.5
100
AcDbArc
 50
359.9999999999992
 51
58.51253063579132
  0
LINE
  5
A8CF
330
1F
100
AcDbEntity
  8
0
  6
Continuous
 62
     7
 48
0.5
370
    -3
100
AcDbLine
 10
1039.999999999832
 20
2.999999999994442
 30
0.0
 11
1039.999999999832
 21
4.99999999999484
 31
0.0
  0
ARC
  5
A8D0
330
1F
100
AcDbEntity
  8
0
  6
Continuous
 62
     7
 48
0.5
370
    -3
100
AcDbCircle
 10
1040.499999999833
 20
5.560170563281928
 30
0.0
 40
1.3
100
AcDbArc
 50
359.9999999999992
 51
58.51253063579132
  0
LINE
  5
A8D1
330
1F
100
AcDbEntity
  8
0
  6
Continuous
 62
     7
 48
0.5
370
    -3
100
AcDbLine
 10
1041.799999999833
 20
2.999999999994413
 30
0.0
 11
1041.799999999833
 21
5.560170563281915
 31
0.0
  0
LINE
  5
A8D2
330
1F
100
AcDbEntity
  8
0
  6
Continuous
 62
     7
 48
0.5
370
    -3
100
AcDbLine
 10
1032.999999999834
 20
5.49999999999376
 30
0.0
 11
1032.999999999834
 21
8.999999999993525
 31
0.0
  0
LINE
  5
A8D3
330
1F
100
AcDbEntity
  8
0
  6
Continuous
 62
     7
 48
0.5
370
    -3
100
AcDbLine
 10
1032.999999999834
 20
8.999999999993946
 30
0.0
 11
1039.999999999832
 21
4.692307692302299
 31
0.0
  0
LINE
  5
A8D4
330
1F
100
AcDbEntity
  8
0
  6
Continuous
 62
     7
 48
0.5
370
    -3
100
AcDbLine
 10
1037.759610812898
 20
8.763130672552101
 30
0.0
 11
1065.499999999846
 21
8.763130672551397
 31
0.0
  0
LINE
  5
A8D5
330
1F
100
AcDbEntity
  8
0
  6
Continuous
 62
     7
 48
0.5
370
    -3
100
AcDbLine
 10
1016.849999999833
 20
14.19999999999515
 30
0.0
 11
1016.849999999833
 21
5.999999999994923
 31
0.0
  0
ARC
  5
A8D6
330
1F
100
AcDbEntity
  8
0
  6
Continuous
 62
     7
 48
0.5
370
    -3
100
AcDbCircle
 10
1017.349999999834
 20
5.999999999994923
 30
0.0
 40
0.5
100
AcDbArc
 50
180.0
 51
270.0
  0
ARC
  5
A8D7
330
1F
100
AcDbEntity
  8
0
  6
Continuous
 62
     7
 48
0.5
370
    -3
100
AcDbCircle
 10
1049.499999999841
 20
75.80000000000819
 30
0.0
 40
10.0
100
AcDbArc
 50
90.0
 51
180.0
  0
ARC
  5
A8D8
330
1F
100
AcDbEntity
  8
0
  6
Continuous
 62
     7
 48
0.5
370
    -3
100
AcDbCircle
 10
1049.499999999841
 20
75.80000000000819
 30
0.0
 40
16.5
100
AcDbArc
 50
90.0
 51
180.0
  0
LINE
  5
A8D9
330
1F
100
AcDbEntity
  8
0
  6
Continuous
 62
     7
 48
0.5
370
    -3
100
AcDbLine
 10
1078.199999999841
 20
83.5000000000083
 30
0.0
 11
1066.799999999837
 21
83.50000000000841
 31
0.0
  0
LINE
  5
A8DA
330
1F
100
AcDbEntity
  8
0
  6
Continuous
 62
     7
 48
0.5
370
    -3
100
AcDbLine
 10
1065.499999999836
 20
85.8000000000081
 30
0.0
 11
1049.499999999841
 21
85.8000000000082
 31
0.0
  0
ARC
  5
A8DB
330
1F
100
AcDbEntity
  8
0
  6
Continuous
 62
     7
 48
0.5
370
    -3
100
AcDbCircle
 10
1066.799999999837
 20
84.80000000000837
 30
0.0
 40
1.3
100
AcDbArc
 50
179.9999999999935
 51
270.0
  0
ARC
  5
A8DC
330
1F
100
AcDbEntity
  8
0
  6
Continuous
 62
     7
 48
0.5
370
    -3
100
AcDbCircle
 10
1078.199999999841
 20
84.80000000000837
 30
0.0
 40
1.3
100
AcDbArc
 50
270.0
 51
0.000000000000007
  0
LINE
  5
A8DD
330
1F
100
AcDbEntity
  8
0
  6
Continuous
 62
     7
 48
0.5
370
    -3
100
AcDbLine
 10
1065.499999999836
 20
92.30000000000808
 30
0.0
 11
1049.499999999841
 21
92.30000000000819
 31
0.0
  0
LINE
  5
A8DE
330
1F
100
AcDbEntity
  8
0
  6
Continuous
 62
     7
 48
0.5
370
    -3
100
AcDbLine
 10
1065.499999999838
 20
84.80000000000837
 30
0.0
 11
1065.499999999836
 21
206.8000000000083
 31
0.0
  0
LINE
  5
A8DF
330
1F
100
AcDbEntity
  8
0
  6
Continuous
 62
     7
 48
0.5
370
    -3
100
AcDbLine
 10
1079.499999999837
 20
84.80000000000828
 30
0.0
 11
1079.499999999844
 21
206.8000000000009
 31
0.0
  0
LINE
  5
A8E0
330
1F
100
AcDbEntity
  8
0
  6
Continuous
 62
     7
 48
0.5
370
    -3
100
AcDbLine
 10
1078.199999999841
 20
208.1000000000086
 30
0.0
 11
1066.799999999837
 21
208.1000000000087
 31
0.0
  0
ARC
  5
A8E1
330
1F
100
AcDbEntity
  8
0
  6
Continuous
 62
     7
 48
0.5
370
    -3
100
AcDbCircle
 10
1066.799999999837
 20
206.8000000000087
 30
0.0
 40
1.3
100
AcDbArc
 50
90.0
 51
180.0000000000064
  0
ARC
  5
A8E2
330
1F
100
AcDbEntity
  8
0
  6
Continuous
 62
     7
 48
0.5
370
    -3
100
AcDbCircle
 10
1078.199999999841
 20
206.8000000000087
 30
0.0
 40
1.3
100
AcDbArc
 50
0.000000000000007
 51
90.0
  0
LINE
  5
A8E3
330
1F
100
AcDbEntity
  8
0
  6
Continuous
 62
     7
 48
0.5
370
    -3
100
AcDbLine
 10
1032.999999999841
 20
59.79999999999829
 30
0.0
 11
1032.999999999841
 21
75.80000000000819
 31
0.0
  0
LINE
  5
A8E4
330
1F
100
AcDbEntity
  8
0
  6
Continuous
 62
     7
 48
0.5
370
    -3
100
AcDbLine
 10
1039.499999999841
 20
59.79999999999887
 30
0.0
 11
1039.499999999841
 21
75.80000000000819
 31
0.0
  0
LINE
  5
A8E5
330
1F
100
AcDbEntity
  8
0
  6
Continuous
 62
     7
 48
0.5
370
    -3
100
AcDbLine
 10
1041.799999999841
 20
47.09999999999427
 30
0.0
 11
1041.799999999841
 21
58.4999999999988
 31
0.0
  0
ARC
  5
A8E6
330
1F
100
AcDbEntity
  8
0
  6
Continuous
 62
     7
 48
0.5
370
    -3
100
AcDbCircle
 10
1040.49999999984
 20
47.09999999999427
 30
0.0
 40
1.3
100
AcDbArc
 50
270.0
 51
0.000000000000007
  0
ARC
  5
A8E7
330
1F
100
AcDbEntity
  8
0
  6
Continuous
 62
     7
 48
0.5
370
    -3
100
AcDbCircle
 10
1040.49999999984
 20
58.4999999999988
 30
0.0
 40
1.3
100
AcDbArc
 50
0.000000000000007
 51
90.0
  0
VIEWPORT
  5
50DF
102
{ACAD_XDICTIONARY
360
50E0
102
}
330
50D8
100
AcDbEntity
 67
     1
  8
0
 48
0.5
100
AcDbViewport
 10
47.731789381394
 20
2.537545501259529
 30
0.0
 40
431.5016466863657
 41
267.336814859837
 68
     1
 69
     1
 12
47.731789381394
 22
2.537545501259529
 13
0.0
 23
0.0
 14
10.0
 24
10.0
 15
10.0
 25
10.0
 16
0.0
 26
0.0
 36
1.0
 17
0.0
 27
0.0
 37
0.0
 42
50.0
 43
0.0
 44
0.0
 45
267.336814859837
 50
0.0
 51
0.0
 72
   100
 90
   557088
  1

281
     0
 71
     1
 74
     0
110
0.0
120
0.0
130
0.0
111
1.0
121
0.0
131
0.0
112
0.0
122
1.0
132
0.0
 79
     0
146
0.0
170
     0
 61
     5
348
3007
292
     1
282
     1
141
0.0
142
0.0
 63
   250
421
  3355443
  0
ENDSEC
  0
SECTION
  2
OBJECTS
  0
DICTIONARY
  5
C
330
0
100
AcDbDictionary
281
     1
  3
ACAD_CIP_PREVIOUS_PRODUCT_INFO
350
A9CB
  3
ACAD_COLOR
350
3012
  3
ACAD_DETAILVIEWSTYLE
350
A9C5
  3
ACAD_GROUP
350
D
  3
ACAD_LAYOUT
350
1A
  3
ACAD_MATERIAL
350
2FE8
  3
ACAD_MLEADERSTYLE
350
3037
  3
ACAD_MLINESTYLE
350
17
  3
ACAD_PLOTSETTINGS
350
19
  3
ACAD_PLOTSTYLENAME
350
E
  3
ACAD_SCALELIST
350
3015
  3
ACAD_SECTIONVIEWSTYLE
350
A9C3
  3
ACAD_TABLESTYLE
350
3013
  3
ACAD_VISUALSTYLE
350
3001
  3
AcadDim
350
9BD
  3
ACDB_RECOMPOSE_DATA
350
A9D2
  3
AcDbVariableDictionary
350
149
  0
DICTIONARY
  5
5460
330
8
100
AcDbDictionary
280
     1
281
     1
  0
DICTIONARY
  5
307A
330
2
100
AcDbDictionary
280
     1
281
     1
  3
ACAD_LAYERFILTERS
360
51AC
  3
ACAD_LAYERSTATES
360
31CC
  3
ACLYDICTIONARY
360
51AB
  0
DICTIONARY
  5
3089
330
10
100
AcDbDictionary
280
     1
281
     1
  3
ADSK_XREC_LAYER_RECONCILED
360
512D
  0
DICTIONARY
  5
3B4C
330
1F
100
AcDbDictionary
280
     1
281
     1
  3
ACAD_SORTENTS
360
3B4D
  0
DICTIONARY
  5
50E0
330
50DF
100
AcDbDictionary
280
     1
281
     1
  3
ASDK_XREC_ANNOTATION_SCALE_INFO
360
50E1
  0
XRECORD
  5
A9CB
102
{ACAD_REACTORS
330
C
102
}
330
C
100
AcDbXrecord
280
     1
300
ACD
300
2022
300

  0
DICTIONARY
  5
3012
102
{ACAD_REACTORS
330
C
102
}
330
C
100
AcDbDictionary
281
     1
  0
DICTIONARY
  5
A9C5
102
{ACAD_REACTORS
330
C
102
}
330
C
100
AcDbDictionary
281
     1
  3
Metric50
350
A9C6
  0
DICTIONARY
  5
D
102
{ACAD_REACTORS
330
C
102
}
330
C
100
AcDbDictionary
281
     1
  0
DICTIONARY
  5
1A
102
{ACAD_REACTORS
330
C
102
}
330
C
100
AcDbDictionary
281
     1
  3
Model
350
22
  3
レイアウト1
350
50D9
  0
DICTIONARY
  5
2FE8
102
{ACAD_REACTORS
330
C
102
}
330
C
100
AcDbDictionary
281
     1
  3
ByBlock
350
2FF1
  3
ByLayer
350
2FE9
  3
Global
350
2FF9
  0
DICTIONARY
  5
3037
102
{ACAD_REACTORS
330
C
102
}
330
C
100
AcDbDictionary
281
     1
  3
Standard
350
3038
  3
文字列
350
44D7
  0
DICTIONARY
  5
17
102
{ACAD_REACTORS
330
C
102
}
330
C
100
AcDbDictionary
281
     1
  3
Standard
350
18
  0
DICTIONARY
  5
19
102
{ACAD_REACTORS
330
C
102
}
330
C
100
AcDbDictionary
281
     1
  0
ACDBDICTIONARYWDFLT
  5
E
102
{ACAD_REACTORS
330
C
102
}
330
C
100
AcDbDictionary
281
     1
  3
Normal
350
F
100
AcDbDictionaryWithDefault
340
F
  0
DICTIONARY
  5
3015
102
{ACAD_REACTORS
330
C
102
}
330
C
100
AcDbDictionary
281
     1
  3
A0
350
3016
  3
A1
350
3779
  3
A2
350
377A
  3
A3
350
377B
  3
A4
350
377C
  3
A5
350
377D
  3
A6
350
377E
  3
A7
350
377F
  3
A8
350
3780
  3
A9
350
3781
  3
B0
350
3782
  3
B1
350
3783
  3
B2
350
3784
  3
B3
350
3785
  3
B4
350
3786
  3
B5
350
3787
  3
B6
350
3788
  3
B7
350
3789
  3
B8
350
378A
  3
B9
350
378B
  3
C0
350
378C
  3
C1
350
378D
  3
C2
350
378E
  3
C3
350
378F
  3
C4
350
3790
  3
C5
350
3791
  3
C6
350
3792
  3
C7
350
3793
  3
C8
350
3794
  3
C9
350
3795
  3
D0
350
3796
  3
D1
350
3797
  3
D2
350
3798
  0
DICTIONARY
  5
A9C3
102
{ACAD_REACTORS
330
C
102
}
330
C
100
AcDbDictionary
281
     1
  3
Metric50
350
A9C4
  0
DICTIONARY
  5
3013
102
{ACAD_REACTORS
330
C
102
}
330
C
100
AcDbDictionary
281
     1
  3
Standard
350
3014
  0
DICTIONARY
  5
3001
102
{ACAD_REACTORS
330
C
102
}
330
C
100
AcDbDictionary
281
     1
  3
2dWireframe
350
3007
  3
3D Hidden
350
3009
  3
3dWireframe
350
3008
  3
Basic
350
3006
  3
Brighten
350
300D
  3
ColorChange
350
3011
  3
Conceptual
350
300A
  3
Dim
350
300C
  3
EdgeColorOff
350
4AEE
  3
Facepattern
350
3010
  3
Flat
350
3002
  3
FlatWithEdges
350
3003
  3
Gouraud
350
3004
  3
GouraudWithEdges
350
3005
  3
Hidden
350
4AE6
  3
JitterOff
350
4AEC
  3
Linepattern
350
300F
  3
OverhangOff
350
4AED
  3
Realistic
350
300B
  3
Shaded
350
4AEB
  3
Shaded with edges
350
4AEA
  3
Shades of Gray
350
4AE7
  3
Sketchy
350
4AE8
  3
Thicken
350
300E
  3
Wireframe
350
4AE5
  3
X-Ray
350
4AE9
  0
XRECORD
  5
9BD
102
{ACAD_REACTORS
330
C
102
}
330
C
100
AcDbXrecord
280
     1
 90
   990106
  3

 60
     0
 61
     0
 62
     4
 63
     4
 64
     1
 65
     0
 66
     0
 67
     2
 68
     1
 69
     0
 70
     0
 71
     0
 72
     0
 40
46.64942440925108
170
     2
340
0
  0
XRECORD
  5
A9D2
102
{ACAD_REACTORS
330
C
102
}
330
C
100
AcDbXrecord
280
     1
 90
        1
330
3014
330
527A
330
A46A
330
A46B
330
A46C
330
A46D
330
A46E
330
A46F
330
A470
330
A471
330
A472
330
A473
330
A474
330
A475
  0
DICTIONARY
  5
149
102
{ACAD_REACTORS
330
C
102
}
330
C
100
AcDbDictionary
281
     1
  3
CANNOSCALE
350
3058
  3
CMLEADERSTYLE
350
3056
  3
CTABLESTYLE
350
3055
  3
CVIEWDETAILSTYLE
350
A9CC
  3
CVIEWSECTIONSTYLE
350
A9CD
  3
DIMASSOC
350
4F0
  3
INDEXCTL
350
A97D
  3
LAYEREVAL
350
A9CE
  3
LAYERNOTIFY
350
A9CF
  3
LIGHTINGUNITS
350
3059
  3
MSLTSCALE
350
3057
  3
SORTENTS
350
14A
  0
DICTIONARY
  5
51AC
102
{ACAD_REACTORS
330
307A
102
}
330
307A
100
AcDbDictionary
281
     1
  0
DICTIONARY
  5
31CC
102
{ACAD_REACTORS
330
307A
102
}
330
307A
100
AcDbDictionary
281
     1
  0
DICTIONARY
  5
51AB
102
{ACAD_REACTORS
330
307A
102
}
330
307A
100
AcDbDictionary
281
     1
  3
*A1
350
51AD
  0
XRECORD
  5
512D
102
{ACAD_REACTORS
330
3089
102
}
330
3089
100
AcDbXrecord
280
     1
290
     1
  0
SORTENTSTABLE
  5
3B4D
102
{ACAD_REACTORS
330
3B4C
102
}
330
3B4C
100
AcDbSortentsTable
330
1F
331
527A
  5
527C
331
9351
  5
9362
331
9356
  5
9366
331
935E
  5
936F
331
936D
  5
937C
331
9393
  5
93A3
331
9394
  5
93A4
331
9395
  5
93A5
331
9396
  5
93A6
331
9397
  5
93A7
331
9398
  5
93A8
331
9399
  5
93A9
331
939A
  5
93AA
331
939B
  5
93AB
331
939C
  5
93AC
331
939D
  5
93AD
331
939E
  5
93AE
331
939F
  5
93AF
331
93A0
  5
93B0
331
93A1
  5
93B1
331
93A2
  5
93B2
331
93A3
  5
93B3
331
93A4
  5
93B4
331
93A5
  5
93B5
331
93A6
  5
93B6
331
93A7
  5
93B7
331
93A8
  5
93B8
331
93A9
  5
93B9
331
93AA
  5
93BA
331
93AB
  5
93BC
331
93AC
  5
93BD
331
93AD
  5
93BE
331
93AE
  5
93BF
331
93AF
  5
93C0
331
93B0
  5
93C1
331
93B1
  5
93C2
331
93B2
  5
93C3
331
93B4
  5
93C4
331
93B5
  5
93C5
331
93B9
  5
93C9
331
93BA
  5
93CA
331
93BC
  5
93CC
331
93BD
  5
93CD
331
93BE
  5
93CE
331
93BF
  5
93CF
331
93C0
  5
93D1
331
93C1
  5
93D2
331
93C2
  5
93D3
331
93C3
  5
93D6
331
93C4
  5
93D7
331
93C5
  5
93D8
331
93C6
  5
93D9
331
93C7
  5
93DA
331
93C8
  5
93DB
331
93C9
  5
93DF
331
93CA
  5
93E0
331
93CB
  5
93E2
331
93CC
  5
93E3
331
93CD
  5
93E4
331
93CE
  5
93E6
331
93CF
  5
93EA
331
93D0
  5
9530
331
93D2
  5
9532
331
93D3
  5
9533
331
93D4
  5
9538
331
93D5
  5
9539
331
93D7
  5
953B
331
93D8
  5
953D
331
93D9
  5
9540
331
93DA
  5
9541
331
9530
  5
9547
331
9531
  5
9549
331
9534
  5
954B
331
9535
  5
954E
331
9538
  5
9552
331
9539
  5
9553
331
953A
  5
9554
331
953B
  5
9558
331
953E
  5
955D
331
953F
  5
955E
331
9540
  5
955F
331
9544
  5
9561
331
9545
  5
9562
331
9546
  5
9563
331
9548
  5
9564
331
9549
  5
9565
331
954B
  5
9567
331
954C
  5
9568
331
954E
  5
9569
331
9550
  5
956A
331
9553
  5
956B
331
9554
  5
956C
331
9555
  5
956D
331
9556
  5
956E
331
9557
  5
956F
331
955A
  5
9572
331
955B
  5
9575
331
955D
  5
9576
331
955F
  5
9577
331
9560
  5
9579
331
9561
  5
957B
331
9562
  5
957F
331
9563
  5
9583
331
9568
  5
9588
331
9569
  5
9589
331
956A
  5
958A
331
956B
  5
958B
331
956C
  5
958D
331
9577
  5
9593
331
95A5
  5
95C5
331
95A6
  5
95C6
331
95A7
  5
95CA
331
95A8
  5
95CF
331
95A9
  5
95D2
331
95AA
  5
95D3
331
95B8
  5
95EF
331
95BB
  5
95FB
331
95BE
  5
95FD
331
95BF
  5
95FE
331
95C3
  5
95FF
331
95EB
  5
960B
331
95EC
  5
960C
331
95ED
  5
960D
331
95EE
  5
960E
331
95EF
  5
960F
331
95F0
  5
9610
331
95F1
  5
9611
331
95F7
  5
972B
331
95F8
  5
972C
331
95F9
  5
972D
331
95FA
  5
972E
331
95FB
  5
972F
331
95FC
  5
9730
331
95FD
  5
9731
331
95FE
  5
9732
331
95FF
  5
9733
331
9600
  5
9734
331
9601
  5
9735
331
960B
  5
973F
331
960C
  5
9740
331
960D
  5
9741
331
960E
  5
9742
331
960F
  5
9743
331
9610
  5
9744
331
9611
  5
9747
331
9612
  5
974B
331
9613
  5
974C
331
972A
  5
9752
331
972D
  5
9753
331
9732
  5
9758
331
973B
  5
9768
331
973C
  5
976B
331
9746
  5
9777
331
9748
  5
977A
331
974C
  5
977B
331
974D
  5
977D
331
974E
  5
977E
331
9750
  5
977F
331
9751
  5
9786
331
9756
  5
9792
331
9757
  5
9793
331
975A
  5
9794
331
975B
  5
9796
331
975D
  5
9797
331
9760
  5
979B
331
976C
  5
97A5
331
976D
  5
97A7
331
9771
  5
97A8
331
9772
  5
97A9
331
9776
  5
97AA
331
97B5
  5
97DF
331
97B6
  5
97E0
331
97B7
  5
97E1
331
97B8
  5
97E3
331
97BC
  5
97E5
331
97BD
  5
97E6
331
97BE
  5
97E7
331
97BF
  5
97E8
331
97C1
  5
97EB
331
97C3
  5
97EC
331
97C4
  5
97EE
331
97C6
  5
97EF
331
97C7
  5
97F0
331
97C8
  5
97F1
331
97C9
  5
97F2
331
97CA
  5
97F3
331
97CB
  5
9913
331
97CE
  5
9914
331
97CF
  5
9915
331
97D0
  5
9916
331
97D1
  5
9919
331
97D2
  5
991D
331
97D3
  5
991E
331
97D4
  5
9923
331
97D5
  5
9924
331
97D6
  5
9925
331
97D7
  5
9926
331
97D9
  5
992A
331
97DA
  5
992D
331
97DD
  5
992E
331
97DE
  5
992F
331
97DF
  5
9930
331
97E0
  5
9931
331
97E1
  5
9933
331
97E5
  5
9939
331
97E6
  5
993B
331
97E7
  5
993C
331
97E8
  5
993E
331
97E9
  5
993F
331
97EA
  5
9940
331
97EB
  5
9941
331
97EF
  5
9942
331
990F
  5
9943
331
9941
  5
9976
331
9946
  5
9979
331
9949
  5
997B
331
9952
  5
9980
331
9953
  5
9981
331
9954
  5
9983
331
9955
  5
9985
331
9956
  5
9986
331
9957
  5
9987
331
9958
  5
9989
331
995B
  5
998C
331
995C
  5
998D
331
995D
  5
998E
331
995E
  5
998F
331
995F
  5
9990
331
9960
  5
9991
331
9961
  5
9992
331
9962
  5
9993
331
9964
  5
9995
331
9965
  5
9996
331
9966
  5
9998
331
9967
  5
9999
331
9968
  5
999C
331
996A
  5
999D
331
996B
  5
999F
331
996E
  5
99A0
331
996F
  5
99A1
331
9970
  5
99A6
331
9973
  5
99A7
331
9974
  5
99AA
331
9975
  5
99AB
331
9976
  5
99B0
331
9979
  5
99B1
331
997A
  5
99B7
331
9984
  5
99D4
331
9985
  5
99D5
331
9986
  5
99D8
331
9987
  5
99DB
331
9988
  5
9AE4
331
9989
  5
9AE5
331
998A
  5
9AE8
331
999C
  5
9AEE
331
99A1
  5
9AF1
331
99A9
  5
9AF2
331
99AA
  5
9AF3
331
99AC
  5
9AF4
331
99AD
  5
9AF5
331
99AE
  5
9AF6
331
99B0
  5
9AF9
331
99B6
  5
9AFA
331
99BB
  5
9AFB
331
99BD
  5
9AFC
331
99BF
  5
9AFD
331
99C0
  5
9AFE
331
99C1
  5
9AFF
331
99C2
  5
9B00
331
99C7
  5
9B01
331
99C8
  5
9B02
331
99D2
  5
9B11
331
99D3
  5
9B12
331
99D4
  5
9B13
331
99D5
  5
9B14
331
99D6
  5
9B16
331
99D7
  5
9B17
331
99D8
  5
9B18
331
99D9
  5
9B19
331
99DA
  5
9B1A
331
9AE8
  5
9B22
331
9B1F
  5
9B6F
331
9B50
  5
9B99
331
9B51
  5
9B9B
331
9B52
  5
9B9C
331
9B53
  5
9B9D
331
9B55
  5
9B9E
331
9B56
  5
9BA0
331
9B58
  5
9BA1
331
9B59
  5
9BA3
331
9B5C
  5
9BA4
331
9B5D
  5
9BA5
331
9B5E
  5
9BA8
331
9B64
  5
9BA9
331
9B65
  5
9BAB
331
9B67
  5
9BAC
331
9B68
  5
9BAD
331
9B69
  5
9BAE
331
9B6A
  5
9BAF
331
9B6B
  5
9BB0
331
9B6F
  5
9BB1
331
9B70
  5
9BB2
331
9B74
  5
9CBE
331
9B75
  5
9CC6
331
9B76
  5
9CC7
331
9B77
  5
9CC8
331
9B78
  5
9CC9
331
9B7B
  5
9CCB
331
9B7D
  5
9CCD
331
9B7E
  5
9CCF
331
9B7F
  5
9CD0
331
9B80
  5
9CD1
331
9B81
  5
9CD2
331
9B82
  5
9CD3
331
9B83
  5
9CD6
331
9B84
  5
9CD7
331
9B88
  5
9CDD
331
9B8B
  5
9CDE
331
9B8C
  5
9CDF
331
9B8F
  5
9CE6
331
9B92
  5
9CE7
331
9B93
  5
9CE8
331
9B95
  5
9CF2
331
9B96
  5
9CF4
331
9B97
  5
9CF9
331
9B9D
  5
9CFA
331
9B9E
  5
9CFC
331
9B9F
  5
9CFD
331
9BA0
  5
9CFF
331
9BA3
  5
9D02
331
9BA4
  5
9D04
331
9BA5
  5
9D05
331
9BA6
  5
9D06
331
9BA8
  5
9D08
331
9BA9
  5
9D09
331
9BAA
  5
9D0A
331
9BAC
  5
9D0B
331
9BAD
  5
9D0C
331
9BB2
  5
9D11
331
9CBE
  5
9D12
331
9D06
  5
9D52
331
9D07
  5
9D55
331
9D08
  5
9D57
331
9D0B
  5
9D59
331
9D0C
  5
9D5A
331
9D0D
  5
9D5E
331
9D11
  5
9D64
331
9D12
  5
9D68
331
9D13
  5
9D69
331
9D14
  5
9D6A
331
9D16
  5
9D6B
331
9D1A
  5
9D6C
331
9D1B
  5
9D72
331
9D1C
  5
9D74
331
9D1D
  5
9D75
331
9D1E
  5
9D76
331
9D24
  5
9D81
331
9D25
  5
9D82
331
9D26
  5
9D83
331
9D27
  5
9D84
331
9D28
  5
9D85
331
9D29
  5
9D86
331
9D2A
  5
9E69
331
9D2C
  5
9E6A
331
9D2D
  5
9E6C
331
9D2E
  5
9E70
331
9D2F
  5
9E71
331
9D30
  5
9E75
331
9D33
  5
9E76
331
9D35
  5
9EBF
331
9D38
  5
9EC1
331
9D39
  5
9EC7
331
9D3A
  5
9ECF
331
9D3B
  5
9ED1
331
9D3D
  5
9ED2
331
9D3E
  5
9EDC
331
9D3F
  5
9EDD
331
9D43
  5
9EDF
331
9D69
  5
A188
331
9D6A
  5
A1A5
331
9D6C
  5
A1A6
331
9D6D
  5
A1AC
331
9D6F
  5
A1AE
331
9D70
  5
A24D
331
9D71
  5
A254
331
9D73
  5
A255
331
9D75
  5
A258
331
9D76
  5
A259
331
9D77
  5
A25A
331
9D79
  5
A2A2
331
9D7C
  5
A2A5
331
9D7D
  5
A46C
331
9D7E
  5
A46F
331
9D7F
  5
A471
331
9D80
  5
A472
331
9D81
  5
A473
331
9D86
  5
A475
331
9D87
  5
A5AB
331
9D88
  5
A5AC
331
9F2B
  5
A5B0
331
A13D
  5
A5B1
331
A1A5
  5
A5B2
331
A1A6
  5
A5B3
331
A1AE
  5
A5B5
331
A46A
  5
A5BE
331
A46B
  5
A5BF
331
A46C
  5
A5C0
331
A46D
  5
A5C1
331
A46E
  5
A5C2
331
A46F
  5
A5C3
331
A470
  5
A5C4
331
A471
  5
A5C5
331
A472
  5
A5C6
331
A473
  5
A5CD
331
A474
  5
A5CE
331
A475
  5
A5CF
331
A5A7
  5
9759
331
A5A8
  5
975D
331
A5A9
  5
9935
331
A5AE
  5
A5D3
331
A5AF
  5
A5D5
331
A5B0
  5
A5D4
331
A5B4
  5
9B23
331
A5B5
  5
9B25
331
A5B6
  5
9B24
331
A5BD
  5
A5D6
331
A5BE
  5
A6BD
331
A5BF
  5
9CFB
331
A5CA
  5
9D13
331
A5CB
  5
9D14
331
A5CC
  5
9D80
331
A5CD
  5
A6BE
331
A5CE
  5
A6BF
331
A5CF
  5
9D77
331
A73A
  5
93D4
331
A73B
  5
A740
331
A73C
  5
A741
331
A73D
  5
A742
331
A73E
  5
A743
331
A73F
  5
A744
331
A740
  5
A745
331
A741
  5
A746
331
A742
  5
A747
331
A743
  5
A748
331
A744
  5
A749
331
A745
  5
A74A
331
A746
  5
A74B
331
A747
  5
A74C
331
A748
  5
A74D
331
A749
  5
A74E
331
A74A
  5
A74F
331
A74B
  5
A750
331
A74C
  5
A751
331
A74D
  5
A752
331
A74E
  5
A753
331
A74F
  5
A754
331
A750
  5
A755
331
A751
  5
A756
331
A752
  5
A757
331
A753
  5
A758
331
A754
  5
A759
331
A755
  5
A75A
331
A756
  5
A75B
331
A757
  5
A75C
331
A758
  5
A75D
331
A759
  5
A75E
331
A75A
  5
A75F
331
A75B
  5
A760
331
A75C
  5
A761
331
A75D
  5
A762
331
A75E
  5
A763
331
A75F
  5
A764
331
A760
  5
A765
331
A761
  5
A766
331
A762
  5
A767
331
A763
  5
A768
331
A764
  5
A769
331
A765
  5
A76A
331
A766
  5
A76B
331
A767
  5
A76C
331
A768
  5
A76D
331
A769
  5
A76E
331
A76A
  5
A76F
331
A76B
  5
A770
331
A76C
  5
A771
331
A76D
  5
A772
331
A76E
  5
A773
331
A76F
  5
A774
331
A770
  5
A775
331
A771
  5
A776
331
A772
  5
A777
331
A773
  5
A778
331
A774
  5
A779
331
A775
  5
A77A
331
A776
  5
9573
331
A777
  5
A77B
331
A778
  5
A77C
331
A779
  5
A77D
331
A77A
  5
A77E
331
A77B
  5
A77F
331
A77C
  5
A780
331
A77D
  5
A781
331
A77E
  5
A782
331
A77F
  5
A783
331
A780
  5
A784
331
A781
  5
A785
331
A782
  5
A786
331
A783
  5
A787
331
A784
  5
A788
331
A785
  5
A789
331
A786
  5
A78A
331
A787
  5
A78B
331
A788
  5
A78C
331
A789
  5
A78D
331
A78A
  5
A78E
331
A78B
  5
A78F
331
A78C
  5
A790
331
A78D
  5
A791
331
A78E
  5
A792
331
A78F
  5
A793
331
A790
  5
A794
331
A791
  5
A795
331
A792
  5
A796
331
A793
  5
A797
331
A794
  5
A798
331
A795
  5
A799
331
A796
  5
A79A
331
A797
  5
A79B
331
A798
  5
A79C
331
A799
  5
A79D
331
A79A
  5
A79E
331
A79B
  5
A79F
331
A79C
  5
A7A0
331
A79D
  5
A7A1
331
A79E
  5
A7A2
331
A79F
  5
A7A3
331
A7A0
  5
A7A4
331
A7A1
  5
A7A5
331
A7A2
  5
A7A6
331
A7A3
  5
A7A7
331
A7A4
  5
A7A8
331
A7A5
  5
A7A9
331
A7A6
  5
A7AA
331
A7A7
  5
A7AB
331
A7A8
  5
A7AC
331
A7A9
  5
A7AD
331
A7AA
  5
A7AE
331
A7AB
  5
A7AF
331
A7AC
  5
A7B0
331
A7AD
  5
A7B1
331
A7AE
  5
A7B2
331
A7AF
  5
A7B3
331
A7B0
  5
A7B4
331
A7B1
  5
A7B5
331
A7B2
  5
A7B6
331
A7B3
  5
A7B7
331
A7B4
  5
A7B8
331
A7B5
  5
A7B9
331
A7B6
  5
A7BA
331
A7B7
  5
A7BB
331
A7B8
  5
A7BC
331
A7B9
  5
97E9
331
A7BA
  5
A7BD
331
A7BB
  5
A7BE
331
A7BC
  5
A7BF
331
A7BD
  5
A7C0
331
A7BE
  5
A7C1
331
A7BF
  5
A7C2
331
A7C0
  5
A7C3
331
A7C1
  5
A7C4
331
A7C2
  5
A7C5
331
A7C3
  5
A7C6
331
A7C4
  5
A7C7
331
A7C5
  5
A7C8
331
A7C6
  5
A7C9
331
A7C7
  5
A7CA
331
A7C8
  5
A7CB
331
A7C9
  5
A7CC
331
A7CA
  5
A7CD
331
A7CB
  5
A7CE
331
A7CC
  5
A7CF
331
A7CD
  5
A7D0
331
A7CE
  5
A7D1
331
A7CF
  5
A7D2
331
A7D0
  5
A7D3
331
A7D1
  5
A7D4
331
A7D2
  5
A7D5
331
A7D3
  5
A7D6
331
A7D4
  5
A7D7
331
A7D5
  5
A7D8
331
A7D6
  5
A7D9
331
A7D7
  5
A7DA
331
A7D8
  5
A7DB
331
A7D9
  5
A7DC
331
A7DA
  5
A7DD
331
A7DB
  5
A7DE
331
A7DC
  5
A7DF
331
A7DD
  5
A7E0
331
A7DE
  5
A7E1
331
A7DF
  5
A7E2
331
A7E0
  5
A7E3
331
A7E1
  5
A7E4
331
A7E2
  5
A7E5
331
A7E3
  5
A7E6
331
A7E4
  5
A7E7
331
A7E5
  5
A7E8
331
A7E6
  5
A7E9
331
A7E7
  5
A7EA
331
A7E8
  5
A7EB
331
A7E9
  5
A7EC
331
A7EA
  5
A7ED
331
A7EB
  5
A7EE
331
A7EC
  5
A7EF
331
A7ED
  5
A7F0
331
A7EE
  5
A7F1
331
A7EF
  5
A7F2
331
A7F0
  5
A7F3
331
A7F1
  5
A7F4
331
A7F2
  5
A7F5
331
A7F3
  5
A7F6
331
A7F4
  5
A7F7
331
A7F5
  5
A7F8
331
A7F6
  5
9997
331
A7F7
  5
A7F9
331
A7F8
  5
A7FA
331
A7F9
  5
A7FB
331
A7FA
  5
A7FC
331
A7FB
  5
A7FD
331
A7FC
  5
A7FE
331
A7FD
  5
A7FF
331
A7FE
  5
A800
331
A7FF
  5
A801
331
A800
  5
A802
331
A801
  5
A803
331
A802
  5
A804
331
A803
  5
A805
331
A804
  5
A806
331
A805
  5
A807
331
A806
  5
A808
331
A807
  5
A809
331
A808
  5
A80A
331
A809
  5
A80B
331
A80A
  5
A80C
331
A80B
  5
A80D
331
A80C
  5
A80E
331
A80D
  5
A80F
331
A80E
  5
A810
331
A80F
  5
A811
331
A810
  5
A812
331
A811
  5
A813
331
A812
  5
A814
331
A813
  5
A815
331
A814
  5
A816
331
A815
  5
A817
331
A816
  5
A818
331
A817
  5
A819
331
A818
  5
A81A
331
A819
  5
A81B
331
A81A
  5
A81C
331
A81B
  5
A81D
331
A81C
  5
A81E
331
A81D
  5
A81F
331
A81E
  5
A820
331
A81F
  5
A821
331
A820
  5
A822
331
A821
  5
A823
331
A822
  5
A824
331
A823
  5
A825
331
A824
  5
A826
331
A825
  5
A827
331
A826
  5
A828
331
A827
  5
A829
331
A828
  5
A82A
331
A829
  5
A82B
331
A82A
  5
A82C
331
A82B
  5
A82D
331
A82C
  5
A82E
331
A82D
  5
A82F
331
A82E
  5
A875
331
A82F
  5
A876
331
A875
  5
9CF5
331
A876
  5
A877
331
A877
  5
A878
331
A878
  5
A879
331
A879
  5
A87A
331
A87A
  5
A87B
331
A87B
  5
A87C
331
A87C
  5
A87D
331
A87D
  5
A87E
331
A87E
  5
A87F
331
A87F
  5
A880
331
A880
  5
A881
331
A881
  5
A882
331
A882
  5
A883
331
A883
  5
A884
331
A884
  5
A885
331
A885
  5
A886
331
A886
  5
A887
331
A887
  5
A888
331
A888
  5
A889
331
A889
  5
A88A
331
A88A
  5
A88B
331
A88B
  5
A88C
331
A88C
  5
A88D
331
A88D
  5
A88E
331
A88E
  5
A88F
331
A88F
  5
A890
331
A890
  5
A891
331
A891
  5
A892
331
A892
  5
A893
331
A893
  5
A894
331
A894
  5
A895
331
A895
  5
A896
331
A896
  5
A897
331
A897
  5
A898
331
A898
  5
A899
331
A899
  5
A89A
331
A89A
  5
A89B
331
A89B
  5
A89C
331
A89C
  5
A89D
331
A89D
  5
A89E
331
A89E
  5
A89F
331
A89F
  5
A8A0
331
A8A0
  5
A8A1
331
A8A1
  5
A8A2
331
A8A2
  5
A8A3
331
A8A3
  5
A8A4
331
A8A4
  5
A8A5
331
A8A5
  5
A8A6
331
A8A6
  5
A8A7
331
A8A7
  5
A8A8
331
A8A8
  5
A8A9
331
A8A9
  5
A8AA
331
A8AA
  5
A8AB
331
A8AB
  5
A8AC
331
A8AC
  5
A8AD
331
A8AD
  5
9D54
  0
XRECORD
  5
50E1
102
{ACAD_REACTORS
330
50E0
102
}
330
50E0
100
AcDbXrecord
280
     1
 90
        1
340
3016
  0
ACDBDETAILVIEWSTYLE
  5
A9C6
102
{ACAD_XDICTIONARY
360
A9D5
102
}
102
{ACAD_REACTORS
330
A9C5
102
}
330
A9C5
100
AcDbModelDocViewStyle
 70
     0
  3
Metric50
290
     0
100
AcDbDetailViewStyle
 70
     0
 71
     0
 90
        3
 71
     1
340
11
 62
   256
 40
5.0
340
0
 62
   256
 40
5.0
300

 40
0.0
280
     1
 71
     2
340
16
 90
       25
 62
   256
 71
     3
340
11
 62
   256
 40
5.0
 90
        0
 40
15.0
 90
        1
300
%<\AcVar ViewDetailId>% (%<\AcVar ViewScale \f "%sn">%)
 71
     4
340
16
 90
       25
 62
   256
340
16
 90
       25
 62
   256
280
     0
  0
LAYOUT
  5
22
102
{ACAD_XDICTIONARY
360
50D6
102
}
102
{ACAD_REACTORS
330
1A
102
}
330
1A
100
AcDbPlotSettings
  1

  2
\\8FCL3\IPSIO NX710
  4
A4
  6

 40
5.831416606903076
 41
4.942422866821289
 42
7.609405517578125
 43
5.789093017578125
 44
209.9733276367186
 45
296.9683227539062
 46
0.0
 47
0.0
 48
0.0
 49
0.0
140
0.0
141
0.0
142
1.0
143
1.334254467352194
 70
 11952
 72
     1
 73
     1
 74
     0
  7

 75
     0
147
0.7494822198230922
 76
     0
 77
     2
 78
   300
148
-57.88030180184231
149
202.7182899524258
100
AcDbLayout
  1
Model
 70
     1
 71
     0
 10
0.0
 20
0.0
 11
12.0
 21
9.0
 12
0.0
 22
0.0
 32
0.0
 14
0.0
 24
0.0
 34
0.0
 15
0.0
 25
0.0
 35
0.0
146
0.0
 13
0.0
 23
0.0
 33
0.0
 16
1.0
 26
0.0
 36
0.0
 17
0.0
 27
1.0
 37
0.0
 76
     0
330
1F
331
2FD9
  0
LAYOUT
  5
50D9
102
{ACAD_XDICTIONARY
360
50ED
102
}
102
{ACAD_REACTORS
330
1A
102
}
330
1A
100
AcDbPlotSettings
  1

  2
HMYPR07
  4
A4
  6

 40
5.873749732971191
 41
5.873747825622557
 42
5.873748779296875
 43
5.873748779296875
 44
209.9733276367186
 45
296.9259948730469
 46
0.0
 47
0.0
 48
0.0
 49
0.0
140
0.0
141
0.0
142
1.0
143
1.0
 70
   688
 72
     1
 73
     1
 74
     5
  7

 75
    16
147
1.0
 76
     0
 77
     2
 78
   300
148
0.0
149
0.0
100
AcDbLayout
  1
レイアウト1
 70
     1
 71
     1
 10
-5.873748779296875
 20
-5.873749732971191
 11
291.05224609375
 21
204.0995779037475
 12
0.0
 22
0.0
 32
0.0
 14
28.51784982681273
 24
19.82258291244505
 34
0.0
 15
256.6606484413147
 25
178.4032462120056
 35
0.0
146
0.0
 13
0.0
 23
0.0
 33
0.0
 16
1.0
 26
0.0
 36
0.0
 17
0.0
 27
1.0
 37
0.0
 76
     0
330
50D8
331
50DF
1001
ACAD_PSEXT
1000
HMYPR07
1000
Canon LBP3920/3970 LIPS
1000
192.168.32.57
1000

1070
     0
  0
MATERIAL
  5
2FF1
102
{ACAD_XDICTIONARY
360
2FF2
102
}
102
{ACAD_REACTORS
330
2FE8
102
}
330
2FE8
100
AcDbMaterial
  1
ByBlock
 72
     0
 43
0.0008202099737533
 43
0.0
 43
0.0
 43
0.0
 43
0.0
 43
0.0008202099737533
 43
0.0
 43
0.0
 43
0.0
 43
0.0
 43
1.0
 43
0.0
 43
0.0
 43
0.0
 43
0.0
 43
1.0
 77
     0
 47
0.0008202099737533
 47
0.0
 47
0.0
 47
0.0
 47
0.0
 47
0.0008202099737533
 47
0.0
 47
0.0
 47
0.0
 47
0.0
 47
1.0
 47
0.0
 47
0.0
 47
0.0
 47
0.0
 47
1.0
171
     0
 49
0.0008202099737533
 49
0.0
 49
0.0
 49
0.0
 49
0.0
 49
0.0008202099737533
 49
0.0
 49
0.0
 49
0.0
 49
0.0
 49
1.0
 49
0.0
 49
0.0
 49
0.0
 49
0.0
 49
1.0
175
     0
142
0.0008202099737533
142
0.0
142
0.0
142
0.0
142
0.0
142
0.0008202099737533
142
0.0
142
0.0
142
0.0
142
0.0
142
1.0
142
0.0
142
0.0
142
0.0
142
0.0
142
1.0
179
     0
144
0.0008202099737533
144
0.0
144
0.0
144
0.0
144
0.0
144
0.0008202099737533
144
0.0
144
0.0
144
0.0
144
0.0
144
1.0
144
0.0
144
0.0
144
0.0
144
0.0
144
1.0
147
0.0008202099737533
147
0.0
147
0.0
147
0.0
147
0.0
147
0.0008202099737533
147
0.0
147
0.0
147
0.0
147
0.0
147
1.0
147
0.0
147
0.0
147
0.0
147
0.0
147
1.0
  0
MATERIAL
  5
2FE9
102
{ACAD_XDICTIONARY
360
2FEA
102
}
102
{ACAD_REACTORS
330
2FE8
102
}
330
2FE8
100
AcDbMaterial
  1
ByLayer
 72
     0
 43
0.0008202099737533
 43
0.0
 43
0.0
 43
0.0
 43
0.0
 43
0.0008202099737533
 43
0.0
 43
0.0
 43
0.0
 43
0.0
 43
1.0
 43
0.0
 43
0.0
 43
0.0
 43
0.0
 43
1.0
 77
     0
 47
0.0008202099737533
 47
0.0
 47
0.0
 47
0.0
 47
0.0
 47
0.0008202099737533
 47
0.0
 47
0.0
 47
0.0
 47
0.0
 47
1.0
 47
0.0
 47
0.0
 47
0.0
 47
0.0
 47
1.0
171
     0
 49
0.0008202099737533
 49
0.0
 49
0.0
 49
0.0
 49
0.0
 49
0.0008202099737533
 49
0.0
 49
0.0
 49
0.0
 49
0.0
 49
1.0
 49
0.0
 49
0.0
 49
0.0
 49
0.0
 49
1.0
175
     0
142
0.0008202099737533
142
0.0
142
0.0
142
0.0
142
0.0
142
0.0008202099737533
142
0.0
142
0.0
142
0.0
142
0.0
142
1.0
142
0.0
142
0.0
142
0.0
142
0.0
142
1.0
179
     0
144
0.0008202099737533
144
0.0
144
0.0
144
0.0
144
0.0
144
0.0008202099737533
144
0.0
144
0.0
144
0.0
144
0.0
144
1.0
144
0.0
144
0.0
144
0.0
144
0.0
144
1.0
147
0.0008202099737533
147
0.0
147
0.0
147
0.0
147
0.0
147
0.0008202099737533
147
0.0
147
0.0
147
0.0
147
0.0
147
1.0
147
0.0
147
0.0
147
0.0
147
0.0
147
1.0
  0
MATERIAL
  5
2FF9
102
{ACAD_XDICTIONARY
360
2FFA
102
}
102
{ACAD_REACTORS
330
2FE8
102
}
330
2FE8
100
AcDbMaterial
  1
Global
 72
     0
 43
0.0008202099737533
 43
0.0
 43
0.0
 43
0.0
 43
0.0
 43
0.0008202099737533
 43
0.0
 43
0.0
 43
0.0
 43
0.0
 43
1.0
 43
0.0
 43
0.0
 43
0.0
 43
0.0
 43
1.0
 77
     0
 47
0.0008202099737533
 47
0.0
 47
0.0
 47
0.0
 47
0.0
 47
0.0008202099737533
 47
0.0
 47
0.0
 47
0.0
 47
0.0
 47
1.0
 47
0.0
 47
0.0
 47
0.0
 47
0.0
 47
1.0
171
     0
 49
0.0008202099737533
 49
0.0
 49
0.0
 49
0.0
 49
0.0
 49
0.0008202099737533
 49
0.0
 49
0.0
 49
0.0
 49
0.0
 49
1.0
 49
0.0
 49
0.0
 49
0.0
 49
0.0
 49
1.0
175
     0
142
0.0008202099737533
142
0.0
142
0.0
142
0.0
142
0.0
142
0.0008202099737533
142
0.0
142
0.0
142
0.0
142
0.0
142
1.0
142
0.0
142
0.0
142
0.0
142
0.0
142
1.0
179
     0
144
0.0008202099737533
144
0.0
144
0.0
144
0.0
144
0.0
144
0.0008202099737533
144
0.0
144
0.0
144
0.0
144
0.0
144
1.0
144
0.0
144
0.0
144
0.0
144
0.0
144
1.0
147
0.0008202099737533
147
0.0
147
0.0
147
0.0
147
0.0
147
0.0008202099737533
147
0.0
147
0.0
147
0.0
147
0.0
147
1.0
147
0.0
147
0.0
147
0.0
147
0.0
147
1.0
  0
MLEADERSTYLE
  5
3038
102
{ACAD_REACTORS
330
3037
102
}
330
3037
100
AcDbMLeaderStyle
179
     2
170
     2
171
     1
172
     0
 90
        2
 40
0.0
 41
0.0
173
     1
 91
-1056964608
340
14
 92
       -2
290
     1
 42
1.0
291
     1
 43
0.5
  3
Standard
 44
2.5
300

342
11
174
     5
178
     5
175
     1
176
     0
 93
-1056964608
 45
2.5
292
     0
297
     0
 46
4.0
 94
-1056964608
 47
1.0
 49
1.0
140
1.0
293
     1
141
0.0
294
     1
177
     0
142
1.0
295
     0
296
     0
143
0.125
271
     0
272
     9
273
     9
298
     0
1001
ACAD_MLEADERVER
1070
     2
  0
MLEADERSTYLE
  5
44D7
102
{ACAD_REACTORS
330
3037
102
}
330
3037
100
AcDbMLeaderStyle
179
     2
170
     2
171
     1
172
     0
 90
        2
 40
0.0
 41
0.0
173
     1
 91
-1073741824
340
15
 92
       -1
290
     1
 42
1.0
291
     1
 43
0.5
  3
Standard
 44
2.5
300

342
DE0
174
     5
178
     5
175
     1
176
     0
 93
-1073741824
 45
2.5
292
     0
297
     0
 46
4.0
 94
-1056964608
 47
1.0
 49
1.0
140
1.0
293
     1
141
0.0
294
     1
177
     0
142
1.0
295
     0
296
     0
143
0.125
271
     0
272
     9
273
     9
298
     0
1001
ACAD_MLEADERVER
1070
     2
  0
MLINESTYLE
  5
18
102
{ACAD_REACTORS
330
17
102
}
330
17
100
AcDbMlineStyle
  2
STANDARD
 70
     0
  3

 62
   256
 51
90.0
 52
90.0
 71
     2
 49
0.5
 62
   256
  6
BYLAYER
 49
-0.5
 62
   256
  6
BYLAYER
  0
ACDBPLACEHOLDER
  5
F
102
{ACAD_REACTORS
330
E
102
}
330
E
  0
SCALE
  5
3016
102
{ACAD_REACTORS
330
3015
102
}
330
3015
100
AcDbScale
 70
     0
300
1:1
140
1.0
141
1.0
290
     1
  0
SCALE
  5
3779
102
{ACAD_REACTORS
330
3015
102
}
330
3015
100
AcDbScale
 70
     0
300
1:2
140
1.0
141
2.0
290
     0
  0
SCALE
  5
377A
102
{ACAD_REACTORS
330
3015
102
}
330
3015
100
AcDbScale
 70
     0
300
1:4
140
1.0
141
4.0
290
     0
  0
SCALE
  5
377B
102
{ACAD_REACTORS
330
3015
102
}
330
3015
100
AcDbScale
 70
     0
300
1:5
140
1.0
141
5.0
290
     0
  0
SCALE
  5
377C
102
{ACAD_REACTORS
330
3015
102
}
330
3015
100
AcDbScale
 70
     0
300
1:8
140
1.0
141
8.0
290
     0
  0
SCALE
  5
377D
102
{ACAD_REACTORS
330
3015
102
}
330
3015
100
AcDbScale
 70
     0
300
1:10
140
1.0
141
10.0
290
     0
  0
SCALE
  5
377E
102
{ACAD_REACTORS
330
3015
102
}
330
3015
100
AcDbScale
 70
     0
300
1:16
140
1.0
141
16.0
290
     0
  0
SCALE
  5
377F
102
{ACAD_REACTORS
330
3015
102
}
330
3015
100
AcDbScale
 70
     0
300
1:20
140
1.0
141
20.0
290
     0
  0
SCALE
  5
3780
102
{ACAD_REACTORS
330
3015
102
}
330
3015
100
AcDbScale
 70
     0
300
1:30
140
1.0
141
30.0
290
     0
  0
SCALE
  5
3781
102
{ACAD_REACTORS
330
3015
102
}
330
3015
100
AcDbScale
 70
     0
300
1:40
140
1.0
141
40.0
290
     0
  0
SCALE
  5
3782
102
{ACAD_REACTORS
330
3015
102
}
330
3015
100
AcDbScale
 70
     0
300
1:50
140
1.0
141
50.0
290
     0
  0
SCALE
  5
3783
102
{ACAD_REACTORS
330
3015
102
}
330
3015
100
AcDbScale
 70
     0
300
1:100
140
1.0
141
100.0
290
     0
  0
SCALE
  5
3784
102
{ACAD_REACTORS
330
3015
102
}
330
3015
100
AcDbScale
 70
     0
300
2:1
140
2.0
141
1.0
290
     0
  0
SCALE
  5
3785
102
{ACAD_REACTORS
330
3015
102
}
330
3015
100
AcDbScale
 70
     0
300
4:1
140
4.0
141
1.0
290
     0
  0
SCALE
  5
3786
102
{ACAD_REACTORS
330
3015
102
}
330
3015
100
AcDbScale
 70
     0
300
8:1
140
8.0
141
1.0
290
     0
  0
SCALE
  5
3787
102
{ACAD_REACTORS
330
3015
102
}
330
3015
100
AcDbScale
 70
     0
300
10:1
140
10.0
141
1.0
290
     0
  0
SCALE
  5
3788
102
{ACAD_REACTORS
330
3015
102
}
330
3015
100
AcDbScale
 70
     0
300
100:1
140
100.0
141
1.0
290
     0
  0
SCALE
  5
3789
102
{ACAD_REACTORS
330
3015
102
}
330
3015
100
AcDbScale
 70
     0
300
1/128" = 1'-0"
140
0.0078125
141
12.0
290
     0
  0
SCALE
  5
378A
102
{ACAD_REACTORS
330
3015
102
}
330
3015
100
AcDbScale
 70
     0
300
1/64" = 1'-0"
140
0.015625
141
12.0
290
     0
  0
SCALE
  5
378B
102
{ACAD_REACTORS
330
3015
102
}
330
3015
100
AcDbScale
 70
     0
300
1/32" = 1'-0"
140
0.03125
141
12.0
290
     0
  0
SCALE
  5
378C
102
{ACAD_REACTORS
330
3015
102
}
330
3015
100
AcDbScale
 70
     0
300
1/16" = 1'-0"
140
0.0625
141
12.0
290
     0
  0
SCALE
  5
378D
102
{ACAD_REACTORS
330
3015
102
}
330
3015
100
AcDbScale
 70
     0
300
3/32" = 1'-0"
140
0.09375
141
12.0
290
     0
  0
SCALE
  5
378E
102
{ACAD_REACTORS
330
3015
102
}
330
3015
100
AcDbScale
 70
     0
300
1/8" = 1'-0"
140
0.125
141
12.0
290
     0
  0
SCALE
  5
378F
102
{ACAD_REACTORS
330
3015
102
}
330
3015
100
AcDbScale
 70
     0
300
3/16" = 1'-0"
140
0.1875
141
12.0
290
     0
  0
SCALE
  5
3790
102
{ACAD_REACTORS
330
3015
102
}
330
3015
100
AcDbScale
 70
     0
300
1/4" = 1'-0"
140
0.25
141
12.0
290
     0
  0
SCALE
  5
3791
102
{ACAD_REACTORS
330
3015
102
}
330
3015
100
AcDbScale
 70
     0
300
3/8" = 1'-0"
140
0.375
141
12.0
290
     0
  0
SCALE
  5
3792
102
{ACAD_REACTORS
330
3015
102
}
330
3015
100
AcDbScale
 70
     0
300
1/2" = 1'-0"
140
0.5
141
12.0
290
     0
  0
SCALE
  5
3793
102
{ACAD_REACTORS
330
3015
102
}
330
3015
100
AcDbScale
 70
     0
300
3/4" = 1'-0"
140
0.75
141
12.0
290
     0
  0
SCALE
  5
3794
102
{ACAD_REACTORS
330
3015
102
}
330
3015
100
AcDbScale
 70
     0
300
1" = 1'-0"
140
1.0
141
12.0
290
     0
  0
SCALE
  5
3795
102
{ACAD_REACTORS
330
3015
102
}
330
3015
100
AcDbScale
 70
     0
300
1-1/2" = 1'-0"
140
1.5
141
12.0
290
     0
  0
SCALE
  5
3796
102
{ACAD_REACTORS
330
3015
102
}
330
3015
100
AcDbScale
 70
     0
300
3" = 1'-0"
140
3.0
141
12.0
290
     0
  0
SCALE
  5
3797
102
{ACAD_REACTORS
330
3015
102
}
330
3015
100
AcDbScale
 70
     0
300
6" = 1'-0"
140
6.0
141
12.0
290
     0
  0
SCALE
  5
3798
102
{ACAD_REACTORS
330
3015
102
}
330
3015
100
AcDbScale
 70
     0
300
1'-0" = 1'-0"
140
12.0
141
12.0
290
     0
  0
ACDBSECTIONVIEWSTYLE
  5
A9C4
102
{ACAD_XDICTIONARY
360
A9D3
102
}
102
{ACAD_REACTORS
330
A9C3
102
}
330
A9C3
100
AcDbModelDocViewStyle
 70
     0
  3
Metric50
290
     0
100
AcDbSectionViewStyle
 70
     0
 71
     0
 90
      102
 71
     1
340
11
 62
   256
 40
5.0
340
0
340
0
 62
   256
 40
5.0
300
I, O, Q, S, X, Z
 40
10.0
 90
        0
 40
2.5
 90
        0
 71
     2
340
16
 90
       25
 62
   256
340
16
 90
       50
 62
   256
 40
5.0
 40
2.5
 40
5.0
 71
     3
340
11
 62
   256
 40
5.0
 90
        0
 40
15.0
 90
        1
300
%<\AcVar ViewSectionStartId>%-%<\AcVar ViewSectionEndId>% (%<\AcVar ViewScale \f "%sn">%)
 71
     4
 62
   256
 62
   257
300
ANSI31
 40
1.0
 90
        0
290
     0
290
     0
 90
        6
 40
0.0
 40
1.570796326794896
 40
0.2617993877991494
 40
1.308996938995747
 40
-0.2617993877991494
 40
1.832595714594046
  0
TABLESTYLE
  5
3014
102
{ACAD_XDICTIONARY
360
3052
102
}
102
{ACAD_REACTORS
330
3013
102
}
330
3013
100
AcDbTableStyle
280
     0
  3
Standard
 70
     0
 71
     0
 40
1.5
 41
1.5
280
     0
281
     0
  7
Standard
140
4.5
170
     2
 62
     0
 63
     7
283
     0
 90
      512
 91
        0
  1

274
    -2
284
     1
 64
     0
275
    -2
285
     1
 65
     0
276
    -2
286
     1
 66
     0
277
    -2
287
     1
 67
     0
278
    -2
288
     1
 68
     0
279
    -2
289
     1
 69
     0
  7
Standard
140
6.0
170
     5
 62
     0
 63
     7
283
     0
 90
      512
 91
        0
  1

274
    -2
284
     1
 64
     0
275
    -2
285
     1
 65
     0
276
    -2
286
     1
 66
     0
277
    -2
287
     1
 67
     0
278
    -2
288
     1
 68
     0
279
    -2
289
     1
 69
     0
  7
Standard
140
4.5
170
     5
 62
     0
 63
     7
283
     0
 90
      512
 91
        0
  1

274
    -2
284
     1
 64
     0
275
    -2
285
     1
 65
     0
276
    -2
286
     1
 66
     0
277
    -2
287
     1
 67
     0
278
    -2
288
     1
 68
     0
279
    -2
289
     1
 69
     0
  0
VISUALSTYLE
  5
3007
102
{ACAD_REACTORS
330
3001
102
}
330
3001
100
AcDbVisualStyle
  2

 70
     4
177
     3
291
     0
 70
    58
 90
        0
176
     1
 90
        2
176
     1
 90
        0
176
     1
 90
        0
176
     1
 40
0.6
176
     1
 40
30.0
176
     1
 62
     7
176
     1
 90
        1
176
     1
 90
        4
176
     1
 62
     7
176
     1
 62
   257
176
     1
 90
        1
176
     1
 90
        1
176
     1
 40
1.0
176
     1
 90
        0
176
     1
 62
   257
176
     1
 40
1.0
176
     1
 90
        1
176
     1
 90
        6
176
     1
 90
        2
176
     1
 62
     7
176
     1
 90
        5
176
     1
 90
        0
176
     1
 90
        0
176
     1
290
     0
176
     1
 90
        1
176
     1
 40
0.0
176
     1
 90
        0
176
     1
290
     1
176
     1
290
     1
176
     1
290
     0
176
     1
290
     0
176
     1
290
     0
176
     1
290
     0
176
     1
290
     0
176
     1
290
     0
176
     1
290
     0
176
     1
 90
       50
176
     1
 40
0.0
176
     1
 40
1.0
176
     1
 90
        0
176
     1
 62
    18
420
        0
176
     1
 90
       50
176
     1
 90
        3
176
     1
 62
     5
420
      255
176
     1
290
     0
176
     1
 90
       50
176
     1
 90
       50
176
     1
 90
       50
176
     1
290
     0
176
     1
 90
       50
176
     1
 62
   256
176
     0
 40
1.0
176
     0
 90
        2
176
     1
  1
strokes_ogs.tif
176
     1
290
     0
176
     1
 40
1.0
176
     1
 40
1.0
176
     1
1001
ACAD
1000
AcDbSavedByObjectVersion
1070
     0
  0
VISUALSTYLE
  5
3009
102
{ACAD_REACTORS
330
3001
102
}
330
3001
100
AcDbVisualStyle
  2

 70
     6
177
     3
291
     0
 70
    58
 90
        1
176
     1
 90
        2
176
     1
 90
        2
176
     1
 90
        0
176
     1
 40
0.6
176
     1
 40
30.0
176
     1
 62
     7
176
     1
 90
        2
176
     1
 90
        2
176
     1
 62
     7
176
     1
 62
   257
176
     1
 90
        2
176
     1
 90
        1
176
     1
 40
40.0
176
     1
 90
        0
176
     1
 62
   257
176
     1
 40
1.0
176
     1
 90
        1
176
     1
 90
        6
176
     1
 90
        2
176
     1
 62
     7
176
     1
 90
        3
176
     1
 90
        0
176
     1
 90
        0
176
     1
290
     0
176
     1
 90
        1
176
     1
 40
0.0
176
     1
 90
        0
176
     1
290
     0
176
     1
290
     1
176
     1
290
     1
176
     1
290
     0
176
     1
290
     0
176
     1
290
     0
176
     1
290
     0
176
     1
290
     0
176
     1
290
     0
176
     1
 90
       50
176
     1
 40
0.0
176
     1
 40
1.0
176
     1
 90
        0
176
     1
 62
    18
420
        0
176
     1
 90
       50
176
     1
 90
        3
176
     1
 62
     5
420
      255
176
     1
290
     0
176
     1
 90
       50
176
     1
 90
       50
176
     1
 90
       50
176
     1
290
     0
176
     1
 90
       50
176
     1
 62
   256
176
     0
 40
1.0
176
     0
 90
        2
176
     1
  1
strokes_ogs.tif
176
     1
290
     0
176
     1
 40
1.0
176
     1
 40
1.0
176
     1
1001
ACAD
1000
AcDbSavedByObjectVersion
1070
     0
  0
VISUALSTYLE
  5
3008
102
{ACAD_REACTORS
330
3001
102
}
330
3001
100
AcDbVisualStyle
  2

 70
     5
177
     3
291
     0
 70
    58
 90
        0
176
     1
 90
        2
176
     1
 90
        0
176
     1
 90
        0
176
     1
 40
0.6
176
     1
 40
30.0
176
     1
 62
     7
176
     1
 90
        1
176
     1
 90
        4
176
     1
 62
     7
176
     1
 62
   257
176
     1
 90
        1
176
     1
 90
        1
176
     1
 40
1.0
176
     1
 90
        0
176
     1
 62
   257
176
     1
 40
1.0
176
     1
 90
        1
176
     1
 90
        6
176
     1
 90
        2
176
     1
 62
     7
176
     1
 90
        5
176
     1
 90
        0
176
     1
 90
        0
176
     1
290
     0
176
     1
 90
        1
176
     1
 40
0.0
176
     1
 90
        0
176
     1
290
     0
176
     1
290
     1
176
     1
290
     1
176
     1
290
     0
176
     1
290
     0
176
     1
290
     0
176
     1
290
     0
176
     1
290
     0
176
     1
290
     0
176
     1
 90
       50
176
     1
 40
0.0
176
     1
 40
1.0
176
     1
 90
        0
176
     1
 62
    18
420
        0
176
     1
 90
       50
176
     1
 90
        3
176
     1
 62
     5
420
      255
176
     1
290
     0
176
     1
 90
       50
176
     1
 90
       50
176
     1
 90
       50
176
     1
290
     0
176
     1
 90
       50
176
     1
 62
   256
176
     0
 40
1.0
176
     0
 90
        2
176
     1
  1
strokes_ogs.tif
176
     1
290
     0
176
     1
 40
1.0
176
     1
 40
1.0
176
     1
1001
ACAD
1000
AcDbSavedByObjectVersion
1070
     0
  0
VISUALSTYLE
  5
3006
102
{ACAD_REACTORS
330
3001
102
}
330
3001
100
AcDbVisualStyle
  2

 70
     7
177
     3
291
     1
 70
    58
 90
        1
176
     1
 90
        0
176
     1
 90
        1
176
     1
 90
        0
176
     1
 40
0.6
176
     1
 40
30.0
176
     1
 62
     7
176
     1
 90
        0
176
     1
 90
        4
176
     1
 62
     7
176
     1
 62
   257
176
     1
 90
        1
176
     1
 90
        1
176
     1
 40
1.0
176
     1
 90
        8
176
     1
 62
     7
176
     1
 40
1.0
176
     1
 90
        1
176
     1
 90
        6
176
     1
 90
        2
176
     1
 62
     7
176
     1
 90
        5
176
     1
 90
        0
176
     1
 90
        0
176
     1
290
     0
176
     1
 90
        1
176
     1
 40
0.0
176
     1
 90
        0
176
     1
290
     0
176
     1
290
     1
176
     1
290
     1
176
     1
290
     0
176
     1
290
     0
176
     1
290
     0
176
     1
290
     0
176
     1
290
     0
176
     1
290
     0
176
     1
 90
       50
176
     1
 40
0.0
176
     1
 40
1.0
176
     1
 90
        0
176
     1
 62
    18
420
        0
176
     1
 90
       50
176
     1
 90
        3
176
     1
 62
     5
420
      255
176
     1
290
     0
176
     1
 90
       50
176
     1
 90
       50
176
     1
 90
       50
176
     1
290
     0
176
     1
 90
       50
176
     1
 62
   256
176
     0
 40
1.0
176
     0
 90
        2
176
     1
  1
strokes_ogs.tif
176
     1
290
     0
176
     1
 40
1.0
176
     1
 40
1.0
176
     1
1001
ACAD
1000
AcDbSavedByObjectVersion
1070
     0
  0
VISUALSTYLE
  5
300D
102
{ACAD_REACTORS
330
3001
102
}
330
3001
100
AcDbVisualStyle
  2

 70
    12
177
     3
291
     1
 70
    58
 90
        2
176
     1
 90
        2
176
     1
 90
        0
176
     1
 90
        0
176
     1
 40
0.6
176
     1
 40
30.0
176
     1
 62
     7
176
     1
 90
        1
176
     1
 90
        4
176
     1
 62
     7
176
     1
 62
   257
176
     1
 90
        1
176
     1
 90
        1
176
     1
 40
1.0
176
     1
 90
        8
176
     1
 62
     7
176
     1
 40
1.0
176
     1
 90
        1
176
     1
 90
        6
176
     1
 90
        2
176
     1
 62
     7
176
     1
 90
        5
176
     1
 90
        0
176
     1
 90
        0
176
     1
290
     0
176
     1
 90
        1
176
     1
 40
50.0
176
     1
 90
        0
176
     1
290
     0
176
     1
290
     1
176
     1
290
     1
176
     1
290
     0
176
     1
290
     0
176
     1
290
     0
176
     1
290
     0
176
     1
290
     0
176
     1
290
     0
176
     1
 90
       50
176
     1
 40
0.0
176
     1
 40
1.0
176
     1
 90
        0
176
     1
 62
    18
420
        0
176
     1
 90
       50
176
     1
 90
        3
176
     1
 62
     5
420
      255
176
     1
290
     0
176
     1
 90
       50
176
     1
 90
       50
176
     1
 90
       50
176
     1
290
     0
176
     1
 90
       50
176
     1
 62
   256
176
     0
 40
1.0
176
     0
 90
        2
176
     1
  1
strokes_ogs.tif
176
     1
290
     0
176
     1
 40
1.0
176
     1
 40
1.0
176
     1
1001
ACAD
1000
AcDbSavedByObjectVersion
1070
     0
  0
VISUALSTYLE
  5
3011
102
{ACAD_REACTORS
330
3001
102
}
330
3001
100
AcDbVisualStyle
  2

 70
    16
177
     3
291
     1
 70
    58
 90
        2
176
     1
 90
        2
176
     1
 90
        3
176
     1
 90
        0
176
     1
 40
0.6
176
     1
 40
30.0
176
     1
 62
     8
176
     1
 90
        1
176
     1
 90
        4
176
     1
 62
     7
176
     1
 62
   257
176
     1
 90
        1
176
     1
 90
        1
176
     1
 40
1.0
176
     1
 90
        8
176
     1
 62
     8
176
     1
 40
1.0
176
     1
 90
        1
176
     1
 90
        6
176
     1
 90
        2
176
     1
 62
     7
176
     1
 90
        5
176
     1
 90
        0
176
     1
 90
        0
176
     1
290
     0
176
     1
 90
        1
176
     1
 40
0.0
176
     1
 90
        0
176
     1
290
     0
176
     1
290
     1
176
     1
290
     1
176
     1
290
     0
176
     1
290
     0
176
     1
290
     0
176
     1
290
     0
176
     1
290
     0
176
     1
290
     0
176
     1
 90
       50
176
     1
 40
0.0
176
     1
 40
1.0
176
     1
 90
        0
176
     1
 62
    18
420
        0
176
     1
 90
       50
176
     1
 90
        3
176
     1
 62
     5
420
      255
176
     1
290
     0
176
     1
 90
       50
176
     1
 90
       50
176
     1
 90
       50
176
     1
290
     0
176
     1
 90
       50
176
     1
 62
   256
176
     0
 40
1.0
176
     0
 90
        2
176
     1
  1
strokes_ogs.tif
176
     1
290
     0
176
     1
 40
1.0
176
     1
 40
1.0
176
     1
1001
ACAD
1000
AcDbSavedByObjectVersion
1070
     0
  0
VISUALSTYLE
  5
300A
102
{ACAD_REACTORS
330
3001
102
}
330
3001
100
AcDbVisualStyle
  2

 70
     9
177
     3
291
     0
 70
    58
 90
        3
176
     1
 90
        2
176
     1
 90
        0
176
     1
 90
        0
176
     1
 40
0.6
176
     1
 40
30.0
176
     1
 62
     7
176
     1
 90
        2
176
     1
 90
        2
176
     1
 62
     7
176
     1
 62
   257
176
     1
 90
        1
176
     1
 90
        1
176
     1
 40
40.0
176
     1
 90
        8
176
     1
 62
     7
176
     1
 40
1.0
176
     1
 90
        1
176
     1
 90
        6
176
     1
 90
        2
176
     1
 62
     7
176
     1
 90
        3
176
     1
 90
        0
176
     1
 90
        0
176
     1
290
     0
176
     1
 90
        1
176
     1
 40
0.0
176
     1
 90
        0
176
     1
290
     0
176
     1
290
     1
176
     1
290
     1
176
     1
290
     0
176
     1
290
     0
176
     1
290
     0
176
     1
290
     0
176
     1
290
     0
176
     1
290
     0
176
     1
 90
       50
176
     1
 40
0.0
176
     1
 40
1.0
176
     1
 90
        0
176
     1
 62
    18
420
        0
176
     1
 90
       50
176
     1
 90
        3
176
     1
 62
     5
420
      255
176
     1
290
     0
176
     1
 90
       50
176
     1
 90
       50
176
     1
 90
       50
176
     1
290
     0
176
     1
 90
       50
176
     1
 62
   256
176
     0
 40
1.0
176
     0
 90
        2
176
     1
  1
strokes_ogs.tif
176
     1
290
     0
176
     1
 40
1.0
176
     1
 40
1.0
176
     1
1001
ACAD
1000
AcDbSavedByObjectVersion
1070
     0
  0
VISUALSTYLE
  5
300C
102
{ACAD_REACTORS
330
3001
102
}
330
3001
100
AcDbVisualStyle
  2

 70
    11
177
     3
291
     1
 70
    58
 90
        2
176
     1
 90
        2
176
     1
 90
        0
176
     1
 90
        0
176
     1
 40
0.6
176
     1
 40
30.0
176
     1
 62
     7
176
     1
 90
        1
176
     1
 90
        4
176
     1
 62
     7
176
     1
 62
   257
176
     1
 90
        1
176
     1
 90
        1
176
     1
 40
1.0
176
     1
 90
        8
176
     1
 62
     7
176
     1
 40
1.0
176
     1
 90
        1
176
     1
 90
        6
176
     1
 90
        2
176
     1
 62
     7
176
     1
 90
        5
176
     1
 90
        0
176
     1
 90
        0
176
     1
290
     0
176
     1
 90
        1
176
     1
 40
-50.0
176
     1
 90
        0
176
     1
290
     0
176
     1
290
     1
176
     1
290
     1
176
     1
290
     0
176
     1
290
     0
176
     1
290
     0
176
     1
290
     0
176
     1
290
     0
176
     1
290
     0
176
     1
 90
       50
176
     1
 40
0.0
176
     1
 40
1.0
176
     1
 90
        0
176
     1
 62
    18
420
        0
176
     1
 90
       50
176
     1
 90
        3
176
     1
 62
     5
420
      255
176
     1
290
     0
176
     1
 90
       50
176
     1
 90
       50
176
     1
 90
       50
176
     1
290
     0
176
     1
 90
       50
176
     1
 62
   256
176
     0
 40
1.0
176
     0
 90
        2
176
     1
  1
strokes_ogs.tif
176
     1
290
     0
176
     1
 40
1.0
176
     1
 40
1.0
176
     1
1001
ACAD
1000
AcDbSavedByObjectVersion
1070
     0
  0
VISUALSTYLE
  5
4AEE
102
{ACAD_REACTORS
330
3001
102
}
330
3001
100
AcDbVisualStyle
  2

 70
    22
177
     3
291
     1
 70
    58
 90
        2
176
     0
 90
        2
176
     0
 90
        0
176
     0
 90
        0
176
     0
 40
0.6
176
     0
 40
30.0
176
     0
 62
     7
176
     0
 90
        1
176
     0
 90
        4
176
     0
 62
     7
176
     0
 62
   257
176
     0
 90
        1
176
     0
 90
        1
176
     0
 40
1.0
176
     0
 90
        8
176
     2
 62
     7
176
     0
 40
1.0
176
     0
 90
        1
176
     0
 90
        6
176
     0
 90
        2
176
     0
 62
     7
176
     0
 90
        5
176
     0
 90
        0
176
     0
 90
        0
176
     0
290
     0
176
     0
 90
        1
176
     0
 40
0.0
176
     0
 90
        0
176
     0
290
     0
176
     0
290
     1
176
     0
290
     1
176
     0
290
     0
176
     0
290
     0
176
     0
290
     0
176
     1
290
     0
176
     1
290
     0
176
     1
290
     0
176
     1
 90
       50
176
     1
 40
0.0
176
     1
 40
1.0
176
     1
 90
        0
176
     1
 62
    18
420
        0
176
     1
 90
       50
176
     1
 90
        3
176
     1
 62
     5
420
      255
176
     1
290
     0
176
     1
 90
       50
176
     1
 90
       50
176
     1
 90
       50
176
     1
290
     0
176
     1
 90
       50
176
     1
 62
   256
176
     0
 40
1.0
176
     0
 90
        2
176
     1
  1
strokes_ogs.tif
176
     1
290
     0
176
     1
 40
1.0
176
     1
 40
1.0
176
     1
1001
ACAD
1000
AcDbSavedByObjectVersion
1070
     0
  0
VISUALSTYLE
  5
3010
102
{ACAD_REACTORS
330
3001
102
}
330
3001
100
AcDbVisualStyle
  2

 70
    15
177
     3
291
     1
 70
    58
 90
        2
176
     1
 90
        2
176
     1
 90
        0
176
     1
 90
        0
176
     1
 40
0.6
176
     1
 40
30.0
176
     1
 62
     7
176
     1
 90
        1
176
     1
 90
        4
176
     1
 62
     7
176
     1
 62
   257
176
     1
 90
        1
176
     1
 90
        1
176
     1
 40
1.0
176
     1
 90
        8
176
     1
 62
     7
176
     1
 40
1.0
176
     1
 90
        1
176
     1
 90
        6
176
     1
 90
        2
176
     1
 62
     7
176
     1
 90
        5
176
     1
 90
        0
176
     1
 90
        0
176
     1
290
     0
176
     1
 90
        1
176
     1
 40
0.0
176
     1
 90
        0
176
     1
290
     0
176
     1
290
     1
176
     1
290
     1
176
     1
290
     0
176
     1
290
     0
176
     1
290
     0
176
     1
290
     0
176
     1
290
     0
176
     1
290
     0
176
     1
 90
       50
176
     1
 40
0.0
176
     1
 40
1.0
176
     1
 90
        0
176
     1
 62
    18
420
        0
176
     1
 90
       50
176
     1
 90
        3
176
     1
 62
     5
420
      255
176
     1
290
     0
176
     1
 90
       50
176
     1
 90
       50
176
     1
 90
       50
176
     1
290
     0
176
     1
 90
       50
176
     1
 62
   256
176
     0
 40
1.0
176
     0
 90
        2
176
     1
  1
strokes_ogs.tif
176
     1
290
     0
176
     1
 40
1.0
176
     1
 40
1.0
176
     1
1001
ACAD
1000
AcDbSavedByObjectVersion
1070
     0
  0
VISUALSTYLE
  5
3002
102
{ACAD_REACTORS
330
3001
102
}
330
3001
100
AcDbVisualStyle
  2

 70
     0
177
     3
291
     1
 70
    58
 90
        2
176
     1
 90
        1
176
     1
 90
        1
176
     1
 90
        2
176
     1
 40
0.6
176
     1
 40
30.0
176
     1
 62
     7
176
     1
 90
        0
176
     1
 90
        4
176
     1
 62
     7
176
     1
 62
   257
176
     1
 90
        1
176
     1
 90
        1
176
     1
 40
1.0
176
     1
 90
        8
176
     1
 62
     7
176
     1
 40
1.0
176
     1
 90
        1
176
     1
 90
        6
176
     1
 90
        2
176
     1
 62
     7
176
     1
 90
        5
176
     1
 90
        0
176
     1
 90
        0
176
     1
290
     0
176
     1
 90
       13
176
     1
 40
0.0
176
     1
 90
        0
176
     1
290
     0
176
     1
290
     1
176
     1
290
     1
176
     1
290
     0
176
     1
290
     0
176
     1
290
     0
176
     1
290
     0
176
     1
290
     0
176
     1
290
     0
176
     1
 90
       50
176
     1
 40
0.0
176
     1
 40
1.0
176
     1
 90
        0
176
     1
 62
    18
420
        0
176
     1
 90
       50
176
     1
 90
        3
176
     1
 62
     5
420
      255
176
     1
290
     0
176
     1
 90
       50
176
     1
 90
       50
176
     1
 90
       50
176
     1
290
     0
176
     1
 90
       50
176
     1
 62
   256
176
     0
 40
1.0
176
     0
 90
        2
176
     1
  1
strokes_ogs.tif
176
     1
290
     0
176
     1
 40
1.0
176
     1
 40
1.0
176
     1
1001
ACAD
1000
AcDbSavedByObjectVersion
1070
     0
  0
VISUALSTYLE
  5
3003
102
{ACAD_REACTORS
330
3001
102
}
330
3001
100
AcDbVisualStyle
  2

 70
     1
177
     3
291
     1
 70
    58
 90
        2
176
     1
 90
        1
176
     1
 90
        1
176
     1
 90
        2
176
     1
 40
0.6
176
     1
 40
30.0
176
     1
 62
     7
176
     1
 90
        1
176
     1
 90
        4
176
     1
 62
     7
176
     1
 62
   257
176
     1
 90
        1
176
     1
 90
        1
176
     1
 40
1.0
176
     1
 90
        0
176
     1
 62
   257
176
     1
 40
1.0
176
     1
 90
        1
176
     1
 90
        6
176
     1
 90
        2
176
     1
 62
     7
176
     1
 90
        5
176
     1
 90
        0
176
     1
 90
        0
176
     1
290
     0
176
     1
 90
       13
176
     1
 40
0.0
176
     1
 90
        0
176
     1
290
     0
176
     1
290
     1
176
     1
290
     1
176
     1
290
     0
176
     1
290
     0
176
     1
290
     0
176
     1
290
     0
176
     1
290
     0
176
     1
290
     0
176
     1
 90
       50
176
     1
 40
0.0
176
     1
 40
1.0
176
     1
 90
        0
176
     1
 62
    18
420
        0
176
     1
 90
       50
176
     1
 90
        3
176
     1
 62
     5
420
      255
176
     1
290
     0
176
     1
 90
       50
176
     1
 90
       50
176
     1
 90
       50
176
     1
290
     0
176
     1
 90
       50
176
     1
 62
   256
176
     0
 40
1.0
176
     0
 90
        2
176
     1
  1
strokes_ogs.tif
176
     1
290
     0
176
     1
 40
1.0
176
     1
 40
1.0
176
     1
1001
ACAD
1000
AcDbSavedByObjectVersion
1070
     0
  0
VISUALSTYLE
  5
3004
102
{ACAD_REACTORS
330
3001
102
}
330
3001
100
AcDbVisualStyle
  2

 70
     2
177
     3
291
     1
 70
    58
 90
        2
176
     1
 90
        2
176
     1
 90
        1
176
     1
 90
        2
176
     1
 40
0.6
176
     1
 40
30.0
176
     1
 62
     7
176
     1
 90
        0
176
     1
 90
        4
176
     1
 62
     7
176
     1
 62
   257
176
     1
 90
        1
176
     1
 90
        1
176
     1
 40
1.0
176
     1
 90
        0
176
     1
 62
     7
176
     1
 40
1.0
176
     1
 90
        1
176
     1
 90
        6
176
     1
 90
        2
176
     1
 62
     7
176
     1
 90
        5
176
     1
 90
        0
176
     1
 90
        0
176
     1
290
     0
176
     1
 90
       13
176
     1
 40
0.0
176
     1
 90
        0
176
     1
290
     0
176
     1
290
     1
176
     1
290
     1
176
     1
290
     0
176
     1
290
     0
176
     1
290
     0
176
     1
290
     0
176
     1
290
     0
176
     1
290
     0
176
     1
 90
       50
176
     1
 40
0.0
176
     1
 40
1.0
176
     1
 90
        0
176
     1
 62
    18
420
        0
176
     1
 90
       50
176
     1
 90
        3
176
     1
 62
     5
420
      255
176
     1
290
     0
176
     1
 90
       50
176
     1
 90
       50
176
     1
 90
       50
176
     1
290
     0
176
     1
 90
       50
176
     1
 62
   256
176
     0
 40
1.0
176
     0
 90
        2
176
     1
  1
strokes_ogs.tif
176
     1
290
     0
176
     1
 40
1.0
176
     1
 40
1.0
176
     1
1001
ACAD
1000
AcDbSavedByObjectVersion
1070
     0
  0
VISUALSTYLE
  5
3005
102
{ACAD_REACTORS
330
3001
102
}
330
3001
100
AcDbVisualStyle
  2

 70
     3
177
     3
291
     1
 70
    58
 90
        2
176
     1
 90
        2
176
     1
 90
        1
176
     1
 90
        2
176
     1
 40
0.6
176
     1
 40
30.0
176
     1
 62
     7
176
     1
 90
        1
176
     1
 90
        4
176
     1
 62
     7
176
     1
 62
   257
176
     1
 90
        1
176
     1
 90
        1
176
     1
 40
1.0
176
     1
 90
        0
176
     1
 62
   257
176
     1
 40
1.0
176
     1
 90
        1
176
     1
 90
        6
176
     1
 90
        2
176
     1
 62
     7
176
     1
 90
        5
176
     1
 90
        0
176
     1
 90
        0
176
     1
290
     0
176
     1
 90
       13
176
     1
 40
0.0
176
     1
 90
        0
176
     1
290
     0
176
     1
290
     1
176
     1
290
     1
176
     1
290
     0
176
     1
290
     0
176
     1
290
     0
176
     1
290
     0
176
     1
290
     0
176
     1
290
     0
176
     1
 90
       50
176
     1
 40
0.0
176
     1
 40
1.0
176
     1
 90
        0
176
     1
 62
    18
420
        0
176
     1
 90
       50
176
     1
 90
        3
176
     1
 62
     5
420
      255
176
     1
290
     0
176
     1
 90
       50
176
     1
 90
       50
176
     1
 90
       50
176
     1
290
     0
176
     1
 90
       50
176
     1
 62
   256
176
     0
 40
1.0
176
     0
 90
        2
176
     1
  1
strokes_ogs.tif
176
     1
290
     0
176
     1
 40
1.0
176
     1
 40
1.0
176
     1
1001
ACAD
1000
AcDbSavedByObjectVersion
1070
     0
  0
VISUALSTYLE
  5
4AE6
102
{ACAD_REACTORS
330
3001
102
}
330
3001
100
AcDbVisualStyle
  2

 70
     6
177
     3
291
     0
 70
    58
 90
        1
176
     1
 90
        2
176
     1
 90
        2
176
     1
 90
        0
176
     1
 40
0.6
176
     1
 40
30.0
176
     1
 62
     7
176
     1
 90
        2
176
     1
 90
        2
176
     1
 62
     7
176
     1
 62
   257
176
     1
 90
        2
176
     1
 90
        1
176
     1
 40
40.0
176
     1
 90
        0
176
     1
 62
   257
176
     1
 40
1.0
176
     1
 90
        1
176
     1
 90
        6
176
     1
 90
        2
176
     1
 62
     7
176
     1
 90
        3
176
     1
 90
        0
176
     1
 90
        0
176
     1
290
     0
176
     1
 90
        1
176
     1
 40
0.0
176
     1
 90
        0
176
     1
290
     0
176
     1
290
     1
176
     1
290
     1
176
     1
290
     0
176
     1
290
     0
176
     1
290
     0
176
     1
290
     0
176
     1
290
     0
176
     1
290
     0
176
     1
 90
       50
176
     1
 40
0.0
176
     1
 40
1.0
176
     1
 90
        0
176
     1
 62
    18
420
        0
176
     1
 90
       50
176
     1
 90
        3
176
     1
 62
     5
420
      255
176
     1
290
     0
176
     1
 90
       50
176
     1
 90
       50
176
     1
 90
       50
176
     1
290
     0
176
     1
 90
       50
176
     1
 62
   256
176
     0
 40
1.0
176
     0
 90
        2
176
     1
  1
strokes_ogs.tif
176
     1
290
     0
176
     1
 40
1.0
176
     1
 40
1.0
176
     1
1001
ACAD
1000
AcDbSavedByObjectVersion
1070
     0
  0
VISUALSTYLE
  5
4AEC
102
{ACAD_REACTORS
330
3001
102
}
330
3001
100
AcDbVisualStyle
  2

 70
    20
177
     3
291
     1
 70
    58
 90
        2
176
     0
 90
        2
176
     0
 90
        0
176
     0
 90
        0
176
     0
 40
0.6
176
     0
 40
30.0
176
     0
 62
     7
176
     0
 90
        1
176
     0
 90
        4
176
     0
 62
     7
176
     0
 62
   257
176
     0
 90
        1
176
     0
 90
        1
176
     0
 40
1.0
176
     0
 90
       10
176
     2
 62
     7
176
     0
 40
1.0
176
     0
 90
        1
176
     0
 90
        6
176
     0
 90
        2
176
     0
 62
     7
176
     0
 90
        5
176
     0
 90
        0
176
     0
 90
        0
176
     0
290
     0
176
     0
 90
        1
176
     0
 40
0.0
176
     0
 90
        0
176
     0
290
     0
176
     0
290
     1
176
     0
290
     1
176
     0
290
     0
176
     0
290
     0
176
     0
290
     0
176
     1
290
     0
176
     1
290
     0
176
     1
290
     0
176
     1
 90
       50
176
     1
 40
0.0
176
     1
 40
1.0
176
     1
 90
        0
176
     1
 62
    18
420
        0
176
     1
 90
       50
176
     1
 90
        3
176
     1
 62
     5
420
      255
176
     1
290
     0
176
     1
 90
       50
176
     1
 90
       50
176
     1
 90
       50
176
     1
290
     0
176
     1
 90
       50
176
     1
 62
   256
176
     0
 40
1.0
176
     0
 90
        2
176
     1
  1
strokes_ogs.tif
176
     1
290
     0
176
     1
 40
1.0
176
     1
 40
1.0
176
     1
1001
ACAD
1000
AcDbSavedByObjectVersion
1070
     0
  0
VISUALSTYLE
  5
300F
102
{ACAD_REACTORS
330
3001
102
}
330
3001
100
AcDbVisualStyle
  2

 70
    14
177
     3
291
     1
 70
    58
 90
        2
176
     1
 90
        2
176
     1
 90
        0
176
     1
 90
        0
176
     1
 40
0.6
176
     1
 40
30.0
176
     1
 62
     7
176
     1
 90
        1
176
     1
 90
        4
176
     1
 62
     7
176
     1
 62
   257
176
     1
 90
        7
176
     1
 90
        7
176
     1
 40
1.0
176
     1
 90
        8
176
     1
 62
     7
176
     1
 40
1.0
176
     1
 90
        1
176
     1
 90
        6
176
     1
 90
        2
176
     1
 62
     7
176
     1
 90
        5
176
     1
 90
        0
176
     1
 90
        0
176
     1
290
     0
176
     1
 90
        1
176
     1
 40
0.0
176
     1
 90
        0
176
     1
290
     0
176
     1
290
     1
176
     1
290
     1
176
     1
290
     0
176
     1
290
     0
176
     1
290
     0
176
     1
290
     0
176
     1
290
     0
176
     1
290
     0
176
     1
 90
       50
176
     1
 40
0.0
176
     1
 40
1.0
176
     1
 90
        0
176
     1
 62
    18
420
        0
176
     1
 90
       50
176
     1
 90
        3
176
     1
 62
     5
420
      255
176
     1
290
     0
176
     1
 90
       50
176
     1
 90
       50
176
     1
 90
       50
176
     1
290
     0
176
     1
 90
       50
176
     1
 62
   256
176
     0
 40
1.0
176
     0
 90
        2
176
     1
  1
strokes_ogs.tif
176
     1
290
     0
176
     1
 40
1.0
176
     1
 40
1.0
176
     1
1001
ACAD
1000
AcDbSavedByObjectVersion
1070
     0
  0
VISUALSTYLE
  5
4AED
102
{ACAD_REACTORS
330
3001
102
}
330
3001
100
AcDbVisualStyle
  2

 70
    21
177
     3
291
     1
 70
    58
 90
        2
176
     0
 90
        2
176
     0
 90
        0
176
     0
 90
        0
176
     0
 40
0.6
176
     0
 40
30.0
176
     0
 62
     7
176
     0
 90
        1
176
     0
 90
        4
176
     0
 62
     7
176
     0
 62
   257
176
     0
 90
        1
176
     0
 90
        1
176
     0
 40
1.0
176
     0
 90
        9
176
     2
 62
     7
176
     0
 40
1.0
176
     0
 90
        1
176
     0
 90
        6
176
     0
 90
        2
176
     0
 62
     7
176
     0
 90
        5
176
     0
 90
        0
176
     0
 90
        0
176
     0
290
     0
176
     0
 90
        1
176
     0
 40
0.0
176
     0
 90
        0
176
     0
290
     0
176
     0
290
     1
176
     0
290
     1
176
     0
290
     0
176
     0
290
     0
176
     0
290
     0
176
     1
290
     0
176
     1
290
     0
176
     1
290
     0
176
     1
 90
       50
176
     1
 40
0.0
176
     1
 40
1.0
176
     1
 90
        0
176
     1
 62
    18
420
        0
176
     1
 90
       50
176
     1
 90
        3
176
     1
 62
     5
420
      255
176
     1
290
     0
176
     1
 90
       50
176
     1
 90
       50
176
     1
 90
       50
176
     1
290
     0
176
     1
 90
       50
176
     1
 62
   256
176
     0
 40
1.0
176
     0
 90
        2
176
     1
  1
strokes_ogs.tif
176
     1
290
     0
176
     1
 40
1.0
176
     1
 40
1.0
176
     1
1001
ACAD
1000
AcDbSavedByObjectVersion
1070
     0
  0
VISUALSTYLE
  5
300B
102
{ACAD_REACTORS
330
3001
102
}
330
3001
100
AcDbVisualStyle
  2

 70
     8
177
     3
291
     0
 70
    58
 90
        2
176
     1
 90
        2
176
     1
 90
        0
176
     1
 90
        0
176
     1
 40
0.6
176
     1
 40
30.0
176
     1
 62
     7
176
     1
 90
        1
176
     1
 90
        0
176
     1
 62
     7
176
     1
 62
   257
176
     1
 90
        1
176
     1
 90
        1
176
     1
 40
1.0
176
     1
 90
        8
176
     1
 62
     8
176
     1
 40
1.0
176
     1
 90
        1
176
     1
 90
        6
176
     1
 90
        2
176
     1
 62
     7
176
     1
 90
        5
176
     1
 90
        0
176
     1
 90
        0
176
     1
290
     0
176
     1
 90
       13
176
     1
 40
0.0
176
     1
 90
        0
176
     1
290
     0
176
     1
290
     1
176
     1
290
     1
176
     1
290
     0
176
     1
290
     0
176
     1
290
     0
176
     1
290
     0
176
     1
290
     0
176
     1
290
     0
176
     1
 90
       50
176
     1
 40
0.0
176
     1
 40
1.0
176
     1
 90
        0
176
     1
 62
    18
420
        0
176
     1
 90
       50
176
     1
 90
        3
176
     1
 62
     5
420
      255
176
     1
290
     0
176
     1
 90
       50
176
     1
 90
       50
176
     1
 90
       50
176
     1
290
     0
176
     1
 90
       50
176
     1
 62
   256
176
     0
 40
1.0
176
     0
 90
        2
176
     1
  1
strokes_ogs.tif
176
     1
290
     0
176
     1
 40
1.0
176
     1
 40
1.0
176
     1
1001
ACAD
1000
AcDbSavedByObjectVersion
1070
     0
  0
VISUALSTYLE
  5
4AEB
102
{ACAD_REACTORS
330
3001
102
}
330
3001
100
AcDbVisualStyle
  2

 70
    27
177
     3
291
     0
 70
    58
 90
        2
176
     1
 90
        2
176
     1
 90
        1
176
     1
 90
        2
176
     1
 40
0.6
176
     1
 40
30.0
176
     1
 62
     7
176
     1
 90
        0
176
     1
 90
        4
176
     1
 62
     7
176
     1
 62
   257
176
     1
 90
        1
176
     1
 90
        1
176
     1
 40
1.0
176
     1
 90
        8
176
     1
 62
   257
176
     1
 40
1.0
176
     1
 90
        1
176
     1
 90
        6
176
     1
 90
        2
176
     1
 62
     8
176
     1
 90
        3
176
     1
 90
        0
176
     1
 90
        0
176
     1
290
     0
176
     1
 90
        5
176
     1
 40
0.0
176
     1
 90
        0
176
     1
290
     0
176
     1
290
     1
176
     1
290
     1
176
     1
290
     0
176
     1
290
     0
176
     1
290
     0
176
     1
290
     0
176
     1
290
     0
176
     1
290
     0
176
     1
 90
       50
176
     1
 40
0.0
176
     1
 40
1.0
176
     1
 90
        0
176
     1
 62
    18
420
        0
176
     1
 90
       50
176
     1
 90
        3
176
     1
 62
     5
420
      255
176
     1
290
     0
176
     1
 90
       50
176
     1
 90
       50
176
     1
 90
       50
176
     1
290
     0
176
     1
 90
       50
176
     1
 62
   256
176
     0
 40
1.0
176
     0
 90
        2
176
     1
  1
strokes_ogs.tif
176
     1
290
     0
176
     1
 40
1.0
176
     1
 40
1.0
176
     1
1001
ACAD
1000
AcDbSavedByObjectVersion
1070
     0
  0
VISUALSTYLE
  5
4AEA
102
{ACAD_REACTORS
330
3001
102
}
330
3001
100
AcDbVisualStyle
  2

 70
    26
177
     3
291
     0
 70
    58
 90
        2
176
     1
 90
        2
176
     1
 90
        1
176
     1
 90
        2
176
     1
 40
0.6
176
     1
 40
30.0
176
     1
 62
     7
176
     1
 90
        1
176
     1
 90
       10
176
     1
 62
     7
176
     1
 62
   257
176
     1
 90
        2
176
     1
 90
        1
176
     1
 40
1.0
176
     1
 90
        8
176
     1
 62
   257
176
     1
 40
1.0
176
     1
 90
        1
176
     1
 90
        6
176
     1
 90
        2
176
     1
 62
     7
176
     1
 90
        3
176
     1
 90
        0
176
     1
 90
        0
176
     1
290
     0
176
     1
 90
        5
176
     1
 40
0.0
176
     1
 90
        0
176
     1
290
     0
176
     1
290
     1
176
     1
290
     1
176
     1
290
     0
176
     1
290
     0
176
     1
290
     0
176
     1
290
     0
176
     1
290
     0
176
     1
290
     0
176
     1
 90
       50
176
     1
 40
0.0
176
     1
 40
1.0
176
     1
 90
        0
176
     1
 62
    18
420
        0
176
     1
 90
       50
176
     1
 90
        3
176
     1
 62
     5
420
      255
176
     1
290
     0
176
     1
 90
       50
176
     1
 90
       50
176
     1
 90
       50
176
     1
290
     0
176
     1
 90
       50
176
     1
 62
   256
176
     0
 40
1.0
176
     0
 90
        2
176
     1
  1
strokes_ogs.tif
176
     1
290
     0
176
     1
 40
1.0
176
     1
 40
1.0
176
     1
1001
ACAD
1000
AcDbSavedByObjectVersion
1070
     0
  0
VISUALSTYLE
  5
4AE7
102
{ACAD_REACTORS
330
3001
102
}
330
3001
100
AcDbVisualStyle
  2

 70
    23
177
     3
291
     0
 70
    58
 90
        2
176
     1
 90
        2
176
     1
 90
        3
176
     1
 90
        0
176
     1
 40
0.6
176
     1
 40
30.0
176
     1
 62
     7
176
     1
 90
        2
176
     1
 90
        2
176
     1
 62
     7
176
     1
 62
     7
176
     1
 90
        1
176
     1
 90
        1
176
     1
 40
40.0
176
     1
 90
        8
176
     1
 62
     7
176
     1
 40
1.0
176
     1
 90
        1
176
     1
 90
        6
176
     1
 90
        2
176
     1
 62
     7
176
     1
 90
        3
176
     1
 90
        0
176
     1
 90
        0
176
     1
290
     0
176
     1
 90
        1
176
     1
 40
0.0
176
     1
 90
        0
176
     1
290
     0
176
     1
290
     1
176
     1
290
     1
176
     1
290
     0
176
     1
290
     0
176
     1
290
     0
176
     1
290
     0
176
     1
290
     0
176
     1
290
     0
176
     1
 90
       50
176
     1
 40
0.0
176
     1
 40
1.0
176
     1
 90
        0
176
     1
 62
    18
420
        0
176
     1
 90
       50
176
     1
 90
        3
176
     1
 62
     5
420
      255
176
     1
290
     0
176
     1
 90
       50
176
     1
 90
       50
176
     1
 90
       50
176
     1
290
     0
176
     1
 90
       50
176
     1
 62
   256
176
     0
 40
1.0
176
     0
 90
        2
176
     1
  1
strokes_ogs.tif
176
     1
290
     0
176
     1
 40
1.0
176
     1
 40
1.0
176
     1
1001
ACAD
1000
AcDbSavedByObjectVersion
1070
     0
  0
VISUALSTYLE
  5
4AE8
102
{ACAD_REACTORS
330
3001
102
}
330
3001
100
AcDbVisualStyle
  2

 70
    24
177
     3
291
     0
 70
    58
 90
        1
176
     1
 90
        2
176
     1
 90
        2
176
     1
 90
        0
176
     1
 40
0.6
176
     1
 40
30.0
176
     1
 62
     7
176
     1
 90
        2
176
     1
 90
        2
176
     1
 62
     7
176
     1
 62
     7
176
     1
 90
        1
176
     1
 90
        1
176
     1
 40
40.0
176
     1
 90
       11
176
     1
 62
     7
176
     1
 40
1.0
176
     1
 90
        1
176
     1
 90
        6
176
     1
 90
        2
176
     1
 62
     7
176
     1
 90
        6
176
     1
 90
        0
176
     1
 90
        0
176
     1
290
     0
176
     1
 90
        1
176
     1
 40
0.0
176
     1
 90
        0
176
     1
290
     0
176
     1
290
     1
176
     1
290
     1
176
     1
290
     0
176
     1
290
     0
176
     1
290
     0
176
     1
290
     0
176
     1
290
     0
176
     1
290
     0
176
     1
 90
       50
176
     1
 40
0.0
176
     1
 40
1.0
176
     1
 90
        0
176
     1
 62
    18
420
        0
176
     1
 90
       50
176
     1
 90
        3
176
     1
 62
     5
420
      255
176
     1
290
     0
176
     1
 90
       50
176
     1
 90
       50
176
     1
 90
       50
176
     1
290
     0
176
     1
 90
       50
176
     1
 62
   256
176
     0
 40
1.0
176
     0
 90
        2
176
     1
  1
strokes_ogs.tif
176
     1
290
     0
176
     1
 40
1.0
176
     1
 40
1.0
176
     1
1001
ACAD
1000
AcDbSavedByObjectVersion
1070
     0
  0
VISUALSTYLE
  5
300E
102
{ACAD_REACTORS
330
3001
102
}
330
3001
100
AcDbVisualStyle
  2

 70
    13
177
     3
291
     1
 70
    58
 90
        2
176
     1
 90
        2
176
     1
 90
        0
176
     1
 90
        0
176
     1
 40
0.6
176
     1
 40
30.0
176
     1
 62
     7
176
     1
 90
        1
176
     1
 90
        4
176
     1
 62
     7
176
     1
 62
   257
176
     1
 90
        1
176
     1
 90
        1
176
     1
 40
1.0
176
     1
 90
       12
176
     1
 62
     7
176
     1
 40
1.0
176
     1
 90
        1
176
     1
 90
        6
176
     1
 90
        2
176
     1
 62
     7
176
     1
 90
        5
176
     1
 90
        0
176
     1
 90
        0
176
     1
290
     0
176
     1
 90
        1
176
     1
 40
0.0
176
     1
 90
        0
176
     1
290
     0
176
     1
290
     1
176
     1
290
     1
176
     1
290
     0
176
     1
290
     0
176
     1
290
     0
176
     1
290
     0
176
     1
290
     0
176
     1
290
     0
176
     1
 90
       50
176
     1
 40
0.0
176
     1
 40
1.0
176
     1
 90
        0
176
     1
 62
    18
420
        0
176
     1
 90
       50
176
     1
 90
        3
176
     1
 62
     5
420
      255
176
     1
290
     0
176
     1
 90
       50
176
     1
 90
       50
176
     1
 90
       50
176
     1
290
     0
176
     1
 90
       50
176
     1
 62
   256
176
     0
 40
1.0
176
     0
 90
        2
176
     1
  1
strokes_ogs.tif
176
     1
290
     0
176
     1
 40
1.0
176
     1
 40
1.0
176
     1
1001
ACAD
1000
AcDbSavedByObjectVersion
1070
     0
  0
VISUALSTYLE
  5
4AE5
102
{ACAD_REACTORS
330
3001
102
}
330
3001
100
AcDbVisualStyle
  2

 70
     5
177
     3
291
     0
 70
    58
 90
        0
176
     1
 90
        2
176
     1
 90
        0
176
     1
 90
        0
176
     1
 40
0.6
176
     1
 40
30.0
176
     1
 62
     7
176
     1
 90
        1
176
     1
 90
        4
176
     1
 62
     7
176
     1
 62
   257
176
     1
 90
        1
176
     1
 90
        1
176
     1
 40
1.0
176
     1
 90
        0
176
     1
 62
   257
176
     1
 40
1.0
176
     1
 90
        1
176
     1
 90
        6
176
     1
 90
        2
176
     1
 62
     7
176
     1
 90
        3
176
     1
 90
        0
176
     1
 90
        0
176
     1
290
     0
176
     1
 90
        1
176
     1
 40
0.0
176
     1
 90
        0
176
     1
290
     0
176
     1
290
     1
176
     1
290
     1
176
     1
290
     0
176
     1
290
     0
176
     1
290
     0
176
     1
290
     0
176
     1
290
     0
176
     1
290
     0
176
     1
 90
       50
176
     1
 40
0.0
176
     1
 40
1.0
176
     1
 90
        0
176
     1
 62
    18
420
        0
176
     1
 90
       50
176
     1
 90
        3
176
     1
 62
     5
420
      255
176
     1
290
     0
176
     1
 90
       50
176
     1
 90
       50
176
     1
 90
       50
176
     1
290
     0
176
     1
 90
       50
176
     1
 62
   256
176
     0
 40
1.0
176
     0
 90
        2
176
     1
  1
strokes_ogs.tif
176
     1
290
     0
176
     1
 40
1.0
176
     1
 40
1.0
176
     1
1001
ACAD
1000
AcDbSavedByObjectVersion
1070
     0
  0
VISUALSTYLE
  5
4AE9
102
{ACAD_REACTORS
330
3001
102
}
330
3001
100
AcDbVisualStyle
  2

 70
    25
177
     3
291
     0
 70
    58
 90
        2
176
     1
 90
        2
176
     1
 90
        1
176
     1
 90
        1
176
     1
 40
0.5
176
     1
 40
30.0
176
     1
 62
     7
176
     1
 90
        1
176
     1
 90
        0
176
     1
 62
     7
176
     1
 62
   257
176
     1
 90
        1
176
     1
 90
        1
176
     1
 40
1.0
176
     1
 90
        8
176
     1
 62
     7
176
     1
 40
1.0
176
     1
 90
        1
176
     1
 90
        6
176
     1
 90
        2
176
     1
 62
     7
176
     1
 90
        3
176
     1
 90
        0
176
     1
 90
        0
176
     1
290
     0
176
     1
 90
       13
176
     1
 40
0.0
176
     1
 90
        0
176
     1
290
     0
176
     1
290
     1
176
     1
290
     1
176
     1
290
     0
176
     1
290
     0
176
     1
290
     0
176
     1
290
     0
176
     1
290
     0
176
     1
290
     0
176
     1
 90
       50
176
     1
 40
0.0
176
     1
 40
1.0
176
     1
 90
        0
176
     1
 62
    18
420
        0
176
     1
 90
       50
176
     1
 90
        3
176
     1
 62
     5
420
      255
176
     1
290
     0
176
     1
 90
       50
176
     1
 90
       50
176
     1
 90
       50
176
     1
290
     0
176
     1
 90
       50
176
     1
 62
   256
176
     0
 40
1.0
176
     0
 90
        2
176
     1
  1
strokes_ogs.tif
176
     1
290
     0
176
     1
 40
1.0
176
     1
 40
1.0
176
     1
1001
ACAD
1000
AcDbSavedByObjectVersion
1070
     0
  0
DICTIONARYVAR
  5
3058
102
{ACAD_REACTORS
330
149
102
}
330
149
100
DictionaryVariables
280
     0
  1
1:1
  0
DICTIONARYVAR
  5
3056
102
{ACAD_REACTORS
330
149
102
}
330
149
100
DictionaryVariables
280
     0
  1
文字列
  0
DICTIONARYVAR
  5
3055
102
{ACAD_REACTORS
330
149
102
}
330
149
100
DictionaryVariables
280
     0
  1
STANDARD
  0
DICTIONARYVAR
  5
A9CC
102
{ACAD_REACTORS
330
149
102
}
330
149
100
DictionaryVariables
280
     0
  1
Metric50
  0
DICTIONARYVAR
  5
A9CD
102
{ACAD_REACTORS
330
149
102
}
330
149
100
DictionaryVariables
280
     0
  1
Metric50
  0
DICTIONARYVAR
  5
4F0
102
{ACAD_REACTORS
330
149
102
}
330
149
100
DictionaryVariables
280
     0
  1
1
  0
DICTIONARYVAR
  5
A97D
102
{ACAD_REACTORS
330
149
102
}
330
149
100
DictionaryVariables
280
     0
  1
0
  0
DICTIONARYVAR
  5
A9CE
102
{ACAD_REACTORS
330
149
102
}
330
149
100
DictionaryVariables
280
     0
  1
1
  0
DICTIONARYVAR
  5
A9CF
102
{ACAD_REACTORS
330
149
102
}
330
149
100
DictionaryVariables
280
     0
  1
15
  0
DICTIONARYVAR
  5
3059
102
{ACAD_REACTORS
330
149
102
}
330
149
100
DictionaryVariables
280
     0
  1
0
  0
DICTIONARYVAR
  5
3057
102
{ACAD_REACTORS
330
149
102
}
330
149
100
DictionaryVariables
280
     0
  1
0
  0
DICTIONARYVAR
  5
14A
102
{ACAD_REACTORS
330
149
102
}
330
149
100
DictionaryVariables
280
     0
  1
96
  0
XRECORD
  5
51AD
102
{ACAD_REACTORS
330
51AB
102
}
330
51AB
100
AcDbXrecord
280
     1
290
     1
  1
AcLyLayerGroup
 90
        1
300
グループ フィルタ1
  0
DICTIONARY
  5
A9D5
330
A9C6
100
AcDbDictionary
280
     1
281
     1
  3
ACAD_XREC_ROUNDTRIP
360
A9D6
  0
DICTIONARY
  5
50D6
330
22
100
AcDbDictionary
280
     1
281
     1
  0
DICTIONARY
  5
50ED
330
50D9
100
AcDbDictionary
280
     1
281
     1
  0
DICTIONARY
  5
2FF2
330
2FF1
100
AcDbDictionary
280
     1
281
     1
  3
ACAD_XREC_ROUNDTRIP
360
A986
  3
BUMPTILE
360
2FF4
  3
DIFFUSETILE
360
2FF3
  3
OPACITYTILE
360
2FF7
  3
REFLECTIONTILE
360
2FF6
  3
REFRACTIONTILE
360
2FF8
  3
SPECULARTILE
360
2FF5
  0
DICTIONARY
  5
2FEA
330
2FE9
100
AcDbDictionary
280
     1
281
     1
  3
ACAD_XREC_ROUNDTRIP
360
A985
  3
BUMPTILE
360
2FEC
  3
DIFFUSETILE
360
2FEB
  3
OPACITYTILE
360
2FEF
  3
REFLECTIONTILE
360
2FEE
  3
REFRACTIONTILE
360
2FF0
  3
SPECULARTILE
360
2FED
  0
DICTIONARY
  5
2FFA
330
2FF9
100
AcDbDictionary
280
     1
281
     1
  3
ACAD_XREC_ROUNDTRIP
360
A987
  3
BUMPTILE
360
2FFC
  3
DIFFUSETILE
360
2FFB
  3
OPACITYTILE
360
2FFF
  3
REFLECTIONTILE
360
2FFE
  3
REFRACTIONTILE
360
3000
  3
SPECULARTILE
360
2FFD
  0
DICTIONARY
  5
A9D3
330
A9C4
100
AcDbDictionary
280
     1
281
     1
  3
ACAD_XREC_ROUNDTRIP
360
A9D4
  0
DICTIONARY
  5
3052
330
3014
100
AcDbDictionary
280
     1
281
     1
  3
ACAD_ROUNDTRIP_2008_TABLESTYLE_CELLSTYLEMAP
360
A9D1
  0
XRECORD
  5
A9D6
102
{ACAD_REACTORS
330
A9D5
102
}
330
A9D5
100
AcDbXrecord
280
     1
102
DISPLAYNAME
  1
Metric50
102
FLAGS
 90
        0
  0
XRECORD
  5
A986
102
{ACAD_REACTORS
330
2FF2
102
}
330
2FF2
100
AcDbXrecord
280
     1
102
MATERIAL
148
0.0
149
0.0
149
0.0
 93
        0
 94
      127
282
     0
 72
     0
 77
     0
171
     0
175
     0
179
     0
273
     0
  0
XRECORD
  5
2FF4
102
{ACAD_REACTORS
330
2FF2
102
}
330
2FF2
100
AcDbXrecord
280
     1
270
     1
271
     1
  0
XRECORD
  5
2FF3
102
{ACAD_REACTORS
330
2FF2
102
}
330
2FF2
100
AcDbXrecord
280
     1
270
     1
271
     1
  0
XRECORD
  5
2FF7
102
{ACAD_REACTORS
330
2FF2
102
}
330
2FF2
100
AcDbXrecord
280
     1
270
     1
271
     1
  0
XRECORD
  5
2FF6
102
{ACAD_REACTORS
330
2FF2
102
}
330
2FF2
100
AcDbXrecord
280
     1
270
     1
271
     1
  0
XRECORD
  5
2FF8
102
{ACAD_REACTORS
330
2FF2
102
}
330
2FF2
100
AcDbXrecord
280
     1
270
     1
271
     1
  0
XRECORD
  5
2FF5
102
{ACAD_REACTORS
330
2FF2
102
}
330
2FF2
100
AcDbXrecord
280
     1
270
     1
271
     1
  0
XRECORD
  5
A985
102
{ACAD_REACTORS
330
2FEA
102
}
330
2FEA
100
AcDbXrecord
280
     1
102
MATERIAL
148
0.0
149
0.0
149
0.0
 93
        0
 94
      127
282
     0
 72
     0
 77
     0
171
     0
175
     0
179
     0
273
     0
  0
XRECORD
  5
2FEC
102
{ACAD_REACTORS
330
2FEA
102
}
330
2FEA
100
AcDbXrecord
280
     1
270
     1
271
     1
  0
XRECORD
  5
2FEB
102
{ACAD_REACTORS
330
2FEA
102
}
330
2FEA
100
AcDbXrecord
280
     1
270
     1
271
     1
  0
XRECORD
  5
2FEF
102
{ACAD_REACTORS
330
2FEA
102
}
330
2FEA
100
AcDbXrecord
280
     1
270
     1
271
     1
  0
XRECORD
  5
2FEE
102
{ACAD_REACTORS
330
2FEA
102
}
330
2FEA
100
AcDbXrecord
280
     1
270
     1
271
     1
  0
XRECORD
  5
2FF0
102
{ACAD_REACTORS
330
2FEA
102
}
330
2FEA
100
AcDbXrecord
280
     1
270
     1
271
     1
  0
XRECORD
  5
2FED
102
{ACAD_REACTORS
330
2FEA
102
}
330
2FEA
100
AcDbXrecord
280
     1
270
     1
271
     1
  0
XRECORD
  5
A987
102
{ACAD_REACTORS
330
2FFA
102
}
330
2FFA
100
AcDbXrecord
280
     1
102
MATERIAL
148
0.0
149
0.0
149
0.0
 93
        0
 94
      127
282
     0
 72
     0
 77
     0
171
     0
175
     0
179
     0
273
     0
  0
XRECORD
  5
2FFC
102
{ACAD_REACTORS
330
2FFA
102
}
330
2FFA
100
AcDbXrecord
280
     1
270
     1
271
     1
  0
XRECORD
  5
2FFB
102
{ACAD_REACTORS
330
2FFA
102
}
330
2FFA
100
AcDbXrecord
280
     1
270
     1
271
     1
  0
XRECORD
  5
2FFF
102
{ACAD_REACTORS
330
2FFA
102
}
330
2FFA
100
AcDbXrecord
280
     1
270
     1
271
     1
  0
XRECORD
  5
2FFE
102
{ACAD_REACTORS
330
2FFA
102
}
330
2FFA
100
AcDbXrecord
280
     1
270
     1
271
     1
  0
XRECORD
  5
3000
102
{ACAD_REACTORS
330
2FFA
102
}
330
2FFA
100
AcDbXrecord
280
     1
270
     1
271
     1
  0
XRECORD
  5
2FFD
102
{ACAD_REACTORS
330
2FFA
102
}
330
2FFA
100
AcDbXrecord
280
     1
270
     1
271
     1
  0
XRECORD
  5
A9D4
102
{ACAD_REACTORS
330
A9D3
102
}
330
A9D3
100
AcDbXrecord
280
     1
102
DISPLAYNAME
  1
Metric50
102
FLAGS
 90
        0
  0
CELLSTYLEMAP
  5
A9D1
102
{ACAD_REACTORS
330
3052
102
}
330
3052
100
AcDbCellStyleMap
 90
        3
300
CELLSTYLE
  1
TABLEFORMAT_BEGIN
 90
        5
170
     1
 91
        0
 92
    32768
 62
   257
 93
        1
300
CONTENTFORMAT
  1
CONTENTFORMAT_BEGIN
 90
        0
 91
        0
 92
      512
 93
        0
300

 40
0.0
140
1.0
 94
        5
 62
     0
340
11
144
6.0
309
CONTENTFORMAT_END
171
     1
301
MARGIN
  1
CELLMARGIN_BEGIN
 40
1.5
 40
1.5
 40
1.5
 40
1.5
 40
0.18
 40
0.18
309
CELLMARGIN_END
 94
        6
 95
        1
302
GRIDFORMAT
  1
GRIDFORMAT_BEGIN
 90
        0
 91
        1
 62
     0
 92
       -2
340
0
 93
        0
 40
1.125
309
GRIDFORMAT_END
 95
        2
302
GRIDFORMAT
  1
GRIDFORMAT_BEGIN
 90
        0
 91
        1
 62
     0
 92
       -2
340
0
 93
        0
 40
1.125
309
GRIDFORMAT_END
 95
        4
302
GRIDFORMAT
  1
GRIDFORMAT_BEGIN
 90
        0
 91
        1
 62
     0
 92
       -2
340
0
 93
        0
 40
1.125
309
GRIDFORMAT_END
 95
        8
302
GRIDFORMAT
  1
GRIDFORMAT_BEGIN
 90
        0
 91
        1
 62
     0
 92
       -2
340
0
 93
        0
 40
1.125
309
GRIDFORMAT_END
 95
       16
302
GRIDFORMAT
  1
GRIDFORMAT_BEGIN
 90
        0
 91
        1
 62
     0
 92
       -2
340
0
 93
        0
 40
1.125
309
GRIDFORMAT_END
 95
       32
302
GRIDFORMAT
  1
GRIDFORMAT_BEGIN
 90
        0
 91
        1
 62
     0
 92
       -2
340
0
 93
        0
 40
1.125
309
GRIDFORMAT_END
309
TABLEFORMAT_END
  1
CELLSTYLE_BEGIN
 90
        1
 91
        1
300
_TITLE
309
CELLSTYLE_END
300
CELLSTYLE
  1
TABLEFORMAT_BEGIN
 90
        5
170
     1
 91
        0
 92
        0
 62
   257
 93
        1
300
CONTENTFORMAT
  1
CONTENTFORMAT_BEGIN
 90
        0
 91
        0
 92
      512
 93
        0
300

 40
0.0
140
1.0
 94
        5
 62
     0
340
11
144
4.5
309
CONTENTFORMAT_END
171
     1
301
MARGIN
  1
CELLMARGIN_BEGIN
 40
1.5
 40
1.5
 40
1.5
 40
1.5
 40
0.18
 40
0.18
309
CELLMARGIN_END
 94
        6
 95
        1
302
GRIDFORMAT
  1
GRIDFORMAT_BEGIN
 90
        0
 91
        1
 62
     0
 92
       -2
340
0
 93
        0
 40
1.125
309
GRIDFORMAT_END
 95
        2
302
GRIDFORMAT
  1
GRIDFORMAT_BEGIN
 90
        0
 91
        1
 62
     0
 92
       -2
340
0
 93
        0
 40
1.125
309
GRIDFORMAT_END
 95
        4
302
GRIDFORMAT
  1
GRIDFORMAT_BEGIN
 90
        0
 91
        1
 62
     0
 92
       -2
340
0
 93
        0
 40
1.125
309
GRIDFORMAT_END
 95
        8
302
GRIDFORMAT
  1
GRIDFORMAT_BEGIN
 90
        0
 91
        1
 62
     0
 92
       -2
340
0
 93
        0
 40
1.125
309
GRIDFORMAT_END
 95
       16
302
GRIDFORMAT
  1
GRIDFORMAT_BEGIN
 90
        0
 91
        1
 62
     0
 92
       -2
340
0
 93
        0
 40
1.125
309
GRIDFORMAT_END
 95
       32
302
GRIDFORMAT
  1
GRIDFORMAT_BEGIN
 90
        0
 91
        1
 62
     0
 92
       -2
340
0
 93
        0
 40
1.125
309
GRIDFORMAT_END
309
TABLEFORMAT_END
  1
CELLSTYLE_BEGIN
 90
        2
 91
        1
300
_HEADER
309
CELLSTYLE_END
300
CELLSTYLE
  1
TABLEFORMAT_BEGIN
 90
        5
170
     1
 91
        0
 92
        0
 62
   257
 93
        1
300
CONTENTFORMAT
  1
CONTENTFORMAT_BEGIN
 90
        0
 91
        0
 92
      512
 93
        0
300

 40
0.0
140
1.0
 94
        2
 62
     0
340
11
144
4.5
309
CONTENTFORMAT_END
171
     1
301
MARGIN
  1
CELLMARGIN_BEGIN
 40
1.5
 40
1.5
 40
1.5
 40
1.5
 40
0.18
 40
0.18
309
CELLMARGIN_END
 94
        6
 95
        1
302
GRIDFORMAT
  1
GRIDFORMAT_BEGIN
 90
        0
 91
        1
 62
     0
 92
       -2
340
0
 93
        0
 40
1.125
309
GRIDFORMAT_END
 95
        2
302
GRIDFORMAT
  1
GRIDFORMAT_BEGIN
 90
        0
 91
        1
 62
     0
 92
       -2
340
0
 93
        0
 40
1.125
309
GRIDFORMAT_END
 95
        4
302
GRIDFORMAT
  1
GRIDFORMAT_BEGIN
 90
        0
 91
        1
 62
     0
 92
       -2
340
0
 93
        0
 40
1.125
309
GRIDFORMAT_END
 95
        8
302
GRIDFORMAT
  1
GRIDFORMAT_BEGIN
 90
        0
 91
        1
 62
     0
 92
       -2
340
0
 93
        0
 40
1.125
309
GRIDFORMAT_END
 95
       16
302
GRIDFORMAT
  1
GRIDFORMAT_BEGIN
 90
        0
 91
        1
 62
     0
 92
       -2
340
0
 93
        0
 40
1.125
309
GRIDFORMAT_END
 95
       32
302
GRIDFORMAT
  1
GRIDFORMAT_BEGIN
 90
        0
 91
        1
 62
     0
 92
       -2
340
0
 93
        0
 40
1.125
309
GRIDFORMAT_END
309
TABLEFORMAT_END
  1
CELLSTYLE_BEGIN
 90
        3
 91
        2
300
_DATA
309
CELLSTYLE_END
  0
ENDSEC
  0
SECTION
  2
ACDSDATA
 70
     2
 71
     8
  0
ACDSSCHEMA
 90
        0
  1
AcDb_Thumbnail_Schema
  2
AcDbDs::ID
280
    10
 91
        8
  2
Thumbnail_Data
280
    15
 91
        0
101
ACDSRECORD
 95
        0
 90
        1
  2
AcDbDs::TreatedAsObjectData
280
     1
291
     1
101
ACDSRECORD
 95
        0
 90
        2
  2
AcDbDs::Legacy
280
     1
291
     1
101
ACDSRECORD
  1
AcDbDs::ID
 90
        3
  2
AcDs:Indexable
280
     1
291
     1
101
ACDSRECORD
  1
AcDbDs::ID
 90
        4
  2
AcDbDs::HandleAttribute
280
     7
282
     1
  0
ACDSSCHEMA
 90
        1
  1
AcDbDs::TreatedAsObjectDataSchema
  2
AcDbDs::TreatedAsObjectData
280
     1
 91
        0
  0
ACDSSCHEMA
 90
        2
  1
AcDbDs::LegacySchema
  2
AcDbDs::Legacy
280
     1
 91
        0
  0
ACDSSCHEMA
 90
        3
  1
AcDbDs::IndexedPropertySchema
  2
AcDs:Indexable
280
     1
 91
        0
  0
ACDSSCHEMA
 90
        4
  1
AcDbDs::HandleAttributeSchema
  2
AcDbDs::HandleAttribute
280
     7
 91
        1
284
     1
  0
ACDSRECORD
 90
        0
  2
AcDbDs::ID
280
    10
320
22
  2
Thumbnail_Data
280
    15
 94
     1495
310
89504E470D0A1A0A0000000D4948445200000100000000900803000000D0BD45A300000300504C5445004C26000000FFFFFF0000000000000000000000000000000000000000000000000000330000660000990000CC0000FF0033000033330033660033990033CC0033FF0066000066330066660066990066CC0066FF0099
310
000099330099660099990099CC0099FF00CC0000CC3300CC6600CC9900CCCC00CCFF00FF0000FF3300FF6600FF9900FFCC00FFFF3300003300333300663300993300CC3300FF3333003333333333663333993333CC3333FF3366003366333366663366993366CC3366FF3399003399333399663399993399CC3399FF33CC00
310
33CC3333CC6633CC9933CCCC33CCFF33FF0033FF3333FF6633FF9933FFCC33FFFF6600006600336600666600996600CC6600FF6633006633336633666633996633CC6633FF6666006666336666666666996666CC6666FF6699006699336699666699996699CC6699FF66CC0066CC3366CC6666CC9966CCCC66CCFF66FF0066
310
FF3366FF6666FF9966FFCC66FFFF9900009900339900669900999900CC9900FF9933009933339933669933999933CC9933FF9966009966339966669966999966CC9966FF9999009999339999669999999999CC9999FF99CC0099CC3399CC6699CC9999CCCC99CCFF99FF0099FF3399FF6699FF9999FFCC99FFFFCC0000CC00
310
33CC0066CC0099CC00CCCC00FFCC3300CC3333CC3366CC3399CC33CCCC33FFCC6600CC6633CC6666CC6699CC66CCCC66FFCC9900CC9933CC9966CC9999CC99CCCC99FFCCCC00CCCC33CCCC66CCCC99CCCCCCCCCCFFCCFF00CCFF33CCFF66CCFF99CCFFCCCCFFFFFF0000FF0033FF0066FF0099FF00CCFF00FFFF3300FF3333
310
FF3366FF3399FF33CCFF33FFFF6600FF6633FF6666FF6699FF66CCFF66FFFF9900FF9933FF9966FF9999FF99CCFF99FFFFCC00FFCC33FFCC66FFCC99FFCCCCFFCCFFFFFF00FFFF33FFFF66FFFF99FFFFCCFFFFFF0000000D0D0D1A1A1A2828283535354343435050505D5D5D6B6B6B787878868686939393A1A1A1AEAEAEBB
310
BBBBC9C9C9D6D6D6E4E4E4F1F1F1FFFFFF000000000000000000000000000000000000000000000000000000000000A2E7CE14000002924944415478DAED9A5172C2300C0575FF4371125DC3FFED0025B6F32C2B102884DD8F4E27D1A4F24656ECA4660000000000000000000000000000000000000000000000009F42F9A5
310
3BE4F3902309B80C30E41C85804FC66301B329F061024A92E30AB0D4E80F2D603A051080807714D02F37BCEF6D871710772F43C0BA125C94C8470B88A68095892643C0B708184C81F7173098BEA3C97B4001B6A9760F294056000210702C01C3DDF7CB04D41B7EB15E7AF67678D8E65E24A07BE5D186BDE285C8F297BDCDED
310
3502823CD61BAEDB3B410BEA652C40BF667A17014B223E1CBFADCB45D6CB6DB1E2CD857617A00B77BC5A880558D1794CF6E2B25E566B9826A0D772A780EE5EB8BC49A5FE50D13812024A7F257B404030D4BC802579AFE658890AB7CBBAB1E4EAE01B0BA887EB75610569EBB29533D2FE41C02579B7BA972E6372559D75EEA5
310
4CD3D649EF2D60F2F5601994D7E31B1EFDFBE1D75FDA7B5CCBB17D04A487355EA48E3A6B17E6F249EAA63BB0CBFC1701E5D90256BDF2EE0AA804885C5C3D601F1030BF6DB93B9B1710EE1CF6173019DCAA850E633C1E587E0A6405A88B94E8A8FA9BA5E9F1CFAC80F490925F52CF1560B91E10094826EED37ED535D74D4352
310
9B21EDB40AD9500133F3E25C7391D545DB9560FECD5A5109CAED70FFF096BB4197FDBAC43B84DBFB80F86E243F8C540BE773F3E9DFA9768B8EEB63BAD32B0488356A1532DAF68C7708E24D489BBBCABCB99477B3A58FAA576032A05D90D9F0FF03BAAA5F456F17706705A466ED4301A2076C6A82A359EDDBBB6F782E1B9109
310
D91096893E9DE4D12DC1F373D9885C4C3E2C1ECDF54AA7F4D1F1F1D9B96C442664435826FAEB0500FC03A72B5FAEE0CB6BC0684C0000000000000000000000000000000000000000000000B0333F3E1FF6F8BDBC9FBC0000000049454E44AE426082
  0
ACDSRECORD
 90
        0
  2
AcDbDs::ID
280
    10
320
50D9
  2
Thumbnail_Data
280
    15
 94
     1014
310
89504E470D0A1A0A0000000D49484452000000B40000007F0803000000713C187700000300504C5445000000000000FFFFFF0000000000000000000000000000000000000000000000000000330000660000990000CC0000FF0033000033330033660033990033CC0033FF0066000066330066660066990066CC0066FF0099
310
000099330099660099990099CC0099FF00CC0000CC3300CC6600CC9900CCCC00CCFF00FF0000FF3300FF6600FF9900FFCC00FFFF3300003300333300663300993300CC3300FF3333003333333333663333993333CC3333FF3366003366333366663366993366CC3366FF3399003399333399663399993399CC3399FF33CC00
310
33CC3333CC6633CC9933CCCC33CCFF33FF0033FF3333FF6633FF9933FFCC33FFFF6600006600336600666600996600CC6600FF6633006633336633666633996633CC6633FF6666006666336666666666996666CC6666FF6699006699336699666699996699CC6699FF66CC0066CC3366CC6666CC9966CCCC66CCFF66FF0066
310
FF3366FF6666FF9966FFCC66FFFF9900009900339900669900999900CC9900FF9933009933339933669933999933CC9933FF9966009966339966669966999966CC9966FF9999009999339999669999999999CC9999FF99CC0099CC3399CC6699CC9999CCCC99CCFF99FF0099FF3399FF6699FF9999FFCC99FFFFCC0000CC00
310
33CC0066CC0099CC00CCCC00FFCC3300CC3333CC3366CC3399CC33CCCC33FFCC6600CC6633CC6666CC6699CC66CCCC66FFCC9900CC9933CC9966CC9999CC99CCCC99FFCCCC00CCCC33CCCC66CCCC99CCCCCCCCCCFFCCFF00CCFF33CCFF66CCFF99CCFFCCCCFFFFFF0000FF0033FF0066FF0099FF00CCFF00FFFF3300FF3333
310
FF3366FF3399FF33CCFF33FFFF6600FF6633FF6666FF6699FF66CCFF66FFFF9900FF9933FF9966FF9999FF99CCFF99FFFFCC00FFCC33FFCC66FFCC99FFCCCCFFCCFFFFFF00FFFF33FFFF66FFFF99FFFFCCFFFFFF0000000D0D0D1A1A1A2828283535354343435050505D5D5D6B6B6B787878868686939393A1A1A1AEAEAEBB
310
BBBBC9C9C9D6D6D6E4E4E4F1F1F1FFFFFF000000000000000000000000000000000000000000000000000000000000C11FEF66000000B14944415478DAEDDC310A80301004C0FBFF2FEF11E9AD02B108294CB332572ACA208163B7B07AC44D578F0A9B4CF4C845CFC3B25C7FCFEEC6F1816B2F5A8C131DF499A1A1A1A13FA2
310
6D4468686868E8FB21C01A878686868686868686D67B482ED0D0D0D02A04686868686868686868158210000D0D0DADF7B0C6A1A1A1A1A1A1A1A1A1F51E920B343434B40A011A1A1A1A1A1A1A1A5A85200440434343EB3DAC716868E85FA313FFB66923426FD179F3006CC48D6507EEBE830000000049454E44AE426082
  0
ENDSEC
  0
EOF
