  0
SECTION
  2
HEADER
  9
$ACADVER
  1
AC1027
  9
$ACADMAINTVER
 70
   125
  9
$DWGCODEPAGE
  3
ANSI_932
  9
$LASTSAVEDBY
  1
TRE7
  9
$REQUIREDVERSIONS
160
                 0
  9
$INSBASE
 10
0.0
 20
0.0
 30
0.0
  9
$EXTMIN
 10
-20.03465116786765
 20
-44.39921732361836
 30
-0.0015258207003583
  9
$EXTMAX
 10
1115.570758352085
 20
2116.101654727511
 30
0.0000000349246037
  9
$LIMMIN
 10
0.0
 20
0.0
  9
$LIMMAX
 10
297.0
 20
210.0
  9
$ORTHOMODE
 70
     1
  9
$REGENMODE
 70
     1
  9
$FILLMODE
 70
     1
  9
$QTEXTMODE
 70
     0
  9
$MIRRTEXT
 70
     1
  9
$LTSCALE
 40
0.5
  9
$ATTMODE
 70
     0
  9
$TEXTSIZE
 40
2.5
  9
$TRACEWID
 40
1.0
  9
$TEXTSTYLE
  7
masaru
  9
$CLAYER
  8
Defpoints
  9
$CELTYPE
  6
CENTER2
  9
$CECOLOR
 62
     7
  9
$CELTSCALE
 40
0.5
  9
$DISPSILH
 70
     0
  9
$DIMSCALE
 40
0.0
  9
$DIMASZ
 40
2.5
  9
$DIMEXO
 40
0.5
  9
$DIMDLI
 40
2.0
  9
$DIMRND
 40
0.0
  9
$DIMDLE
 40
0.0
  9
$DIMEXE
 40
1.25
  9
$DIMTP
 40
0.0
  9
$DIMTM
 40
0.0
  9
$DIMTXT
 40
2.5
  9
$DIMCEN
 40
0.0
  9
$DIMTSZ
 40
0.0
  9
$DIMTOL
 70
     0
  9
$DIMLIM
 70
     0
  9
$DIMTIH
 70
     0
  9
$DIMTOH
 70
     0
  9
$DIMSE1
 70
     0
  9
$DIMSE2
 70
     0
  9
$DIMTAD
 70
     1
  9
$DIMZIN
 70
     8
  9
$DIMBLK
  1

  9
$DIMASO
 70
     1
  9
$DIMSHO
 70
     1
  9
$DIMPOST
  1

  9
$DIMAPOST
  1

  9
$DIMALT
 70
     0
  9
$DIMALTD
 70
     3
  9
$DIMALTF
 40
0.03937007874016
  9
$DIMLFAC
 40
1.0
  9
$DIMTOFL
 70
     1
  9
$DIMTVP
 40
0.0
  9
$DIMTIX
 70
     0
  9
$DIMSOXD
 70
     0
  9
$DIMSAH
 70
     0
  9
$DIMBLK1
  1

  9
$DIMBLK2
  1

  9
$DIMSTYLE
  2
1： 1
  9
$DIMCLRD
 70
     0
  9
$DIMCLRE
 70
     0
  9
$DIMCLRT
 70
     0
  9
$DIMTFAC
 40
0.75
  9
$DIMGAP
 40
0.5
  9
$DIMJUST
 70
     0
  9
$DIMSD1
 70
     0
  9
$DIMSD2
 70
     0
  9
$DIMTOLJ
 70
     0
  9
$DIMTZIN
 70
     8
  9
$DIMALTZ
 70
     0
  9
$DIMALTTZ
 70
     0
  9
$DIMUPT
 70
     0
  9
$DIMDEC
 70
     3
  9
$DIMTDEC
 70
     3
  9
$DIMALTU
 70
     2
  9
$DIMALTTD
 70
     3
  9
$DIMTXSTY
  7
masaru
  9
$DIMAUNIT
 70
     0
  9
$DIMADEC
 70
     3
  9
$DIMALTRND
 40
0.0
  9
$DIMAZIN
 70
     2
  9
$DIMDSEP
 70
    46
  9
$DIMATFIT
 70
     3
  9
$DIMFRAC
 70
     0
  9
$DIMLDRBLK
  1

  9
$DIMLUNIT
 70
     2
  9
$DIMLWD
 70
    -2
  9
$DIMLWE
 70
    -2
  9
$DIMTMOVE
 70
     0
  9
$DIMFXL
 40
1.0
  9
$DIMFXLON
 70
     0
  9
$DIMJOGANG
 40
0.7853981633974483
  9
$DIMTFILL
 70
     0
  9
$DIMTFILLCLR
 70
     0
  9
$DIMARCSYM
 70
     0
  9
$DIMLTYPE
  6

  9
$DIMLTEX1
  6

  9
$DIMLTEX2
  6

  9
$DIMTXTDIRECTION
 70
     0
  9
$LUNITS
 70
     2
  9
$LUPREC
 70
     3
  9
$SKETCHINC
 40
1.0
  9
$FILLETRAD
 40
0.2
  9
$AUNITS
 70
     0
  9
$AUPREC
 70
     2
  9
$MENU
  1
.
  9
$ELEVATION
 40
0.0
  9
$PELEVATION
 40
0.0
  9
$THICKNESS
 40
0.0
  9
$LIMCHECK
 70
     0
  9
$CHAMFERA
 40
1.0
  9
$CHAMFERB
 40
1.0
  9
$CHAMFERC
 40
20.0
  9
$CHAMFERD
 40
0.0
  9
$SKPOLY
 70
     0
  9
$TDCREATE
 40
2455945.699016204
  9
$TDUCREATE
 40
2455945.324019456
  9
$TDUPDATE
 40
2461071.349629630
  9
$TDUUPDATE
 40
2461070.974629629
  9
$TDINDWG
 40
1.1146782523
  9
$TDUSRTIMER
 40
1.1146780671
  9
$USRTIMER
 70
     1
  9
$ANGBASE
 50
0.0
  9
$ANGDIR
 70
     0
  9
$PDMODE
 70
     0
  9
$PDSIZE
 40
0.0
  9
$PLINEWID
 40
0.0
  9
$SPLFRAME
 70
     0
  9
$SPLINETYPE
 70
     6
  9
$SPLINESEGS
 70
     8
  9
$HANDSEED
  5
6B98
  9
$SURFTAB1
 70
     6
  9
$SURFTAB2
 70
     6
  9
$SURFTYPE
 70
     6
  9
$SURFU
 70
     6
  9
$SURFV
 70
     6
  9
$UCSBASE
  2

  9
$UCSNAME
  2

  9
$UCSORG
 10
0.0
 20
0.0
 30
0.0
  9
$UCSXDIR
 10
1.0
 20
0.0
 30
0.0
  9
$UCSYDIR
 10
0.0
 20
1.0
 30
0.0
  9
$UCSORTHOREF
  2

  9
$UCSORTHOVIEW
 70
     0
  9
$UCSORGTOP
 10
0.0
 20
0.0
 30
0.0
  9
$UCSORGBOTTOM
 10
0.0
 20
0.0
 30
0.0
  9
$UCSORGLEFT
 10
0.0
 20
0.0
 30
0.0
  9
$UCSORGRIGHT
 10
0.0
 20
0.0
 30
0.0
  9
$UCSORGFRONT
 10
0.0
 20
0.0
 30
0.0
  9
$UCSORGBACK
 10
0.0
 20
0.0
 30
0.0
  9
$PUCSBASE
  2

  9
$PUCSNAME
  2

  9
$PUCSORG
 10
0.0
 20
0.0
 30
0.0
  9
$PUCSXDIR
 10
1.0
 20
0.0
 30
0.0
  9
$PUCSYDIR
 10
0.0
 20
1.0
 30
0.0
  9
$PUCSORTHOREF
  2

  9
$PUCSORTHOVIEW
 70
     0
  9
$PUCSORGTOP
 10
0.0
 20
0.0
 30
0.0
  9
$PUCSORGBOTTOM
 10
0.0
 20
0.0
 30
0.0
  9
$PUCSORGLEFT
 10
0.0
 20
0.0
 30
0.0
  9
$PUCSORGRIGHT
 10
0.0
 20
0.0
 30
0.0
  9
$PUCSORGFRONT
 10
0.0
 20
0.0
 30
0.0
  9
$PUCSORGBACK
 10
0.0
 20
0.0
 30
0.0
  9
$USERI1
 70
     0
  9
$USERI2
 70
     0
  9
$USERI3
 70
     0
  9
$USERI4
 70
     0
  9
$USERI5
 70
     0
  9
$USERR1
 40
0.0
  9
$USERR2
 40
0.0
  9
$USERR3
 40
0.0
  9
$USERR4
 40
0.0
  9
$USERR5
 40
0.0
  9
$WORLDVIEW
 70
     1
  9
$SHADEDGE
 70
     3
  9
$SHADEDIF
 70
    70
  9
$TILEMODE
 70
     1
  9
$MAXACTVP
 70
    64
  9
$PINSBASE
 10
0.0
 20
0.0
 30
0.0
  9
$PLIMCHECK
 70
     0
  9
$PEXTMIN
 10
1.000000000000000E+20
 20
1.000000000000000E+20
 30
1.000000000000000E+20
  9
$PEXTMAX
 10
-1.000000000000000E+20
 20
-1.000000000000000E+20
 30
-1.000000000000000E+20
  9
$PLIMMIN
 10
-5.873748779296875
 20
-5.873749732971191
  9
$PLIMMAX
 10
291.05224609375
 20
204.0995779037475
  9
$UNITMODE
 70
     0
  9
$VISRETAIN
 70
     0
  9
$PLINEGEN
 70
     0
  9
$PSLTSCALE
 70
     1
  9
$TREEDEPTH
 70
  3020
  9
$CMLSTYLE
  2
Standard
  9
$CMLJUST
 70
     0
  9
$CMLSCALE
 40
20.0
  9
$PROXYGRAPHICS
 70
     1
  9
$MEASUREMENT
 70
     1
  9
$CELWEIGHT
370
    -3
  9
$ENDCAPS
280
     0
  9
$JOINSTYLE
280
     0
  9
$LWDISPLAY
290
     1
  9
$INSUNITS
 70
     4
  9
$HYPERLINKBASE
  1

  9
$STYLESHEET
  1

  9
$XEDIT
290
     1
  9
$CEPSNTYPE
380
     0
  9
$PSTYLEMODE
290
     1
  9
$FINGERPRINTGUID
  2
{47EBBC9A-B4E8-4B54-BDCE-3C6DCD4BBDEA}
  9
$VERSIONGUID
  2
{99DD20D1-567B-EF4A-8E36-D164E2C26E91}
  9
$EXTNAMES
290
     1
  9
$PSVPSCALE
 40
1.0
  9
$OLESTARTUP
290
     0
  9
$SORTENTS
280
    96
  9
$INDEXCTL
280
     0
  9
$HIDETEXT
280
     0
  9
$XCLIPFRAME
280
     0
  9
$HALOGAP
280
     0
  9
$OBSCOLOR
 70
   257
  9
$OBSLTYPE
280
     0
  9
$INTERSECTIONDISPLAY
280
     0
  9
$INTERSECTIONCOLOR
 70
   257
  9
$DIMASSOC
280
     1
  9
$PROJECTNAME
  1

  9
$CAMERADISPLAY
290
     0
  9
$LENSLENGTH
 40
50.0
  9
$CAMERAHEIGHT
 40
0.0
  9
$STEPSPERSEC
 40
2.0
  9
$STEPSIZE
 40
6.0
  9
$3DDWFPREC
 40
2.0
  9
$PSOLWIDTH
 40
0.25
  9
$PSOLHEIGHT
 40
4.0
  9
$LOFTANG1
 40
1.570796326794896
  9
$LOFTANG2
 40
1.570796326794896
  9
$LOFTMAG1
 40
0.0
  9
$LOFTMAG2
 40
0.0
  9
$LOFTPARAM
 70
     7
  9
$LOFTNORMALS
280
     1
  9
$LATITUDE
 40
37.795
  9
$LONGITUDE
 40
-122.394
  9
$NORTHDIRECTION
 40
0.0
  9
$TIMEZONE
 70
 -8000
  9
$LIGHTGLYPHDISPLAY
280
     1
  9
$TILEMODELIGHTSYNCH
280
     1
  9
$CMATERIAL
347
1FDF
  9
$SOLIDHIST
280
     0
  9
$SHOWHIST
280
     1
  9
$DWFFRAME
280
     2
  9
$DGNFRAME
280
     0
  9
$REALWORLDSCALE
290
     1
  9
$INTERFERECOLOR
 62
     1
  9
$INTERFEREOBJVS
345
2001
  9
$INTERFEREVPVS
346
1FFE
  9
$CSHADOW
280
     0
  9
$SHADOWPLANELOCATION
 40
0.0
  0
ENDSEC
  0
SECTION
  2
CLASSES
  0
CLASS
  1
ACDBDICTIONARYWDFLT
  2
AcDbDictionaryWithDefault
  3
ObjectDBX Classes
 90
        0
 91
        1
280
     0
281
     0
  0
CLASS
  1
DICTIONARYVAR
  2
AcDbDictionaryVar
  3
ObjectDBX Classes
 90
        0
 91
       13
280
     0
281
     0
  0
CLASS
  1
MATERIAL
  2
AcDbMaterial
  3
ObjectDBX Classes
 90
     1153
 91
        3
280
     0
281
     0
  0
CLASS
  1
VISUALSTYLE
  2
AcDbVisualStyle
  3
ObjectDBX Classes
 90
     4095
 91
       26
280
     0
281
     0
  0
CLASS
  1
TABLESTYLE
  2
AcDbTableStyle
  3
ObjectDBX Classes
 90
     4095
 91
        1
280
     0
281
     0
  0
CLASS
  1
SCALE
  2
AcDbScale
  3
ObjectDBX Classes
 90
     1153
 91
       33
280
     0
281
     0
  0
CLASS
  1
MLEADERSTYLE
  2
AcDbMLeaderStyle
  3
ACDB_MLEADERSTYLE_CLASS
 90
     4095
 91
        2
280
     0
281
     0
  0
CLASS
  1
CELLSTYLEMAP
  2
AcDbCellStyleMap
  3
ObjectDBX Classes
 90
     1152
 91
        1
280
     0
281
     0
  0
CLASS
  1
SORTENTSTABLE
  2
AcDbSortentsTable
  3
ObjectDBX Classes
 90
        0
 91
        1
280
     0
281
     0
  0
CLASS
  1
MULTILEADER
  2
AcDbMLeader
  3
ACDB_MLEADER_CLASS
 90
     1025
 91
        0
280
     0
281
     1
  0
CLASS
  1
ACDBSECTIONVIEWSTYLE
  2
AcDbSectionViewStyle
  3
ObjectDBX Classes
 90
     1025
 91
        1
280
     0
281
     0
  0
CLASS
  1
ACDBDETAILVIEWSTYLE
  2
AcDbDetailViewStyle
  3
ObjectDBX Classes
 90
     1025
 91
        1
280
     0
281
     0
  0
CLASS
  1
EXACXREFPANELOBJECT
  2
ExAcXREFPanelObject
  3
EXAC_ESW
 90
     1025
 91
        0
280
     0
281
     0
  0
CLASS
  1
NPOCOLLECTION
  2
AcDbImpNonPersistentObjectsCollection
  3
ObjectDBX Classes
 90
     1153
 91
        0
280
     0
281
     0
  0
CLASS
  1
ACAD_EVALUATION_GRAPH
  2
AcDbEvalGraph
  3
ObjectDBX Classes
 90
     1153
 91
        0
280
     0
281
     0
  0
CLASS
  1
ACAECUSTOBJ
  2
AcAeEditorObj
  3
AcAeEditorObj
 90
     1024
 91
        0
280
     0
281
     0
  0
CLASS
  1
BLOCKPOINTPARAMETER
  2
AcDbBlockPointParameter
  3
ObjectDBX Classes
 90
     1153
 91
        0
280
     0
281
     0
  0
CLASS
  1
ACDB_DYNAMICBLOCKPURGEPREVENTER_VERSION
  2
AcDbDynamicBlockPurgePreventer
  3
ObjectDBX Classes
 90
     1153
 91
        0
280
     0
281
     0
  0
ENDSEC
  0
SECTION
  2
TABLES
  0
TABLE
  2
VPORT
  5
8
102
{ACAD_XDICTIONARY
360
2CF5
102
}
330
0
100
AcDbSymbolTable
 70
     1
1001
ACAD
1000
DbSaveVer
1071
      252
  0
VPORT
  5
1D8F
330
8
100
AcDbSymbolTableRecord
100
AcDbViewportTableRecord
  2
*Active
 70
     0
 10
0.0
 20
0.0
 11
1.0
 21
1.0
 12
547.7680535921083
 22
1035.851218701946
 13
0.0
 23
0.0
 14
10.0
 24
10.0
 15
10.0
 25
10.0
 16
0.0
 26
0.0
 36
1.0
 17
0.0
 27
0.0
 37
0.0
 40
2175.307001721092
 41
1.860517435320584
 42
50.0
 43
0.0
 44
0.0
 50
0.0
 51
0.0
 71
     0
 72
   100
 73
     1
 74
     3
 75
     0
 76
     0
 77
     0
 78
     0
281
     0
 65
     1
110
0.0
120
0.0
130
0.0
111
1.0
121
0.0
131
0.0
112
0.0
122
1.0
132
0.0
 79
     0
146
0.0
348
1FFD
 60
     3
 61
     5
292
     1
282
     1
141
0.0
142
0.0
 63
   250
421
  3355443
1001
ACAD_NAV_VCDISPLAY
1070
     3
  0
ENDTAB
  0
TABLE
  2
LTYPE
  5
5
330
0
100
AcDbSymbolTable
 70
     3
  0
LTYPE
  5
14
330
5
100
AcDbSymbolTableRecord
100
AcDbLinetypeTableRecord
  2
ByBlock
 70
     0
  3

 72
    65
 73
     0
 40
0.0
  0
LTYPE
  5
15
330
5
100
AcDbSymbolTableRecord
100
AcDbLinetypeTableRecord
  2
ByLayer
 70
     0
  3

 72
    65
 73
     0
 40
0.0
  0
LTYPE
  5
16
330
5
100
AcDbSymbolTableRecord
100
AcDbLinetypeTableRecord
  2
Continuous
 70
     0
  3
Solid line
 72
    65
 73
     0
 40
0.0
  0
LTYPE
  5
9B4
330
5
100
AcDbSymbolTableRecord
100
AcDbLinetypeTableRecord
  2
CENTER2
 70
     0
  3
Center (.5x) ___ _ ___ _ ___ _ ___ _ ___ _ ___
 72
    65
 73
     4
 40
28.575
 49
19.05
 74
     0
 49
-3.174999999999999
 74
     0
 49
3.174999999999999
 74
     0
 49
-3.174999999999999
 74
     0
  0
ENDTAB
  0
TABLE
  2
LAYER
  5
2
102
{ACAD_XDICTIONARY
360
2044
102
}
330
0
100
AcDbSymbolTable
 70
     2
  0
LAYER
  5
10
102
{ACAD_XDICTIONARY
360
20BE
102
}
330
2
100
AcDbSymbolTableRecord
100
AcDbLayerTableRecord
  2
0
 70
     0
 62
     7
  6
Continuous
370
    -3
390
F
347
1FEF
348
0
  0
LAYER
  5
1C9
330
2
100
AcDbSymbolTableRecord
100
AcDbLayerTableRecord
  2
Defpoints
 70
     0
 62
     7
  6
Continuous
290
     0
370
    -3
390
F
347
1FEF
348
0
  0
ENDTAB
  0
TABLE
  2
STYLE
  5
3
330
0
100
AcDbSymbolTable
 70
     2
  0
STYLE
  5
11
330
3
100
AcDbSymbolTableRecord
100
AcDbTextStyleTableRecord
  2
Standard
 70
     0
 40
0.0
 41
1.0
 50
0.0
 71
     0
 42
2.5
  3
romans.shx
  4
extfont2.shx
  0
STYLE
  5
DE0
330
3
100
AcDbSymbolTableRecord
100
AcDbTextStyleTableRecord
  2
masaru
 70
     0
 40
0.0
 41
1.0
 50
0.0
 71
     0
 42
2.5
  3
romans.shx
  4
extfont2.shx
  0
ENDTAB
  0
TABLE
  2
VIEW
  5
6
330
0
100
AcDbSymbolTable
 70
     3
  0
ENDTAB
  0
TABLE
  2
UCS
  5
7
330
0
100
AcDbSymbolTable
 70
     0
  0
ENDTAB
  0
TABLE
  2
APPID
  5
9
330
0
100
AcDbSymbolTable
 70
    16
  0
APPID
  5
12
330
9
100
AcDbSymbolTableRecord
100
AcDbRegAppTableRecord
  2
ACAD
 70
     0
  0
APPID
  5
202F
330
9
100
AcDbSymbolTableRecord
100
AcDbRegAppTableRecord
  2
ACAD_MLEADERVER
 70
     0
  0
APPID
  5
203F
330
9
100
AcDbSymbolTableRecord
100
AcDbRegAppTableRecord
  2
ACAD_PSEXT
 70
     0
  0
APPID
  5
21B5
330
9
100
AcDbSymbolTableRecord
100
AcDbRegAppTableRecord
  2
AcAecLayerStandard
 70
     0
  0
APPID
  5
23D0
330
9
100
AcDbSymbolTableRecord
100
AcDbRegAppTableRecord
  2
ACAD_EXEMPT_FROM_CAD_STANDARDS
 70
     0
  0
APPID
  5
2461
330
9
100
AcDbSymbolTableRecord
100
AcDbRegAppTableRecord
  2
ACAD_DSTYLE_DIMJAG
 70
     0
  0
APPID
  5
2462
330
9
100
AcDbSymbolTableRecord
100
AcDbRegAppTableRecord
  2
ACAD_DSTYLE_DIMBREAK
 70
     0
  0
APPID
  5
2463
330
9
100
AcDbSymbolTableRecord
100
AcDbRegAppTableRecord
  2
ACAD_DSTYLE_DIMTALN
 70
     0
  0
APPID
  5
2464
330
9
100
AcDbSymbolTableRecord
100
AcDbRegAppTableRecord
  2
AcadAnnotative
 70
     0
  0
APPID
  5
2D1F
330
9
100
AcDbSymbolTableRecord
100
AcDbRegAppTableRecord
  2
AcDbAttr
 70
     0
  0
APPID
  5
3BF2
330
9
100
AcDbSymbolTableRecord
100
AcDbRegAppTableRecord
  2
ACAD_DSTYLE_DIMRADIAL_EXTENSION
 70
     0
  0
APPID
  5
538B
330
9
100
AcDbSymbolTableRecord
100
AcDbRegAppTableRecord
  2
ACAD_NAV_VCDISPLAY
 70
     0
  0
APPID
  5
5941
330
9
100
AcDbSymbolTableRecord
100
AcDbRegAppTableRecord
  2
Acad_TC
 70
     0
  0
APPID
  5
658B
330
9
100
AcDbSymbolTableRecord
100
AcDbRegAppTableRecord
  2
ACAUTHENVIRON
 70
     0
  0
APPID
  5
6723
330
9
100
AcDbSymbolTableRecord
100
AcDbRegAppTableRecord
  2
AcDbDynamicBlockTrueName
 70
     0
  0
APPID
  5
6724
330
9
100
AcDbSymbolTableRecord
100
AcDbRegAppTableRecord
  2
AcDbDynamicBlockGUID
 70
     0
  0
ENDTAB
  0
TABLE
  2
DIMSTYLE
  5
A
330
0
100
AcDbSymbolTable
 70
     2
100
AcDbDimStyleTable
 71
     1
340
E06
  0
DIMSTYLE
105
E06
330
A
100
AcDbSymbolTableRecord
100
AcDbDimStyleTableRecord
  2
1： 1
 70
     0
 40
0.0
 41
2.5
 42
0.5
 43
2.0
 44
1.25
 73
     0
 74
     0
 77
     1
 78
     8
 79
     2
140
2.5
141
0.0
143
0.03937007874016
146
0.75
147
0.5
171
     3
172
     1
179
     3
271
     3
272
     3
274
     3
283
     0
284
     8
340
DE0
  0
ENDTAB
  0
TABLE
  2
BLOCK_RECORD
  5
1
330
0
100
AcDbSymbolTable
 70
     4
  0
BLOCK_RECORD
  5
1F
102
{ACAD_XDICTIONARY
360
286E
102
}
330
1
100
AcDbSymbolTableRecord
100
AcDbBlockTableRecord
  2
*Model_Space
340
22
 70
     0
280
     1
281
     0
  0
BLOCK_RECORD
  5
275D
330
1
100
AcDbSymbolTableRecord
100
AcDbBlockTableRecord
  2
*Paper_Space
340
275E
 70
     0
280
     1
281
     0
  0
BLOCK_RECORD
  5
6B24
330
1
100
AcDbSymbolTableRecord
100
AcDbBlockTableRecord
  2
*D1
340
0
 70
     0
280
     1
281
     0
  0
BLOCK_RECORD
  5
6B33
330
1
100
AcDbSymbolTableRecord
100
AcDbBlockTableRecord
  2
*D2
340
0
 70
     0
280
     1
281
     0
  0
BLOCK_RECORD
  5
6B42
330
1
100
AcDbSymbolTableRecord
100
AcDbBlockTableRecord
  2
*D3
340
0
 70
     0
280
     1
281
     0
  0
ENDTAB
  0
ENDSEC
  0
SECTION
  2
BLOCKS
  0
BLOCK
  5
20
330
1F
100
AcDbEntity
  8
0
100
AcDbBlockBegin
  2
*Model_Space
 70
     0
 10
0.0
 20
0.0
 30
0.0
  3
*Model_Space
  1

  0
ENDBLK
  5
21
330
1F
100
AcDbEntity
  8
0
100
AcDbBlockEnd
  0
BLOCK
  5
275F
330
275D
100
AcDbEntity
 67
     1
  8
0
 48
0.5
100
AcDbBlockBegin
  2
*Paper_Space
 70
     0
 10
0.0
 20
0.0
 30
0.0
  3
*Paper_Space
  1

  0
ENDBLK
  5
2760
330
275D
100
AcDbEntity
 67
     1
  8
0
 48
0.5
100
AcDbBlockEnd
  0
BLOCK
  5
6B25
330
6B24
100
AcDbEntity
  8
0
 62
     7
 48
0.5
370
    -3
100
AcDbBlockBegin
  2
*D1
 70
     1
 10
0.0
 20
0.0
 30
0.0
  3
*D1
  1

  0
LINE
  5
6B27
330
6B24
100
AcDbEntity
  8
Defpoints
  6
CENTER2
 62
     0
440
 16777216
 48
0.5
370
    -2
100
AcDbLine
 10
656.0074355078029
 20
113.0050587744701
 30
0.0
 11
662.8974548357821
 21
113.0050587744701
 31
0.0
  0
LINE
  5
6B28
330
6B24
100
AcDbEntity
  8
Defpoints
  6
CENTER2
 62
     0
440
 16777216
 48
0.5
370
    -2
100
AcDbLine
 10
656.0074355078029
 20
110.0050587744701
 30
0.0
 11
662.8974548357821
 21
110.0050587744701
 31
0.0
  0
LINE
  5
6B29
330
6B24
100
AcDbEntity
  8
Defpoints
  6
CENTER2
 62
     0
440
 16777216
 48
0.5
370
    -2
100
AcDbLine
 10
661.6474548357821
 20
115.5050587744701
 30
0.0
 11
661.6474548357821
 21
118.0050587744701
 31
0.0
  0
LINE
  5
6B2A
330
6B24
100
AcDbEntity
  8
Defpoints
  6
CENTER2
 62
     0
440
 16777216
 48
0.5
370
    -2
100
AcDbLine
 10
661.6474548357821
 20
107.5050587744701
 30
0.0
 11
661.6474548357821
 21
105.0050587744701
 31
0.0
  0
LINE
  5
6B2B
330
6B24
100
AcDbEntity
  8
Defpoints
  6
CENTER2
 62
     0
440
 16777216
 48
0.5
370
    -2
100
AcDbLine
 10
661.6474548357821
 20
113.0050587744701
 30
0.0
 11
661.6474548357821
 21
110.0050587744701
 31
0.0
  0
SOLID
  5
6B2C
330
6B24
100
AcDbEntity
  8
Defpoints
  6
CENTER2
 62
     0
440
 16777216
 48
0.5
370
    -3
100
AcDbTrace
 10
661.2307881691155
 20
115.5050587744701
 30
0.0
 11
662.0641215024487
 21
115.5050587744701
 31
0.0
 12
661.6474548357821
 22
113.0050587744701
 32
0.0
 13
661.6474548357821
 23
113.0050587744701
 33
0.0
  0
SOLID
  5
6B2D
330
6B24
100
AcDbEntity
  8
Defpoints
  6
CENTER2
 62
     0
440
 16777216
 48
0.5
370
    -3
100
AcDbTrace
 10
661.2307881691155
 20
107.5050587744701
 30
0.0
 11
662.0641215024487
 21
107.5050587744701
 31
0.0
 12
661.6474548357821
 22
110.0050587744701
 32
0.0
 13
661.6474548357821
 23
110.0050587744701
 33
0.0
  0
MTEXT
  5
6B2E
330
6B24
100
AcDbEntity
  8
Defpoints
  6
CENTER2
 62
     0
440
 16777216
 48
0.5
370
    -3
100
AcDbMText
 10
659.897454835782
 20
111.5050587744699
 30
0.0
 40
2.5
 41
0.0
 46
0.0
 71
     5
 72
     1
  1
3
  7
masaru
 11
0.0000000000000001
 21
1.0
 31
0.0
 73
     1
 44
1.0
  0
POINT
  5
6B2F
330
6B24
100
AcDbEntity
  8
Defpoints
  6
CENTER2
 62
     0
440
 16777216
 48
0.5
370
    -3
100
AcDbPoint
 10
655.5074355078029
 20
113.0050587744701
 30
0.0
  0
POINT
  5
6B30
330
6B24
100
AcDbEntity
  8
Defpoints
  6
CENTER2
 62
     0
440
 16777216
 48
0.5
370
    -3
100
AcDbPoint
 10
655.5074355078029
 20
110.0050587744701
 30
0.0
  0
POINT
  5
6B31
330
6B24
100
AcDbEntity
  8
Defpoints
  6
CENTER2
 62
     0
440
 16777216
 48
0.5
370
    -3
100
AcDbPoint
 10
661.6474548357821
 20
110.0050587744701
 30
0.0
  0
ENDBLK
  5
6B26
330
6B24
100
AcDbEntity
  8
0
 62
     7
 48
0.5
370
    -3
100
AcDbBlockEnd
  0
BLOCK
  5
6B34
330
6B33
100
AcDbEntity
  8
0
 62
     7
 48
0.5
370
    -3
100
AcDbBlockBegin
  2
*D2
 70
     1
 10
0.0
 20
0.0
 30
0.0
  3
*D2
  1

  0
LINE
  5
6B36
330
6B33
100
AcDbEntity
  8
Defpoints
  6
CENTER2
 62
     0
440
 16777216
 48
0.5
370
    -2
100
AcDbLine
 10
656.0074355078029
 20
110.0050587744701
 30
0.0
 11
665.2314763965899
 21
110.0050587744701
 31
0.0
  0
LINE
  5
6B37
330
6B33
100
AcDbEntity
  8
Defpoints
  6
CENTER2
 62
     0
440
 16777216
 48
0.5
370
    -2
100
AcDbLine
 10
656.007435507803
 20
106.0050587744701
 30
0.0
 11
665.2314763965899
 21
106.0050587744701
 31
0.0
  0
LINE
  5
6B38
330
6B33
100
AcDbEntity
  8
Defpoints
  6
CENTER2
 62
     0
440
 16777216
 48
0.5
370
    -2
100
AcDbLine
 10
663.9814763965898
 20
112.5050587744701
 30
0.0
 11
663.9814763965898
 21
115.0050587744701
 31
0.0
  0
LINE
  5
6B39
330
6B33
100
AcDbEntity
  8
Defpoints
  6
CENTER2
 62
     0
440
 16777216
 48
0.5
370
    -2
100
AcDbLine
 10
663.9814763965898
 20
103.5050587744701
 30
0.0
 11
663.9814763965898
 21
101.0050587744701
 31
0.0
  0
LINE
  5
6B3A
330
6B33
100
AcDbEntity
  8
Defpoints
  6
CENTER2
 62
     0
440
 16777216
 48
0.5
370
    -2
100
AcDbLine
 10
663.9814763965898
 20
110.0050587744701
 30
0.0
 11
663.9814763965898
 21
106.0050587744701
 31
0.0
  0
SOLID
  5
6B3B
330
6B33
100
AcDbEntity
  8
Defpoints
  6
CENTER2
 62
     0
440
 16777216
 48
0.5
370
    -3
100
AcDbTrace
 10
663.5648097299232
 20
112.5050587744701
 30
0.0
 11
664.3981430632565
 21
112.5050587744701
 31
0.0
 12
663.9814763965898
 22
110.0050587744701
 32
0.0
 13
663.9814763965898
 23
110.0050587744701
 33
0.0
  0
SOLID
  5
6B3C
330
6B33
100
AcDbEntity
  8
Defpoints
  6
CENTER2
 62
     0
440
 16777216
 48
0.5
370
    -3
100
AcDbTrace
 10
663.5648097299232
 20
103.5050587744701
 30
0.0
 11
664.3981430632565
 21
103.5050587744701
 31
0.0
 12
663.9814763965898
 22
106.0050587744701
 32
0.0
 13
663.9814763965898
 23
106.0050587744701
 33
0.0
  0
MTEXT
  5
6B3D
330
6B33
100
AcDbEntity
  8
Defpoints
  6
CENTER2
 62
     0
440
 16777216
 48
0.5
370
    -3
100
AcDbMText
 10
662.2314763965897
 20
108.0050587744699
 30
0.0
 40
2.5
 41
0.0
 46
0.0
 71
     5
 72
     1
  1
4
  7
masaru
 11
0.0000000000000001
 21
1.0
 31
0.0
 73
     1
 44
1.0
  0
POINT
  5
6B3E
330
6B33
100
AcDbEntity
  8
Defpoints
  6
CENTER2
 62
     0
440
 16777216
 48
0.5
370
    -3
100
AcDbPoint
 10
655.5074355078029
 20
110.0050587744701
 30
0.0
  0
POINT
  5
6B3F
330
6B33
100
AcDbEntity
  8
Defpoints
  6
CENTER2
 62
     0
440
 16777216
 48
0.5
370
    -3
100
AcDbPoint
 10
655.507435507803
 20
106.0050587744701
 30
0.0
  0
POINT
  5
6B40
330
6B33
100
AcDbEntity
  8
Defpoints
  6
CENTER2
 62
     0
440
 16777216
 48
0.5
370
    -3
100
AcDbPoint
 10
663.9814763965898
 20
106.0050587744701
 30
0.0
  0
ENDBLK
  5
6B35
330
6B33
100
AcDbEntity
  8
0
 62
     7
 48
0.5
370
    -3
100
AcDbBlockEnd
  0
BLOCK
  5
6B43
330
6B42
100
AcDbEntity
  8
0
 62
     7
 48
0.5
370
    -3
100
AcDbBlockBegin
  2
*D3
 70
     1
 10
0.0
 20
0.0
 30
0.0
  3
*D3
  1

  0
LINE
  5
6B45
330
6B42
100
AcDbEntity
  8
Defpoints
  6
CENTER2
 62
     0
440
 16777216
 48
0.5
370
    -2
100
AcDbLine
 10
1116.030199992868
 20
2113.030901903549
 30
0.0
 11
1178.297228318109
 21
2113.030901903549
 31
0.0
  0
LINE
  5
6B46
330
6B42
100
AcDbEntity
  8
Defpoints
  6
CENTER2
 62
     0
440
 16777216
 48
0.5
370
    -2
100
AcDbLine
 10
1116.030199992868
 20
113.0309019035487
 30
0.0
 11
1178.29722831811
 21
113.0309019035487
 31
0.0
  0
LINE
  5
6B47
330
6B42
100
AcDbEntity
  8
Defpoints
  6
CENTER2
 62
     0
440
 16777216
 48
0.5
370
    -2
100
AcDbLine
 10
1177.04722831811
 20
2110.530901903549
 30
0.0
 11
1177.04722831811
 21
115.5309019035487
 31
0.0
  0
SOLID
  5
6B48
330
6B42
100
AcDbEntity
  8
Defpoints
  6
CENTER2
 62
     0
440
 16777216
 48
0.5
370
    -3
100
AcDbTrace
 10
1176.630561651443
 20
2110.530901903549
 30
0.0
 11
1177.463894984776
 21
2110.530901903549
 31
0.0
 12
1177.04722831811
 22
2113.030901903549
 32
0.0
 13
1177.04722831811
 23
2113.030901903549
 33
0.0
  0
SOLID
  5
6B49
330
6B42
100
AcDbEntity
  8
Defpoints
  6
CENTER2
 62
     0
440
 16777216
 48
0.5
370
    -3
100
AcDbTrace
 10
1176.630561651443
 20
115.5309019035487
 30
0.0
 11
1177.463894984777
 21
115.5309019035487
 31
0.0
 12
1177.04722831811
 22
113.0309019035487
 32
0.0
 13
1177.04722831811
 23
113.0309019035487
 33
0.0
  0
MTEXT
  5
6B4A
330
6B42
100
AcDbEntity
  8
Defpoints
  6
CENTER2
 62
     0
440
 16777216
 48
0.5
370
    -3
100
AcDbMText
 10
1175.29722831811
 20
1113.030901903548
 30
0.0
 40
2.5
 41
0.0
 46
0.0
 71
     5
 72
     1
  1
2000
  7
masaru
 11
0.0000000000000001
 21
1.0
 31
0.0
 73
     1
 44
1.0
  0
POINT
  5
6B4B
330
6B42
100
AcDbEntity
  8
Defpoints
  6
CENTER2
 62
     0
440
 16777216
 48
0.5
370
    -3
100
AcDbPoint
 10
1115.530199992868
 20
2113.030901903549
 30
0.0
  0
POINT
  5
6B4C
330
6B42
100
AcDbEntity
  8
Defpoints
  6
CENTER2
 62
     0
440
 16777216
 48
0.5
370
    -3
100
AcDbPoint
 10
1115.530199992868
 20
113.0309019035487
 30
0.0
  0
POINT
  5
6B4D
330
6B42
100
AcDbEntity
  8
Defpoints
  6
CENTER2
 62
     0
440
 16777216
 48
0.5
370
    -3
100
AcDbPoint
 10
1177.04722831811
 20
113.0309019035487
 30
0.0
  0
ENDBLK
  5
6B44
330
6B42
100
AcDbEntity
  8
0
 62
     7
 48
0.5
370
    -3
100
AcDbBlockEnd
  0
ENDSEC
  0
SECTION
  2
ENTITIES
  0
MTEXT
  5
287B
330
1F
100
AcDbEntity
  8
0
 62
     1
 48
0.5
370
    -3
100
AcDbMText
 10
150.2228526003498
 20
-5.0
 30
0.0
 40
2.5
 41
32.05805302350382
 46
0.0
 71
     2
 72
     5
  1
2号
 73
     1
 44
1.0
1001
ACAD
1000
ACAD_MTEXT_COLUMN_INFO_BEGIN
1070
    75
1070
     2
1070
    79
1070
     0
1070
    76
1070
     1
1070
    78
1070
     0
1070
    48
1040
32.05805302350382
1070
    49
1040
12.5
1070
    50
1070
     1
1040
0.0
1000
ACAD_MTEXT_COLUMN_INFO_END
  0
MTEXT
  5
287C
330
1F
100
AcDbEntity
  8
0
 62
     1
 48
0.5
370
    -3
100
AcDbMText
 10
150.2228526003498
 20
-13.0
 30
0.0
 40
2.5
 41
32.05805302350382
 46
0.0
 71
     2
 72
     5
  1
EFMD2□
 73
     1
 44
1.0
1001
ACAD
1000
ACAD_MTEXT_COLUMN_INFO_BEGIN
1070
    75
1070
     2
1070
    79
1070
     0
1070
    76
1070
     1
1070
    78
1070
     0
1070
    48
1040
32.05805302350382
1070
    49
1040
12.5
1070
    50
1070
     1
1040
0.0
1000
ACAD_MTEXT_COLUMN_INFO_END
  0
LINE
  5
2A0F
330
1F
100
AcDbEntity
  8
0
 62
     7
 48
0.5
370
    -3
100
AcDbLine
 10
180.2228526003497
 20
53.04502817443562
 30
0.0
 11
120.2228526003498
 21
53.04502817443562
 31
0.0
  0
LINE
  5
2A10
330
1F
100
AcDbEntity
  8
0
 62
     2
 48
0.5
370
    -3
100
AcDbLine
 10
150.2228526003585
 20
2056.045028174436
 30
0.0
 11
150.2228526003584
 21
50.04502817443561
 31
0.0
  0
LINE
  5
2A11
330
1F
100
AcDbEntity
  8
0
 62
     7
 48
0.5
370
    -3
100
AcDbLine
 10
120.2228526003585
 20
53.04502817443562
 30
0.0
 11
120.2228526003585
 21
2053.045028174436
 31
0.0
  0
LINE
  5
2A12
330
1F
100
AcDbEntity
  8
0
 62
     7
 48
0.5
370
    -3
100
AcDbLine
 10
180.2228526003585
 20
53.04502817443562
 30
0.0
 11
180.2228526003585
 21
2053.045028174436
 31
0.0
  0
LINE
  5
2A13
330
1F
100
AcDbEntity
  8
0
 62
     7
 48
0.5
370
    -3
100
AcDbLine
 10
180.2228526003585
 20
2053.045028174436
 30
0.0
 11
120.2228526003586
 21
2053.045028174436
 31
0.0
  0
LINE
  5
2DE6
330
1F
100
AcDbEntity
  8
0
 62
     7
 48
0.5
370
    -3
100
AcDbLine
 10
290.4318435973878
 20
72.99999999999989
 30
0.0
 11
210.4318435973882
 21
72.99999999999991
 31
0.0
  0
LINE
  5
2DE7
330
1F
100
AcDbEntity
  8
0
 62
     2
 48
0.5
370
    -3
100
AcDbLine
 10
250.431843597388
 20
2076.0
 30
0.0
 11
250.4318435973879
 21
69.99999999999989
 31
0.0
  0
LINE
  5
2DE8
330
1F
100
AcDbEntity
  8
0
 62
     7
 48
0.5
370
    -3
100
AcDbLine
 10
210.4318435973882
 20
72.99999999999989
 30
0.0
 11
210.4318435973882
 21
2073.0
 31
0.0
  0
LINE
  5
2DE9
330
1F
100
AcDbEntity
  8
0
 62
     7
 48
0.5
370
    -3
100
AcDbLine
 10
290.4318435973878
 20
72.99999999999989
 30
0.0
 11
290.4318435973878
 21
2073.0
 31
0.0
  0
LINE
  5
2DEA
330
1F
100
AcDbEntity
  8
0
 62
     7
 48
0.5
370
    -3
100
AcDbLine
 10
290.4318435973878
 20
2073.0
 30
0.0
 11
210.4318435973882
 21
2073.0
 31
0.0
  0
MTEXT
  5
4168
330
1F
100
AcDbEntity
  8
0
 62
     1
 48
0.5
370
    -3
100
AcDbMText
 10
547.7680509482318
 20
-39.49999999999997
 30
0.0
 40
5.0
 41
209.0157343639712
 46
0.0
 71
     2
 72
     5
  1
エムケーダクト イージーフィッティングシリーズ
 73
     1
 44
1.0
1001
ACAD
1000
ACAD_MTEXT_COLUMN_INFO_BEGIN
1070
    75
1070
     2
1070
    79
1070
     0
1070
    76
1070
     1
1070
    78
1070
     0
1070
    48
1040
209.0157343639712
1070
    49
1040
12.5
1070
    50
1070
     1
1040
0.0
1000
ACAD_MTEXT_COLUMN_INFO_END
  0
LINE
  5
4470
330
1F
100
AcDbEntity
  8
0
 62
     7
 48
0.5
370
    -3
100
AcDbLine
 10
122.2228526003585
 20
53.04502817443562
 30
0.0
 11
122.2228526003585
 21
2053.045028174436
 31
0.0
  0
LINE
  5
4471
330
1F
100
AcDbEntity
  8
0
 62
     7
 48
0.5
370
    -3
100
AcDbLine
 10
178.2228526003582
 20
53.04502817443562
 30
0.0
 11
178.2228526003582
 21
2053.045028174436
 31
0.0
  0
LINE
  5
4474
330
1F
100
AcDbEntity
  8
0
 62
     7
 48
0.5
370
    -3
100
AcDbLine
 10
215.431843597388
 20
72.99999999999989
 30
0.0
 11
215.431843597388
 21
2073.0
 31
0.0
  0
LINE
  5
4475
330
1F
100
AcDbEntity
  8
0
 62
     7
 48
0.5
370
    -3
100
AcDbLine
 10
285.431843597388
 20
72.99999999999989
 30
0.0
 11
285.431843597388
 21
2073.0
 31
0.0
  0
LINE
  5
5422
330
1F
100
AcDbEntity
  8
0
 62
     7
 48
0.5
370
    -3
100
AcDbLine
 10
124.1499999999621
 20
5.499999999999998
 30
0.0
 11
176.2957052007382
 21
5.5
 31
0.0
  0
LINE
  5
5427
330
1F
100
AcDbEntity
  8
0
 62
     7
 48
0.5
370
    -3
100
AcDbLine
 10
177.9457052007078
 20
39.79502817443592
 30
0.0
 11
177.9457052007078
 21
35.04502817443586
 31
0.0
  0
ARC
  5
5428
330
1F
100
AcDbEntity
  8
0
 62
     7
 48
0.5
370
    -3
100
AcDbCircle
 10
178.2957052007078
 20
39.79502817443592
 30
0.0
 40
0.35
100
AcDbArc
 50
90.0
 51
180.0
  0
LINE
  5
542A
330
1F
100
AcDbEntity
  8
0
 62
     7
 48
0.5
370
    -3
100
AcDbLine
 10
168.4457052007078
 20
37.99502817443596
 30
0.0
 11
168.4457052007078
 21
37.32855498093824
 31
0.0
  0
LINE
  5
542B
330
1F
100
AcDbEntity
  8
0
 62
     7
 48
0.5
370
    -3
100
AcDbLine
 10
179.7457052007075
 20
40.14502817443577
 30
0.0
 11
178.2957052007078
 21
40.14502817443593
 31
0.0
  0
ARC
  5
542C
330
1F
100
AcDbEntity
  8
0
 62
     7
 48
0.5
370
    -3
100
AcDbCircle
 10
179.7457052007075
 20
39.44502817443578
 30
0.0
 40
0.7
100
AcDbArc
 50
0.0
 51
90.0
  0
LINE
  5
542D
330
1F
100
AcDbEntity
  8
0
 62
     7
 48
0.5
370
    -3
100
AcDbLine
 10
174.9957052007076
 20
34.34502817443582
 30
0.0
 11
177.2457052007077
 21
34.34502817443581
 31
0.0
  0
ARC
  5
542F
330
1F
100
AcDbEntity
  8
0
 62
     7
 48
0.5
370
    -3
100
AcDbCircle
 10
175.073711212528
 20
34.59502817443576
 30
0.0
 40
2.75
100
AcDbArc
 50
235.3416452944689
 51
270.0
  0
ARC
  5
5430
330
1F
100
AcDbEntity
  8
0
 62
     7
 48
0.5
370
    -3
100
AcDbCircle
 10
177.2457052007078
 20
35.0450281744358
 30
0.0
 40
0.7
100
AcDbArc
 50
270.0
 51
0.0
  0
LINE
  5
5431
330
1F
100
AcDbEntity
  8
0
 62
     7
 48
0.5
370
    -3
100
AcDbLine
 10
175.073711212528
 20
31.84502817443576
 30
0.0
 11
177.2457052007078
 21
31.84502817443581
 31
0.0
  0
LINE
  5
5434
330
1F
100
AcDbEntity
  8
0
 62
     7
 48
0.5
370
    -3
100
AcDbLine
 10
165.0457052007078
 20
38.34502817443587
 30
0.0
 11
168.0957052007078
 21
38.34502817443604
 31
0.0
  0
ARC
  5
5435
330
1F
100
AcDbEntity
  8
0
 62
     7
 48
0.5
370
    -3
100
AcDbCircle
 10
168.0957052007078
 20
37.99502817443596
 30
0.0
 40
0.35
100
AcDbArc
 50
0.0000000000065138
 51
90.0
  0
LINE
  5
5436
330
1F
100
AcDbEntity
  8
0
 62
     7
 48
0.5
370
    -3
100
AcDbLine
 10
171.2957052007078
 20
38.34502817443592
 30
0.0
 11
172.6957052007078
 21
38.34502817443598
 31
0.0
  0
ARC
  5
5437
330
1F
100
AcDbEntity
  8
0
 62
     7
 48
0.5
370
    -3
100
AcDbCircle
 10
172.6957052007079
 20
38.89502817443599
 30
0.0
 40
0.55
100
AcDbArc
 50
270.0
 51
0.0
  0
LINE
  5
5438
330
1F
100
AcDbEntity
  8
0
 62
     7
 48
0.5
370
    -3
100
AcDbLine
 10
174.9957052007076
 20
34.34502817443582
 30
0.0
 11
171.0966665707916
 21
37.04065981981006
 31
0.0
  0
LINE
  5
5439
330
1F
100
AcDbEntity
  8
0
 62
     7
 48
0.5
370
    -3
100
AcDbLine
 10
173.5098362631881
 20
32.33299476556948
 30
0.0
 11
169.674962071392
 21
34.98426581174977
 31
0.0
  0
ARC
  5
543A
330
1F
100
AcDbEntity
  8
0
 62
     7
 48
0.5
370
    -3
100
AcDbCircle
 10
171.2957052007076
 20
37.32855498093858
 30
0.0
 40
0.35
100
AcDbArc
 50
179.9999999999935
 51
235.3416452944689
  0
ARC
  5
543B
330
1F
100
AcDbEntity
  8
0
 62
     7
 48
0.5
370
    -3
100
AcDbCircle
 10
171.2957052007076
 20
37.32855498093858
 30
0.0
 40
2.85
100
AcDbArc
 50
179.9999999999935
 51
235.3416452944689
  0
LINE
  5
543C
330
1F
100
AcDbEntity
  8
0
 62
     7
 48
0.5
370
    -3
100
AcDbLine
 10
180.4457052007076
 20
39.44502817443578
 30
0.0
 11
180.4457052007076
 21
7.297489906106079
 31
0.0
  0
LINE
  5
543D
330
1F
100
AcDbEntity
  8
0
 62
     7
 48
0.5
370
    -3
100
AcDbLine
 10
177.9457052007078
 20
31.14502817443588
 30
0.0
 11
177.9457052007082
 21
7.152636589885105
 31
0.0
  0
ARC
  5
543E
330
1F
100
AcDbEntity
  8
0
 62
     7
 48
0.5
370
    -3
100
AcDbCircle
 10
177.2457052007078
 20
31.14502817443582
 30
0.0
 40
0.7
100
AcDbArc
 50
0.0
 51
90.0
  0
LINE
  5
5440
330
1F
100
AcDbEntity
  8
0
 62
     7
 48
0.5
370
    -3
100
AcDbLine
 10
170.9457052007077
 20
37.9950281744359
 30
0.0
 11
170.9457052007077
 21
37.32855498093852
 31
0.0
  0
ARC
  5
5441
330
1F
100
AcDbEntity
  8
0
 62
     7
 48
0.5
370
    -3
100
AcDbCircle
 10
171.2957052007078
 20
37.9950281744359
 30
0.0
 40
0.35
100
AcDbArc
 50
90.0
 51
179.9999999999935
  0
LINE
  5
544F
330
1F
100
AcDbEntity
  8
0
 62
     7
 48
0.5
370
    -3
100
AcDbLine
 10
121.9949638224344
 20
43.04502817443568
 30
0.0
 11
178.4507413782654
 21
43.04502817443562
 31
0.0
  0
LINE
  5
5459
330
1F
100
AcDbEntity
  8
0
 62
     7
 48
0.5
370
    -3
100
AcDbLine
 10
176.0007413782652
 20
40.54502817443579
 30
0.0
 11
179.9507413782652
 21
40.54502817443579
 31
0.0
  0
LINE
  5
545A
330
1F
100
AcDbEntity
  8
0
 62
     7
 48
0.5
370
    -3
100
AcDbLine
 10
175.2091128338555
 20
34.7950281744358
 30
0.0
 11
175.4007413782652
 21
34.7950281744358
 31
0.0
  0
ARC
  5
545B
330
1F
100
AcDbEntity
  8
0
 62
     7
 48
0.5
370
    -3
100
AcDbCircle
 10
175.4007413782652
 20
35.14502817443582
 30
0.0
 40
0.35
100
AcDbArc
 50
270.0
 51
0.0
  0
LINE
  5
545C
330
1F
100
AcDbEntity
  8
0
 62
     7
 48
0.5
370
    -3
100
AcDbLine
 10
180.4507413782652
 20
42.04502817443568
 30
0.0
 11
180.4507413782652
 21
41.0450281744358
 31
0.0
  0
ARC
  5
545D
330
1F
100
AcDbEntity
  8
0
 62
     7
 48
0.5
370
    -3
100
AcDbCircle
 10
179.9507413782652
 20
41.0450281744358
 30
0.0
 40
0.5
100
AcDbArc
 50
270.0
 51
0.0
  0
LINE
  5
545E
330
1F
100
AcDbEntity
  8
0
 62
     7
 48
0.5
370
    -3
100
AcDbLine
 10
175.7507413782652
 20
35.14502817443582
 30
0.0
 11
175.7507413782652
 21
40.2950281744358
 31
0.0
  0
ARC
  5
545F
330
1F
100
AcDbEntity
  8
0
 62
     7
 48
0.5
370
    -3
100
AcDbCircle
 10
176.0007413782652
 20
40.2950281744358
 30
0.0
 40
0.25
100
AcDbArc
 50
90.0
 51
180.0
  0
LINE
  5
5460
330
1F
100
AcDbEntity
  8
0
 62
     7
 48
0.5
370
    -3
100
AcDbLine
 10
172.3507413782652
 20
36.86309081525111
 30
0.0
 11
172.3507413782654
 21
37.86967169383603
 31
0.0
  0
ARC
  5
5461
330
1F
100
AcDbEntity
  8
0
 62
     7
 48
0.5
370
    -3
100
AcDbCircle
 10
172.7007413782653
 20
36.86309081525104
 30
0.0
 40
0.35
100
AcDbArc
 50
180.0
 51
235.5915277479718
  0
LINE
  5
5462
330
1F
100
AcDbEntity
  8
0
 62
     7
 48
0.5
370
    -3
100
AcDbLine
 10
173.2457052007079
 20
38.89502817443593
 30
0.0
 11
173.2457052007081
 21
40.49502817443562
 31
0.0
  0
ARC
  5
5463
330
1F
100
AcDbEntity
  8
0
 62
     7
 48
0.5
370
    -3
100
AcDbCircle
 10
172.895705200708
 20
40.49502817443567
 30
0.0
 40
0.35
100
AcDbArc
 50
359.9999999999935
 51
90.0
  0
LINE
  5
5464
330
1F
100
AcDbEntity
  8
0
 62
     7
 48
0.5
370
    -3
100
AcDbLine
 10
178.4507413782652
 20
43.04502817443569
 30
0.0
 11
180.4507413782652
 21
42.04502817443568
 31
0.0
  0
ARC
  5
5466
330
1F
100
AcDbEntity
  8
0
 62
     7
 48
0.5
370
    -3
100
AcDbCircle
 10
172.8507413782654
 20
37.86967169383603
 30
0.0
 40
0.5
100
AcDbArc
 50
108.063590997935
 51
180.0
  0
LINE
  5
5468
330
1F
100
AcDbEntity
  8
0
 62
     7
 48
0.5
370
    -3
100
AcDbLine
 10
175.0113316818597
 20
34.85626769252184
 30
0.0
 11
172.5029602262694
 21
36.57433033333706
 31
0.0
  0
ARC
  5
5469
330
1F
100
AcDbEntity
  8
0
 62
     7
 48
0.5
370
    -3
100
AcDbCircle
 10
175.2091128338555
 20
35.14502817443582
 30
0.0
 40
0.35
100
AcDbArc
 50
235.5915277479718
 51
270.0
  0
ARC
  5
546C
330
1F
100
AcDbEntity
  8
0
 62
     7
 48
0.5
370
    -3
100
AcDbCircle
 10
176.1499871808801
 20
7.295716251844737
 30
0.0
 40
4.295718385988235
100
AcDbArc
 50
269.9428874496717
 51
0.0236567896806542
  0
ARC
  5
546D
330
1F
100
AcDbEntity
  8
0
 62
     7
 48
0.5
370
    -3
100
AcDbCircle
 10
176.2911955686588
 20
7.154504540641141
 30
0.0
 40
1.654510686512373
100
AcDbArc
 50
270.1561689541295
 51
359.9353127675325
  0
LINE
  5
547E
330
1F
100
AcDbEntity
  8
0
 62
     2
 48
0.5
370
    -3
100
AcDbLine
 10
150.2228526003498
 20
0.0
 30
0.0
 11
150.2228526003498
 21
46.04502817443566
 31
0.0
  0
LINE
  5
5485
330
1F
100
AcDbEntity
  8
0
 62
     7
 48
0.5
370
    -3
100
AcDbLine
 10
127.5499999999916
 20
40.8450281744357
 30
0.0
 11
172.9007413782652
 21
40.84502817443564
 31
0.0
  0
LINE
  5
5486
330
1F
100
AcDbEntity
  8
0
 62
     7
 48
0.5
370
    -3
100
AcDbLine
 10
124.300000000012
 20
3.0
 30
0.0
 11
176.145705200705
 21
3.0
 31
0.0
  0
LINE
  5
549C
330
1F
100
AcDbEntity
  8
0
 62
     7
 48
0.5
370
    -3
100
AcDbLine
 10
119.999999999992
 20
39.44502817443578
 30
0.0
 11
119.999999999992
 21
7.297489906106079
 31
0.0
  0
LINE
  5
549D
330
1F
100
AcDbEntity
  8
0
 62
     7
 48
0.5
370
    -3
100
AcDbLine
 10
122.4999999999918
 20
31.14502817443588
 30
0.0
 11
122.4999999999914
 21
7.152636589885105
 31
0.0
  0
ARC
  5
54B3
330
1F
100
AcDbEntity
  8
0
 62
     7
 48
0.5
370
    -3
100
AcDbCircle
 10
124.2957180198195
 20
7.295716251844737
 30
0.0
 40
4.295718385988235
100
AcDbArc
 50
179.9763432103193
 51
270.0571125503282
  0
ARC
  5
54B4
330
1F
100
AcDbEntity
  8
0
 62
     7
 48
0.5
370
    -3
100
AcDbCircle
 10
124.1545096320407
 20
7.154504540641141
 30
0.0
 40
1.654510686512373
100
AcDbArc
 50
180.0646872324673
 51
269.8438310458704
  0
LINE
  5
54B6
330
1F
100
AcDbEntity
  8
0
 62
     7
 48
0.5
370
    -3
100
AcDbLine
 10
164.8457052007078
 20
40.84502817443564
 30
0.0
 11
164.8457052007078
 21
38.54502817443587
 31
0.0
  0
ARC
  5
54B7
330
1F
100
AcDbEntity
  8
0
 62
     7
 48
0.5
370
    -3
100
AcDbCircle
 10
165.0457052007078
 20
38.54502817443587
 30
0.0
 40
0.2
100
AcDbArc
 50
180.0
 51
270.0000000000033
  0
LINE
  5
54B8
330
1F
100
AcDbEntity
  8
0
 62
     7
 48
0.5
370
    -3
100
AcDbLine
 10
122.4999999999918
 20
39.79502817443592
 30
0.0
 11
122.4999999999918
 21
35.04502817443586
 31
0.0
  0
ARC
  5
54B9
330
1F
100
AcDbEntity
  8
0
 62
     7
 48
0.5
370
    -3
100
AcDbCircle
 10
122.1499999999917
 20
39.79502817443592
 30
0.0
 40
0.35
100
AcDbArc
 50
0.0
 51
90.0
  0
LINE
  5
54BA
330
1F
100
AcDbEntity
  8
0
 62
     7
 48
0.5
370
    -3
100
AcDbLine
 10
131.9999999999918
 20
37.99502817443596
 30
0.0
 11
131.9999999999918
 21
37.32855498093824
 31
0.0
  0
LINE
  5
54BB
330
1F
100
AcDbEntity
  8
0
 62
     7
 48
0.5
370
    -3
100
AcDbLine
 10
120.699999999992
 20
40.14502817443577
 30
0.0
 11
122.1499999999917
 21
40.14502817443593
 31
0.0
  0
ARC
  5
54BC
330
1F
100
AcDbEntity
  8
0
 62
     7
 48
0.5
370
    -3
100
AcDbCircle
 10
120.699999999992
 20
39.44502817443578
 30
0.0
 40
0.7
100
AcDbArc
 50
90.0
 51
180.0
  0
LINE
  5
54BD
330
1F
100
AcDbEntity
  8
0
 62
     7
 48
0.5
370
    -3
100
AcDbLine
 10
125.449999999992
 20
34.34502817443582
 30
0.0
 11
123.1999999999919
 21
34.34502817443581
 31
0.0
  0
ARC
  5
54BF
330
1F
100
AcDbEntity
  8
0
 62
     7
 48
0.5
370
    -3
100
AcDbCircle
 10
125.3719939881716
 20
34.59502817443576
 30
0.0
 40
2.75
100
AcDbArc
 50
270.0
 51
304.6583547055311
  0
ARC
  5
54C0
330
1F
100
AcDbEntity
  8
0
 62
     7
 48
0.5
370
    -3
100
AcDbCircle
 10
123.1999999999918
 20
35.0450281744358
 30
0.0
 40
0.7
100
AcDbArc
 50
180.0
 51
270.0
  0
LINE
  5
54C1
330
1F
100
AcDbEntity
  8
0
 62
     7
 48
0.5
370
    -3
100
AcDbLine
 10
125.3719939881716
 20
31.84502817443576
 30
0.0
 11
123.1999999999918
 21
31.84502817443581
 31
0.0
  0
LINE
  5
54C2
330
1F
100
AcDbEntity
  8
0
 62
     7
 48
0.5
370
    -3
100
AcDbLine
 10
135.3999999999918
 20
38.34502817443587
 30
0.0
 11
132.3499999999918
 21
38.34502817443604
 31
0.0
  0
ARC
  5
54C3
330
1F
100
AcDbEntity
  8
0
 62
     7
 48
0.5
370
    -3
100
AcDbCircle
 10
132.3499999999918
 20
37.99502817443596
 30
0.0
 40
0.35
100
AcDbArc
 50
90.0
 51
179.9999999999935
  0
LINE
  5
54C4
330
1F
100
AcDbEntity
  8
0
 62
     7
 48
0.5
370
    -3
100
AcDbLine
 10
129.1499999999917
 20
38.34502817443592
 30
0.0
 11
127.7499999999918
 21
38.34502817443598
 31
0.0
  0
ARC
  5
54C5
330
1F
100
AcDbEntity
  8
0
 62
     7
 48
0.5
370
    -3
100
AcDbCircle
 10
127.7499999999917
 20
38.89502817443599
 30
0.0
 40
0.55
100
AcDbArc
 50
180.0
 51
270.0
  0
LINE
  5
54C6
330
1F
100
AcDbEntity
  8
0
 62
     7
 48
0.5
370
    -3
100
AcDbLine
 10
125.449999999992
 20
34.34502817443582
 30
0.0
 11
129.349038629908
 21
37.04065981981006
 31
0.0
  0
LINE
  5
54C7
330
1F
100
AcDbEntity
  8
0
 62
     7
 48
0.5
370
    -3
100
AcDbLine
 10
126.9358689375114
 20
32.33299476556948
 30
0.0
 11
130.7707431293076
 21
34.98426581174977
 31
0.0
  0
ARC
  5
54C8
330
1F
100
AcDbEntity
  8
0
 62
     7
 48
0.5
370
    -3
100
AcDbCircle
 10
129.149999999992
 20
37.32855498093858
 30
0.0
 40
0.35
100
AcDbArc
 50
304.6583547055311
 51
0.0000000000065138
  0
ARC
  5
54C9
330
1F
100
AcDbEntity
  8
0
 62
     7
 48
0.5
370
    -3
100
AcDbCircle
 10
129.149999999992
 20
37.32855498093858
 30
0.0
 40
2.85
100
AcDbArc
 50
304.6583547055311
 51
0.0000000000065138
  0
ARC
  5
54CA
330
1F
100
AcDbEntity
  8
0
 62
     7
 48
0.5
370
    -3
100
AcDbCircle
 10
123.1999999999918
 20
31.14502817443582
 30
0.0
 40
0.7
100
AcDbArc
 50
90.0
 51
180.0
  0
LINE
  5
54CB
330
1F
100
AcDbEntity
  8
0
 62
     7
 48
0.5
370
    -3
100
AcDbLine
 10
129.4999999999919
 20
37.9950281744359
 30
0.0
 11
129.4999999999919
 21
37.32855498093852
 31
0.0
  0
ARC
  5
54CC
330
1F
100
AcDbEntity
  8
0
 62
     7
 48
0.5
370
    -3
100
AcDbCircle
 10
129.1499999999917
 20
37.9950281744359
 30
0.0
 40
0.35
100
AcDbArc
 50
0.0000000000065138
 51
90.0
  0
LINE
  5
54CD
330
1F
100
AcDbEntity
  8
0
 62
     7
 48
0.5
370
    -3
100
AcDbLine
 10
124.4449638224343
 20
40.54502817443579
 30
0.0
 11
120.4949638224344
 21
40.54502817443579
 31
0.0
  0
LINE
  5
54CE
330
1F
100
AcDbEntity
  8
0
 62
     7
 48
0.5
370
    -3
100
AcDbLine
 10
125.236592366844
 20
34.7950281744358
 30
0.0
 11
125.0449638224343
 21
34.7950281744358
 31
0.0
  0
ARC
  5
54CF
330
1F
100
AcDbEntity
  8
0
 62
     7
 48
0.5
370
    -3
100
AcDbCircle
 10
125.0449638224343
 20
35.14502817443582
 30
0.0
 40
0.35
100
AcDbArc
 50
180.0
 51
270.0
  0
LINE
  5
54D0
330
1F
100
AcDbEntity
  8
0
 62
     7
 48
0.5
370
    -3
100
AcDbLine
 10
119.9949638224344
 20
42.04502817443568
 30
0.0
 11
119.9949638224344
 21
41.0450281744358
 31
0.0
  0
ARC
  5
54D1
330
1F
100
AcDbEntity
  8
0
 62
     7
 48
0.5
370
    -3
100
AcDbCircle
 10
120.4949638224344
 20
41.0450281744358
 30
0.0
 40
0.5
100
AcDbArc
 50
180.0
 51
270.0
  0
LINE
  5
54D2
330
1F
100
AcDbEntity
  8
0
 62
     7
 48
0.5
370
    -3
100
AcDbLine
 10
124.6949638224343
 20
35.14502817443582
 30
0.0
 11
124.6949638224343
 21
40.2950281744358
 31
0.0
  0
ARC
  5
54D3
330
1F
100
AcDbEntity
  8
0
 62
     7
 48
0.5
370
    -3
100
AcDbCircle
 10
124.4449638224343
 20
40.2950281744358
 30
0.0
 40
0.25
100
AcDbArc
 50
0.0
 51
90.0
  0
LINE
  5
54D4
330
1F
100
AcDbEntity
  8
0
 62
     7
 48
0.5
370
    -3
100
AcDbLine
 10
128.0949638224344
 20
36.86309081525111
 30
0.0
 11
128.0949638224342
 21
37.86967169383603
 31
0.0
  0
ARC
  5
54D5
330
1F
100
AcDbEntity
  8
0
 62
     7
 48
0.5
370
    -3
100
AcDbCircle
 10
127.7449638224343
 20
36.86309081525104
 30
0.0
 40
0.35
100
AcDbArc
 50
304.4084722520282
 51
0.0
  0
LINE
  5
54D6
330
1F
100
AcDbEntity
  8
0
 62
     7
 48
0.5
370
    -3
100
AcDbLine
 10
127.1999999999917
 20
38.89502817443593
 30
0.0
 11
127.1999999999915
 21
40.49502817443562
 31
0.0
  0
ARC
  5
54D7
330
1F
100
AcDbEntity
  8
0
 62
     7
 48
0.5
370
    -3
100
AcDbCircle
 10
127.5499999999916
 20
40.49502817443567
 30
0.0
 40
0.35
100
AcDbArc
 50
90.0
 51
180.0000000000064
  0
LINE
  5
54D8
330
1F
100
AcDbEntity
  8
0
 62
     7
 48
0.5
370
    -3
100
AcDbLine
 10
121.9949638224344
 20
43.04502817443569
 30
0.0
 11
119.9949638224344
 21
42.04502817443568
 31
0.0
  0
ARC
  5
54D9
330
1F
100
AcDbEntity
  8
0
 62
     7
 48
0.5
370
    -3
100
AcDbCircle
 10
127.5949638224342
 20
37.86967169383603
 30
0.0
 40
0.5
100
AcDbArc
 50
0.0
 51
71.93640900206502
  0
LINE
  5
54DA
330
1F
100
AcDbEntity
  8
0
 62
     7
 48
0.5
370
    -3
100
AcDbLine
 10
125.4343735188399
 20
34.85626769252184
 30
0.0
 11
127.9427449744301
 21
36.57433033333706
 31
0.0
  0
ARC
  5
54DB
330
1F
100
AcDbEntity
  8
0
 62
     7
 48
0.5
370
    -3
100
AcDbCircle
 10
125.236592366844
 20
35.14502817443582
 30
0.0
 40
0.35
100
AcDbArc
 50
270.0
 51
304.4084722520282
  0
LINE
  5
54DC
330
1F
100
AcDbEntity
  8
0
 62
     7
 48
0.5
370
    -3
100
AcDbLine
 10
135.5999999999918
 20
40.84502817443564
 30
0.0
 11
135.5999999999918
 21
38.54502817443587
 31
0.0
  0
ARC
  5
54DD
330
1F
100
AcDbEntity
  8
0
 62
     7
 48
0.5
370
    -3
100
AcDbCircle
 10
135.3999999999918
 20
38.54502817443587
 30
0.0
 40
0.2
100
AcDbArc
 50
269.9999999999968
 51
0.0
  0
LINE
  5
5553
330
1F
100
AcDbEntity
  8
0
 62
     7
 48
0.5
370
    -3
100
AcDbLine
 10
284.6179819940597
 20
3.0
 30
0.0
 11
216.2457052007163
 21
3.0
 31
0.0
  0
LINE
  5
5557
330
1F
100
AcDbEntity
  8
0
 62
     7
 48
0.5
370
    -3
100
AcDbLine
 10
285.3679819940597
 20
5.799999999999954
 30
0.0
 11
215.4957052007164
 21
5.799999999999954
 31
0.0
  0
LINE
  5
5558
330
1F
100
AcDbEntity
  8
0
 62
     7
 48
0.5
370
    -3
100
AcDbLine
 10
210.4457052007163
 20
58.84999999999994
 30
0.0
 11
210.4457052007163
 21
8.800000000000011
 31
0.0
  0
ARC
  5
5559
330
1F
100
AcDbEntity
  8
0
 62
     7
 48
0.5
370
    -3
100
AcDbCircle
 10
216.2457052007163
 20
8.800000000000011
 30
0.0
 40
5.799999999999999
100
AcDbArc
 50
180.0
 51
270.0
  0
LINE
  5
555D
330
1F
100
AcDbEntity
  8
0
 62
     7
 48
0.5
370
    -3
100
AcDbLine
 10
213.2457052007163
 20
48.94999999999993
 30
0.0
 11
213.2457052007164
 21
8.049999999999954
 31
0.0
  0
ARC
  5
555E
330
1F
100
AcDbEntity
  8
0
 62
     7
 48
0.5
370
    -3
100
AcDbCircle
 10
215.4957052007164
 20
8.049999999999954
 30
0.0
 40
2.25
100
AcDbArc
 50
180.0
 51
270.0
  0
LINE
  5
5576
330
1F
100
AcDbEntity
  8
0
 62
     7
 48
0.5
370
    -3
100
AcDbLine
 10
290.4179819940597
 20
58.84999999999997
 30
0.0
 11
290.4179819940597
 21
8.800000000000011
 31
0.0
  0
ARC
  5
5577
330
1F
100
AcDbEntity
  8
0
 62
     7
 48
0.5
370
    -3
100
AcDbCircle
 10
284.6179819940597
 20
8.800000000000011
 30
0.0
 40
5.799999999999999
100
AcDbArc
 50
270.0
 51
0.0
  0
LINE
  5
5578
330
1F
100
AcDbEntity
  8
0
 62
     7
 48
0.5
370
    -3
100
AcDbLine
 10
287.6179819940597
 20
59.34999999999996
 30
0.0
 11
287.6179819940596
 21
53.65000000000015
 31
0.0
  0
ARC
  5
5579
330
1F
100
AcDbEntity
  8
0
 62
     7
 48
0.5
370
    -3
100
AcDbCircle
 10
288.0679819940596
 20
59.35000000000002
 30
0.0
 40
0.45
100
AcDbArc
 50
90.0
 51
180.0
  0
ARC
  5
557A
330
1F
100
AcDbEntity
  8
0
 62
     7
 48
0.5
370
    -3
100
AcDbCircle
 10
286.6679819940596
 20
53.65000000000009
 30
0.0
 40
0.95
100
AcDbArc
 50
270.0
 51
0.0
  0
LINE
  5
557B
330
1F
100
AcDbEntity
  8
0
 62
     7
 48
0.5
370
    -3
100
AcDbLine
 10
287.6179819940597
 20
48.94999999999993
 30
0.0
 11
287.6179819940597
 21
8.049999999999954
 31
0.0
  0
ARC
  5
557C
330
1F
100
AcDbEntity
  8
0
 62
     7
 48
0.5
370
    -3
100
AcDbCircle
 10
285.3679819940597
 20
8.049999999999954
 30
0.0
 40
2.25
100
AcDbArc
 50
270.0
 51
0.0
  0
LINE
  5
557F
330
1F
100
AcDbEntity
  8
0
 62
     7
 48
0.5
370
    -3
100
AcDbLine
 10
279.0679819940598
 20
56.95000000000004
 30
0.0
 11
279.0679819940597
 21
56.08577882579857
 31
0.0
  0
ARC
  5
5580
330
1F
100
AcDbEntity
  8
0
 62
     7
 48
0.5
370
    -3
100
AcDbCircle
 10
279.5179819940597
 20
56.9500000000001
 30
0.0
 40
0.45
100
AcDbArc
 50
90.0
 51
180.0
  0
ARC
  5
5581
330
1F
100
AcDbEntity
  8
0
 62
     7
 48
0.5
370
    -3
100
AcDbCircle
 10
279.5179819940597
 20
56.08577882579846
 30
0.0
 40
0.45
100
AcDbArc
 50
180.0
 51
235.3048464687616
  0
LINE
  5
5582
330
1F
100
AcDbEntity
  8
0
 62
     7
 48
0.5
370
    -3
100
AcDbLine
 10
276.2679819940597
 20
56.9500000000001
 30
0.0
 11
276.2679819940596
 21
56.0857788257984
 31
0.0
  0
ARC
  5
5583
330
1F
100
AcDbEntity
  8
0
 62
     7
 48
0.5
370
    -3
100
AcDbCircle
 10
279.5179819940597
 20
56.08577882579846
 30
0.0
 40
3.25
100
AcDbArc
 50
180.0
 51
235.3048464687616
  0
LINE
  5
5584
330
1F
100
AcDbEntity
  8
0
 62
     7
 48
0.5
370
    -3
100
AcDbLine
 10
289.4679819940596
 20
59.80000000000001
 30
0.0
 11
288.0679819940596
 21
59.80000000000018
 31
0.0
  0
ARC
  5
5585
330
1F
100
AcDbEntity
  8
0
 62
     7
 48
0.5
370
    -3
100
AcDbCircle
 10
289.4679819940596
 20
58.84999999999997
 30
0.0
 40
0.95
100
AcDbArc
 50
0.0
 51
90.0
  0
LINE
  5
5586
330
1F
100
AcDbEntity
  8
0
 62
     7
 48
0.5
370
    -3
100
AcDbLine
 10
283.6179819940596
 20
52.69999999999999
 30
0.0
 11
286.6679819940597
 21
52.70000000000004
 31
0.0
  0
LINE
  5
5587
330
1F
100
AcDbEntity
  8
0
 62
     7
 48
0.5
370
    -3
100
AcDbLine
 10
283.7585514091014
 20
49.90000000000032
 30
0.0
 11
286.6679819940597
 21
49.90000000000026
 31
0.0
  0
ARC
  5
5588
330
1F
100
AcDbEntity
  8
0
 62
     7
 48
0.5
370
    -3
100
AcDbCircle
 10
286.6679819940596
 20
48.95000000000016
 30
0.0
 40
0.95
100
AcDbArc
 50
0.0
 51
90.0
  0
LINE
  5
558A
330
1F
100
AcDbEntity
  8
0
 62
     7
 48
0.5
370
    -3
100
AcDbLine
 10
274.1179819940596
 20
57.40000000000033
 30
0.0
 11
275.8179819940598
 21
57.40000000000015
 31
0.0
  0
ARC
  5
558B
330
1F
100
AcDbEntity
  8
0
 62
     7
 48
0.5
370
    -3
100
AcDbCircle
 10
275.8179819940596
 20
56.94999999999999
 30
0.0
 40
0.45
100
AcDbArc
 50
0.0
 51
90.0
  0
LINE
  5
558C
330
1F
100
AcDbEntity
  8
0
 62
     7
 48
0.5
370
    -3
100
AcDbLine
 10
279.5179819940597
 20
57.40000000000003
 30
0.0
 11
281.1179819940596
 21
57.4000000000002
 31
0.0
  0
ARC
  5
558D
330
1F
100
AcDbEntity
  8
0
 62
     7
 48
0.5
370
    -3
100
AcDbCircle
 10
281.1179819940596
 20
58.15000000000009
 30
0.0
 40
0.75
100
AcDbArc
 50
270.0
 51
0.0
  0
LINE
  5
558F
330
1F
100
AcDbEntity
  8
0
 62
     7
 48
0.5
370
    -3
100
AcDbLine
 10
283.6179819940596
 20
52.69999999999999
 30
0.0
 11
279.2618375035861
 21
55.71579233955873
 31
0.0
  0
LINE
  5
5591
330
1F
100
AcDbEntity
  8
0
 62
     7
 48
0.5
370
    -3
100
AcDbLine
 10
281.908618977903
 20
50.47787537715795
 30
0.0
 11
277.6680495628611
 21
53.41365420295637
 31
0.0
  0
ARC
  5
5592
330
1F
100
AcDbEntity
  8
0
 62
     7
 48
0.5
370
    -3
100
AcDbCircle
 10
283.7585514091014
 20
53.15000000000026
 30
0.0
 40
3.25
100
AcDbArc
 50
235.3048464687616
 51
270.0
  0
LINE
  5
5593
330
1F
100
AcDbEntity
  8
0
 62
     7
 48
0.5
370
    -3
100
AcDbLine
 10
215.431843597388
 20
62.99999999999989
 30
0.0
 11
285.431843597388
 21
62.99999999999989
 31
0.0
  0
LINE
  5
5594
330
1F
100
AcDbEntity
  8
0
 62
     7
 48
0.5
370
    -3
100
AcDbLine
 10
219.431843597388
 20
60.19999999999993
 30
0.0
 11
281.4179819940597
 21
60.20000000000016
 31
0.0
  0
ARC
  5
55A8
330
1F
100
AcDbEntity
  8
0
 62
     7
 48
0.5
370
    -3
100
AcDbCircle
 10
281.4179819940597
 20
59.74999999999994
 30
0.0
 40
0.45
100
AcDbArc
 50
0.0
 51
90.0
  0
ARC
  5
55AA
330
1F
100
AcDbEntity
  8
0
 62
     7
 48
0.5
370
    -3
100
AcDbCircle
 10
281.3318435973881
 20
56.78618959391229
 30
0.0
 40
0.65
100
AcDbArc
 50
109.2091739094611
 51
180.0
  0
LINE
  5
55AB
330
1F
100
AcDbEntity
  8
0
 62
     7
 48
0.5
370
    -3
100
AcDbLine
 10
284.981843597388
 20
60.20000000000004
 30
0.0
 11
289.7818435973881
 21
60.20000000000004
 31
0.0
  0
LINE
  5
55AC
330
1F
100
AcDbEntity
  8
0
 62
     7
 48
0.5
370
    -3
100
AcDbLine
 10
283.8701084333943
 20
53.20000000000004
 30
0.0
 11
284.231843597388
 21
53.20000000000004
 31
0.0
  0
ARC
  5
55AD
330
1F
100
AcDbEntity
  8
0
 62
     7
 48
0.5
370
    -3
100
AcDbCircle
 10
284.231843597388
 20
53.65000000000009
 30
0.0
 40
0.45
100
AcDbArc
 50
270.0
 51
0.0
  0
LINE
  5
55AE
330
1F
100
AcDbEntity
  8
0
 62
     7
 48
0.5
370
    -3
100
AcDbLine
 10
290.431843597388
 20
61.59999999999991
 30
0.0
 11
290.431843597388
 21
60.85000000000002
 31
0.0
  0
ARC
  5
55AF
330
1F
100
AcDbEntity
  8
0
 62
     7
 48
0.5
370
    -3
100
AcDbCircle
 10
289.7818435973881
 20
60.85000000000002
 30
0.0
 40
0.65
100
AcDbArc
 50
270.0
 51
0.0
  0
LINE
  5
55B0
330
1F
100
AcDbEntity
  8
0
 62
     7
 48
0.5
370
    -3
100
AcDbLine
 10
284.681843597388
 20
53.65000000000009
 30
0.0
 11
284.681843597388
 21
59.90000000000009
 31
0.0
  0
ARC
  5
55B1
330
1F
100
AcDbEntity
  8
0
 62
     7
 48
0.5
370
    -3
100
AcDbCircle
 10
284.981843597388
 20
59.90000000000009
 30
0.0
 40
0.3
100
AcDbArc
 50
90.0
 51
180.0
  0
LINE
  5
55B2
330
1F
100
AcDbEntity
  8
0
 62
     7
 48
0.5
370
    -3
100
AcDbLine
 10
280.681843597388
 20
55.50810828157569
 30
0.0
 11
280.6818435973881
 21
56.78618959391229
 31
0.0
  0
ARC
  5
55B3
330
1F
100
AcDbEntity
  8
0
 62
     7
 48
0.5
370
    -3
100
AcDbCircle
 10
281.131843597388
 20
55.50810828157569
 30
0.0
 40
0.45
100
AcDbArc
 50
180.0
 51
235.840305454333
  0
LINE
  5
55B4
330
1F
100
AcDbEntity
  8
0
 62
     7
 48
0.5
370
    -3
100
AcDbLine
 10
281.8679819940598
 20
58.15000000000009
 30
0.0
 11
281.8679819940598
 21
59.74999999999994
 31
0.0
  0
LINE
  5
55B6
330
1F
100
AcDbEntity
  8
0
 62
     7
 48
0.5
370
    -3
100
AcDbLine
 10
290.431843597388
 20
61.60000000000002
 30
0.0
 11
285.431843597388
 21
63.0
 31
0.0
  0
LINE
  5
55B7
330
1F
100
AcDbEntity
  8
0
 62
     7
 48
0.5
370
    -3
100
AcDbLine
 10
283.6174327951425
 20
53.27763590152381
 30
0.0
 11
280.8791679591362
 21
55.1357441830994
 31
0.0
  0
ARC
  5
55B8
330
1F
100
AcDbEntity
  8
0
 62
     7
 48
0.5
370
    -3
100
AcDbCircle
 10
283.8701084333943
 20
53.65000000000009
 30
0.0
 40
0.45
100
AcDbArc
 50
235.840305454333
 51
270.0
  0
LINE
  5
55C0
330
1F
100
AcDbEntity
  8
0
 62
     7
 48
0.5
370
    -3
100
AcDbLine
 10
273.9179819940597
 20
60.19999999999996
 30
0.0
 11
273.9179819940597
 21
57.60000000000034
 31
0.0
  0
ARC
  5
55C1
330
1F
100
AcDbEntity
  8
0
 62
     7
 48
0.5
370
    -3
100
AcDbCircle
 10
274.1179819940596
 20
57.60000000000034
 30
0.0
 40
0.2
100
AcDbArc
 50
180.0
 51
269.9999999999935
  0
LINE
  5
55C2
330
1F
100
AcDbEntity
  8
0
 62
     7
 48
0.5
370
    -3
100
AcDbLine
 10
213.2457052007163
 20
59.34999999999996
 30
0.0
 11
213.2457052007164
 21
53.65000000000015
 31
0.0
  0
ARC
  5
55C3
330
1F
100
AcDbEntity
  8
0
 62
     7
 48
0.5
370
    -3
100
AcDbCircle
 10
212.7957052007164
 20
59.35000000000002
 30
0.0
 40
0.45
100
AcDbArc
 50
0.0
 51
90.0
  0
ARC
  5
55C4
330
1F
100
AcDbEntity
  8
0
 62
     7
 48
0.5
370
    -3
100
AcDbCircle
 10
214.1957052007165
 20
53.65000000000009
 30
0.0
 40
0.95
100
AcDbArc
 50
180.0
 51
270.0
  0
LINE
  5
55C5
330
1F
100
AcDbEntity
  8
0
 62
     7
 48
0.5
370
    -3
100
AcDbLine
 10
221.7957052007163
 20
56.95000000000004
 30
0.0
 11
221.7957052007164
 21
56.08577882579857
 31
0.0
  0
ARC
  5
55C6
330
1F
100
AcDbEntity
  8
0
 62
     7
 48
0.5
370
    -3
100
AcDbCircle
 10
221.3457052007163
 20
56.9500000000001
 30
0.0
 40
0.45
100
AcDbArc
 50
0.0
 51
90.0
  0
ARC
  5
55C7
330
1F
100
AcDbEntity
  8
0
 62
     7
 48
0.5
370
    -3
100
AcDbCircle
 10
221.3457052007163
 20
56.08577882579846
 30
0.0
 40
0.45
100
AcDbArc
 50
304.6951535312384
 51
0.0
  0
LINE
  5
55C8
330
1F
100
AcDbEntity
  8
0
 62
     7
 48
0.5
370
    -3
100
AcDbLine
 10
224.5957052007163
 20
56.9500000000001
 30
0.0
 11
224.5957052007165
 21
56.0857788257984
 31
0.0
  0
ARC
  5
55C9
330
1F
100
AcDbEntity
  8
0
 62
     7
 48
0.5
370
    -3
100
AcDbCircle
 10
221.3457052007163
 20
56.08577882579846
 30
0.0
 40
3.25
100
AcDbArc
 50
304.6951535312384
 51
0.0
  0
LINE
  5
55CA
330
1F
100
AcDbEntity
  8
0
 62
     7
 48
0.5
370
    -3
100
AcDbLine
 10
211.3957052007164
 20
59.80000000000001
 30
0.0
 11
212.7957052007164
 21
59.80000000000018
 31
0.0
  0
ARC
  5
55CB
330
1F
100
AcDbEntity
  8
0
 62
     7
 48
0.5
370
    -3
100
AcDbCircle
 10
211.3957052007164
 20
58.84999999999997
 30
0.0
 40
0.95
100
AcDbArc
 50
90.0
 51
180.0
  0
LINE
  5
55CC
330
1F
100
AcDbEntity
  8
0
 62
     7
 48
0.5
370
    -3
100
AcDbLine
 10
217.2457052007164
 20
52.69999999999999
 30
0.0
 11
214.1957052007164
 21
52.70000000000004
 31
0.0
  0
LINE
  5
55CD
330
1F
100
AcDbEntity
  8
0
 62
     7
 48
0.5
370
    -3
100
AcDbLine
 10
217.1051357856746
 20
49.90000000000032
 30
0.0
 11
214.1957052007164
 21
49.90000000000026
 31
0.0
  0
ARC
  5
55CE
330
1F
100
AcDbEntity
  8
0
 62
     7
 48
0.5
370
    -3
100
AcDbCircle
 10
214.1957052007165
 20
48.95000000000016
 30
0.0
 40
0.95
100
AcDbArc
 50
90.0
 51
180.0
  0
LINE
  5
55CF
330
1F
100
AcDbEntity
  8
0
 62
     7
 48
0.5
370
    -3
100
AcDbLine
 10
226.7457052007164
 20
57.40000000000033
 30
0.0
 11
225.0457052007163
 21
57.40000000000015
 31
0.0
  0
ARC
  5
55D0
330
1F
100
AcDbEntity
  8
0
 62
     7
 48
0.5
370
    -3
100
AcDbCircle
 10
226.7457052007164
 20
57.60000000000034
 30
0.0
 40
0.2
100
AcDbArc
 50
270.0000000000065
 51
0.0
  0
ARC
  5
55D1
330
1F
100
AcDbEntity
  8
0
 62
     7
 48
0.5
370
    -3
100
AcDbCircle
 10
225.0457052007165
 20
56.94999999999999
 30
0.0
 40
0.45
100
AcDbArc
 50
90.0
 51
180.0
  0
LINE
  5
55D2
330
1F
100
AcDbEntity
  8
0
 62
     7
 48
0.5
370
    -3
100
AcDbLine
 10
221.3457052007163
 20
57.40000000000003
 30
0.0
 11
219.7457052007164
 21
57.4000000000002
 31
0.0
  0
ARC
  5
55D3
330
1F
100
AcDbEntity
  8
0
 62
     7
 48
0.5
370
    -3
100
AcDbCircle
 10
219.7457052007164
 20
58.15000000000009
 30
0.0
 40
0.75
100
AcDbArc
 50
180.0
 51
270.0
  0
LINE
  5
55D4
330
1F
100
AcDbEntity
  8
0
 62
     7
 48
0.5
370
    -3
100
AcDbLine
 10
217.2457052007164
 20
52.69999999999999
 30
0.0
 11
221.60184969119
 21
55.71579233955873
 31
0.0
  0
LINE
  5
55D6
330
1F
100
AcDbEntity
  8
0
 62
     7
 48
0.5
370
    -3
100
AcDbLine
 10
218.9550682168731
 20
50.47787537715795
 30
0.0
 11
223.1956376319149
 21
53.41365420295637
 31
0.0
  0
ARC
  5
55D7
330
1F
100
AcDbEntity
  8
0
 62
     7
 48
0.5
370
    -3
100
AcDbCircle
 10
217.1051357856746
 20
53.15000000000026
 30
0.0
 40
3.25
100
AcDbArc
 50
270.0
 51
304.6951535312384
  0
ARC
  5
55D8
330
1F
100
AcDbEntity
  8
0
 62
     7
 48
0.5
370
    -3
100
AcDbCircle
 10
219.4457052007164
 20
59.74999999999994
 30
0.0
 40
0.45
100
AcDbArc
 50
90.0
 51
180.0
  0
ARC
  5
55D9
330
1F
100
AcDbEntity
  8
0
 62
     7
 48
0.5
370
    -3
100
AcDbCircle
 10
219.5318435973879
 20
56.78618959391229
 30
0.0
 40
0.65
100
AcDbArc
 50
0.0
 51
70.79082609053883
  0
LINE
  5
55DA
330
1F
100
AcDbEntity
  8
0
 62
     7
 48
0.5
370
    -3
100
AcDbLine
 10
215.8818435973881
 20
60.20000000000004
 30
0.0
 11
211.081843597388
 21
60.20000000000004
 31
0.0
  0
LINE
  5
55DB
330
1F
100
AcDbEntity
  8
0
 62
     7
 48
0.5
370
    -3
100
AcDbLine
 10
216.9935787613817
 20
53.20000000000004
 30
0.0
 11
216.6318435973881
 21
53.20000000000004
 31
0.0
  0
ARC
  5
55DC
330
1F
100
AcDbEntity
  8
0
 62
     7
 48
0.5
370
    -3
100
AcDbCircle
 10
216.6318435973881
 20
53.65000000000009
 30
0.0
 40
0.45
100
AcDbArc
 50
180.0
 51
270.0
  0
LINE
  5
55DD
330
1F
100
AcDbEntity
  8
0
 62
     7
 48
0.5
370
    -3
100
AcDbLine
 10
210.431843597388
 20
61.59999999999991
 30
0.0
 11
210.431843597388
 21
60.85000000000002
 31
0.0
  0
ARC
  5
55DE
330
1F
100
AcDbEntity
  8
0
 62
     7
 48
0.5
370
    -3
100
AcDbCircle
 10
211.081843597388
 20
60.85000000000002
 30
0.0
 40
0.65
100
AcDbArc
 50
180.0
 51
270.0
  0
LINE
  5
55DF
330
1F
100
AcDbEntity
  8
0
 62
     7
 48
0.5
370
    -3
100
AcDbLine
 10
216.181843597388
 20
53.65000000000009
 30
0.0
 11
216.181843597388
 21
59.90000000000009
 31
0.0
  0
ARC
  5
55E0
330
1F
100
AcDbEntity
  8
0
 62
     7
 48
0.5
370
    -3
100
AcDbCircle
 10
215.8818435973881
 20
59.90000000000009
 30
0.0
 40
0.3
100
AcDbArc
 50
0.0
 51
90.0
  0
LINE
  5
55E1
330
1F
100
AcDbEntity
  8
0
 62
     7
 48
0.5
370
    -3
100
AcDbLine
 10
220.181843597388
 20
55.50810828157569
 30
0.0
 11
220.181843597388
 21
56.78618959391229
 31
0.0
  0
ARC
  5
55E2
330
1F
100
AcDbEntity
  8
0
 62
     7
 48
0.5
370
    -3
100
AcDbCircle
 10
219.731843597388
 20
55.50810828157569
 30
0.0
 40
0.45
100
AcDbArc
 50
304.159694545667
 51
0.0
  0
LINE
  5
55E3
330
1F
100
AcDbEntity
  8
0
 62
     7
 48
0.5
370
    -3
100
AcDbLine
 10
218.9957052007163
 20
58.15000000000009
 30
0.0
 11
218.9957052007163
 21
59.74999999999994
 31
0.0
  0
LINE
  5
55E4
330
1F
100
AcDbEntity
  8
0
 62
     7
 48
0.5
370
    -3
100
AcDbLine
 10
210.431843597388
 20
61.60000000000002
 30
0.0
 11
215.431843597388
 21
63.0
 31
0.0
  0
LINE
  5
55E5
330
1F
100
AcDbEntity
  8
0
 62
     7
 48
0.5
370
    -3
100
AcDbLine
 10
217.2462543996336
 20
53.27763590152381
 30
0.0
 11
219.9845192356398
 21
55.1357441830994
 31
0.0
  0
ARC
  5
55E6
330
1F
100
AcDbEntity
  8
0
 62
     7
 48
0.5
370
    -3
100
AcDbCircle
 10
216.9935787613817
 20
53.65000000000009
 30
0.0
 40
0.45
100
AcDbArc
 50
270.0
 51
304.159694545667
  0
LINE
  5
55E7
330
1F
100
AcDbEntity
  8
0
 62
     7
 48
0.5
370
    -3
100
AcDbLine
 10
226.9457052007163
 20
60.19999999999996
 30
0.0
 11
226.9457052007163
 21
57.60000000000034
 31
0.0
  0
LINE
  5
55EF
330
1F
100
AcDbEntity
  8
0
 62
     2
 48
0.5
370
    -3
100
AcDbLine
 10
250.431843597388
 20
0.0
 30
0.0
 11
250.431843597388
 21
65.99999999999988
 31
0.0
  0
MTEXT
  5
55FC
330
1F
100
AcDbEntity
  8
0
 62
     1
 48
0.5
370
    -3
100
AcDbMText
 10
250.431843597388
 20
-5.0
 30
0.0
 40
2.5
 41
32.05805302350382
 46
0.0
 71
     2
 72
     5
  1
3号
 73
     1
 44
1.0
1001
ACAD
1000
ACAD_MTEXT_COLUMN_INFO_BEGIN
1070
    75
1070
     2
1070
    79
1070
     0
1070
    76
1070
     1
1070
    78
1070
     0
1070
    48
1040
32.05805302350382
1070
    49
1040
12.5
1070
    50
1070
     1
1040
0.0
1000
ACAD_MTEXT_COLUMN_INFO_END
  0
MTEXT
  5
55FD
330
1F
100
AcDbEntity
  8
0
 62
     1
 48
0.5
370
    -3
100
AcDbMText
 10
250.431843597388
 20
-13.0
 30
0.0
 40
2.5
 41
32.05805302350382
 46
0.0
 71
     2
 72
     5
  1
EFMD3□
 73
     1
 44
1.0
1001
ACAD
1000
ACAD_MTEXT_COLUMN_INFO_BEGIN
1070
    75
1070
     2
1070
    79
1070
     0
1070
    76
1070
     1
1070
    78
1070
     0
1070
    48
1040
32.05805302350382
1070
    49
1040
12.5
1070
    50
1070
     1
1040
0.0
1000
ACAD_MTEXT_COLUMN_INFO_END
  0
LINE
  5
5737
330
1F
100
AcDbEntity
  8
0
 62
     7
 48
0.5
370
    -3
100
AcDbLine
 10
-15.29999999999972
 20
21.39999999999992
 30
0.0
 11
-15.29999999999995
 21
20.55000000000018
 31
0.0
  0
ARC
  5
5739
330
1F
100
AcDbEntity
  8
0
 62
     7
 48
0.5
370
    -3
100
AcDbCircle
 10
-14.95000000000004
 20
20.55000000000018
 30
0.0
 40
0.35
100
AcDbArc
 50
180.0
 51
270.0
  0
ARC
  5
573A
330
1F
100
AcDbEntity
  8
0
 62
     7
 48
0.5
370
    -3
100
AcDbCircle
 10
-11.60000000000116
 20
19.90000000000026
 30
0.0
 40
0.3
100
AcDbArc
 50
89.99999999997395
 51
180.0
  0
ARC
  5
573B
330
1F
100
AcDbEntity
  8
0
 62
     7
 48
0.5
370
    -3
100
AcDbCircle
 10
-17.99999999999988
 20
15.30000000000001
 30
0.0
 40
0.5
100
AcDbArc
 50
90.0
 51
180.0
  0
LINE
  5
573C
330
1F
100
AcDbEntity
  8
0
 62
     7
 48
0.5
370
    -3
100
AcDbLine
 10
-9.399999999999826
 20
20.20000000000017
 30
0.0
 11
-11.60000000000104
 21
20.20000000000027
 31
0.0
  0
ARC
  5
573E
330
1F
100
AcDbEntity
  8
0
 62
     7
 48
0.5
370
    -3
100
AcDbCircle
 10
-13.70000000000107
 20
19.90000000000009
 30
0.0
 40
0.3
100
AcDbArc
 50
0.0
 51
90.0
  0
LINE
  5
573F
330
1F
100
AcDbEntity
  8
0
 62
     7
 48
0.5
370
    -3
100
AcDbLine
 10
-16.50000000000047
 20
17.30000000000001
 30
0.0
 11
-13.52903031230141
 21
19.36051123501738
 31
0.0
  0
LINE
  5
5741
330
1F
100
AcDbEntity
  8
0
 62
     7
 48
0.5
370
    -3
100
AcDbLine
 10
-15.5984516271933
 20
16.0995520996334
 30
0.0
 11
-12.67959638932598
 21
18.10815461691197
 31
0.0
  0
ARC
  5
5742
330
1F
100
AcDbEntity
  8
0
 62
     7
 48
0.5
370
    -3
100
AcDbCircle
 10
-16.56216614838649
 20
17.49999999999994
 30
0.0
 40
1.7
100
AcDbArc
 50
270.0
 51
304.5337017169873
  0
LINE
  5
5744
330
1F
100
AcDbEntity
  8
0
 62
     7
 48
0.5
370
    -3
100
AcDbLine
 10
-13.40000000000111
 20
19.90000000000009
 30
0.0
 11
-13.400000000001
 21
19.60702566844458
 31
0.0
  0
ARC
  5
5745
330
1F
100
AcDbEntity
  8
0
 62
     7
 48
0.5
370
    -3
100
AcDbCircle
 10
-13.70000000000107
 20
19.60702566844458
 30
0.0
 40
0.3
100
AcDbArc
 50
304.7431801583107
 51
0.0
  0
LINE
  5
5746
330
1F
100
AcDbEntity
  8
0
 62
     7
 48
0.5
370
    -3
100
AcDbLine
 10
-11.90000000000111
 20
19.90000000000009
 30
0.0
 11
-11.90000000000111
 21
19.59098180553536
 31
0.0
  0
ARC
  5
5747
330
1F
100
AcDbEntity
  8
0
 62
     7
 48
0.5
370
    -3
100
AcDbCircle
 10
-13.70000000000107
 20
19.59098180553536
 30
0.0
 40
1.8
100
AcDbArc
 50
304.5337017169873
 51
0.0
  0
ARC
  5
5749
330
1F
100
AcDbEntity
  8
0
 62
     7
 48
0.5
370
    -3
100
AcDbCircle
 10
-18.00000000000011
 20
17.80000000000001
 30
0.0
 40
0.5
100
AcDbArc
 50
180.0
 51
270.0
  0
LINE
  5
574B
330
1F
100
AcDbEntity
  8
0
 62
     7
 48
0.5
370
    -3
100
AcDbLine
 10
-18.00000000000011
 20
17.30000000000001
 30
0.0
 11
-16.50000000000047
 21
17.30000000000001
 31
0.0
  0
LINE
  5
574C
330
1F
100
AcDbEntity
  8
0
 62
     7
 48
0.5
370
    -3
100
AcDbLine
 10
-17.99999999999988
 20
15.80000000000001
 30
0.0
 11
-16.56216614838649
 21
15.80000000000001
 31
0.0
  0
LINE
  5
574E
330
1F
100
AcDbEntity
  8
0
 62
     7
 48
0.5
370
    -3
100
AcDbLine
 10
-18.49999999999977
 20
20.85000000000002
 30
0.0
 11
-18.5
 21
17.80000000000001
 31
0.0
  0
ARC
  5
574F
330
1F
100
AcDbEntity
  8
0
 62
     7
 48
0.5
370
    -3
100
AcDbCircle
 10
-18.74999999999954
 20
20.85000000000002
 30
0.0
 40
0.25
100
AcDbArc
 50
0.0
 51
90.0
  0
ARC
  5
5750
330
1F
100
AcDbEntity
  8
0
 62
     7
 48
0.5
370
    -3
100
AcDbCircle
 10
-19.49999999999988
 20
20.59999999999996
 30
0.0
 40
0.5
100
AcDbArc
 50
90.0
 51
180.0
  0
LINE
  5
5751
330
1F
100
AcDbEntity
  8
0
 62
     7
 48
0.5
370
    -3
100
AcDbLine
 10
-19.99999999999988
 20
20.59999999999996
 30
0.0
 11
-20.0
 21
6.0
 31
0.0
  0
ARC
  5
5752
330
1F
100
AcDbEntity
  8
0
 62
     7
 48
0.5
370
    -3
100
AcDbCircle
 10
-17.0
 20
6.0
 30
0.0
 40
3.0
100
AcDbArc
 50
180.0
 51
270.0
  0
LINE
  5
5753
330
1F
100
AcDbEntity
  8
0
 62
     7
 48
0.5
370
    -3
100
AcDbLine
 10
-18.49999999999977
 20
15.30000000000001
 30
0.0
 11
-18.50000000000011
 21
6.000000000000056
 31
0.0
  0
ARC
  5
5754
330
1F
100
AcDbEntity
  8
0
 62
     7
 48
0.5
370
    -3
100
AcDbCircle
 10
-17.00000000000011
 20
6.0
 30
0.0
 40
1.5
100
AcDbArc
 50
179.9999999999967
 51
270.0
  0
LINE
  5
5755
330
1F
100
AcDbEntity
  8
0
 62
     7
 48
0.5
370
    -3
100
AcDbLine
 10
-19.49999999999966
 20
21.09999999999997
 30
0.0
 11
-18.74999999999954
 21
21.10000000000002
 31
0.0
  0
LINE
  5
5756
330
1F
100
AcDbEntity
  8
0
 62
     7
 48
0.5
370
    -3
100
AcDbLine
 10
-17.0
 20
3.0
 30
0.0
 11
17.00000000000045
 21
3.0
 31
0.0
  0
ARC
  5
5760
330
1F
100
AcDbEntity
  8
0
 62
     7
 48
0.5
370
    -3
100
AcDbCircle
 10
18.00000000000034
 20
15.30000000000001
 30
0.0
 40
0.5
100
AcDbArc
 50
0.0
 51
90.0
  0
ARC
  5
576E
330
1F
100
AcDbEntity
  8
0
 62
     7
 48
0.5
370
    -3
100
AcDbCircle
 10
18.00000000000057
 20
17.80000000000001
 30
0.0
 40
0.5
100
AcDbArc
 50
270.0
 51
0.0
  0
LINE
  5
5773
330
1F
100
AcDbEntity
  8
0
 62
     7
 48
0.5
370
    -3
100
AcDbLine
 10
18.50000000000022
 20
20.85000000000002
 30
0.0
 11
18.50000000000045
 21
17.80000000000001
 31
0.0
  0
ARC
  5
5774
330
1F
100
AcDbEntity
  8
0
 62
     7
 48
0.5
370
    -3
100
AcDbCircle
 10
18.75
 20
20.85000000000002
 30
0.0
 40
0.25
100
AcDbArc
 50
90.0
 51
180.0
  0
ARC
  5
5775
330
1F
100
AcDbEntity
  8
0
 62
     7
 48
0.5
370
    -3
100
AcDbCircle
 10
19.50000000000034
 20
20.59999999999996
 30
0.0
 40
0.5
100
AcDbArc
 50
0.0
 51
90.0
  0
LINE
  5
5776
330
1F
100
AcDbEntity
  8
0
 62
     7
 48
0.5
370
    -3
100
AcDbLine
 10
20.00000000000034
 20
20.59999999999996
 30
0.0
 11
20.00000000000046
 21
5.999999999999943
 31
0.0
  0
ARC
  5
5777
330
1F
100
AcDbEntity
  8
0
 62
     7
 48
0.5
370
    -3
100
AcDbCircle
 10
17.00000000000045
 20
5.999999999999943
 30
0.0
 40
3.0
100
AcDbArc
 50
270.0
 51
0.0
  0
LINE
  5
5778
330
1F
100
AcDbEntity
  8
0
 62
     7
 48
0.5
370
    -3
100
AcDbLine
 10
18.50000000000022
 20
15.30000000000001
 30
0.0
 11
18.50000000000057
 21
6.0
 31
0.0
  0
ARC
  5
5779
330
1F
100
AcDbEntity
  8
0
 62
     7
 48
0.5
370
    -3
100
AcDbCircle
 10
17.00000000000057
 20
5.999999999999943
 30
0.0
 40
1.5
100
AcDbArc
 50
270.0
 51
0.0000000000032569
  0
LINE
  5
577A
330
1F
100
AcDbEntity
  8
0
 62
     7
 48
0.5
370
    -3
100
AcDbLine
 10
19.50000000000011
 20
21.09999999999997
 30
0.0
 11
18.75
 21
21.10000000000002
 31
0.0
  0
LINE
  5
577B
330
1F
100
AcDbEntity
  8
0
 62
     7
 48
0.5
370
    -3
100
AcDbLine
 10
17.00000000000034
 20
21.5
 30
0.0
 11
19.50000000000034
 21
21.5
 31
0.0
  0
ARC
  5
577F
330
1F
100
AcDbEntity
  8
0
 62
     7
 48
0.5
370
    -3
100
AcDbCircle
 10
17.00000000000034
 20
21.30000000000001
 30
0.0
 40
0.2
100
AcDbArc
 50
90.0
 51
180.0
  0
ARC
  5
5782
330
1F
100
AcDbEntity
  8
0
 62
     7
 48
0.5
370
    -3
100
AcDbCircle
 10
15.00000000000057
 20
21.39999999999992
 30
0.0
 40
0.3
100
AcDbArc
 50
359.9999999999935
 51
90.0
  0
LINE
  5
5788
330
1F
100
AcDbEntity
  8
0
 62
     7
 48
0.5
370
    -3
100
AcDbLine
 10
-16.99999999999988
 20
21.5
 30
0.0
 11
-19.49999999999988
 21
21.5
 31
0.0
  0
LINE
  5
578A
330
1F
100
AcDbEntity
  8
0
 62
     7
 48
0.5
370
    -3
100
AcDbLine
 10
-16.79999999999984
 20
18.09222815216102
 30
0.0
 11
-16.79999999999984
 21
21.30000000000001
 31
0.0
  0
ARC
  5
578C
330
1F
100
AcDbEntity
  8
0
 62
     7
 48
0.5
370
    -3
100
AcDbCircle
 10
-16.99999999999988
 20
21.30000000000001
 30
0.0
 40
0.2
100
AcDbArc
 50
0.0
 51
90.0
  0
LINE
  5
578D
330
1F
100
AcDbEntity
  8
0
 62
     7
 48
0.5
370
    -3
100
AcDbLine
 10
-14.39999999999975
 20
19.32933387764393
 30
0.0
 11
-14.39999999999975
 21
20.00000000000015
 31
0.0
  0
ARC
  5
578F
330
1F
100
AcDbEntity
  8
0
 62
     7
 48
0.5
370
    -3
100
AcDbCircle
 10
-15.00000000000011
 20
21.39999999999992
 30
0.0
 40
0.3
100
AcDbArc
 50
90.0
 51
180.0000000000064
  0
LINE
  5
5790
330
1F
100
AcDbEntity
  8
0
 62
     7
 48
0.5
370
    -3
100
AcDbLine
 10
-16.33007812892239
 20
17.84499029557441
 30
0.0
 11
-14.53007812892235
 21
19.08209602105734
 31
0.0
  0
ARC
  5
5791
330
1F
100
AcDbEntity
  8
0
 62
     7
 48
0.5
370
    -3
100
AcDbCircle
 10
-14.6999999999997
 20
19.32933387764393
 30
0.0
 40
0.3
100
AcDbArc
 50
304.5000000000031
 51
0.0
  0
LINE
  5
5795
330
1F
100
AcDbEntity
  8
0
 62
     7
 48
0.5
370
    -3
100
AcDbLine
 10
-15.00000000000011
 20
21.69999999999993
 30
0.0
 11
15.00000000000057
 21
21.69999999999993
 31
0.0
  0
LINE
  5
5796
330
1F
100
AcDbEntity
  8
0
 62
     7
 48
0.5
370
    -3
100
AcDbLine
 10
-19.99999999999988
 20
22.24999999999983
 30
0.0
 11
-19.99999999999988
 21
22.0
 31
0.0
  0
ARC
  5
5797
330
1F
100
AcDbEntity
  8
0
 62
     7
 48
0.5
370
    -3
100
AcDbCircle
 10
-19.49999999999988
 20
22.0
 30
0.0
 40
0.5
100
AcDbArc
 50
180.0
 51
270.0
  0
LINE
  5
5798
330
1F
100
AcDbEntity
  8
0
 62
     7
 48
0.5
370
    -3
100
AcDbLine
 10
-18.49999999999988
 20
22.99999999999989
 30
0.0
 11
-19.99999999999988
 21
22.24999999999983
 31
0.0
  0
LINE
  5
5799
330
1F
100
AcDbEntity
  8
0
 62
     7
 48
0.5
370
    -3
100
AcDbLine
 10
20.00000000000034
 20
22.24999999999983
 30
0.0
 11
20.00000000000034
 21
22.0
 31
0.0
  0
ARC
  5
579A
330
1F
100
AcDbEntity
  8
0
 62
     7
 48
0.5
370
    -3
100
AcDbCircle
 10
19.50000000000034
 20
22.0
 30
0.0
 40
0.5
100
AcDbArc
 50
270.0
 51
0.0
  0
LINE
  5
579B
330
1F
100
AcDbEntity
  8
0
 62
     7
 48
0.5
370
    -3
100
AcDbLine
 10
18.50000000000034
 20
22.99999999999989
 30
0.0
 11
20.00000000000034
 21
22.24999999999983
 31
0.0
  0
LINE
  5
579C
330
1F
100
AcDbEntity
  8
0
 62
     7
 48
0.5
370
    -3
100
AcDbLine
 10
-18.49999999999988
 20
22.99999999999989
 30
0.0
 11
18.50000000000034
 21
22.99999999999989
 31
0.0
  0
LINE
  5
57A6
330
1F
100
AcDbEntity
  8
0
 62
     2
 48
0.5
370
    -3
100
AcDbLine
 10
0.0000000000000001
 20
0.0
 30
0.0
 11
0.0000000000000001
 21
25.99999999999989
 31
0.0
  0
LINE
  5
58C0
330
1F
100
AcDbEntity
  8
0
 62
     7
 48
0.5
370
    -3
100
AcDbLine
 10
54.7000000000005
 20
31.39999999999995
 30
0.0
 11
54.70000000000027
 21
30.55000000000023
 31
0.0
  0
ARC
  5
58C2
330
1F
100
AcDbEntity
  8
0
 62
     7
 48
0.5
370
    -3
100
AcDbCircle
 10
55.05000000000018
 20
30.55000000000022
 30
0.0
 40
0.35
100
AcDbArc
 50
180.0000000000003
 51
270.0
  0
ARC
  5
58C3
330
1F
100
AcDbEntity
  8
0
 62
     7
 48
0.5
370
    -3
100
AcDbCircle
 10
58.39999999999907
 20
29.9000000000003
 30
0.0
 40
0.3
100
AcDbArc
 50
89.99999999997395
 51
180.0000000000003
  0
ARC
  5
58C4
330
1F
100
AcDbEntity
  8
0
 62
     7
 48
0.5
370
    -3
100
AcDbCircle
 10
52.00000000000034
 20
25.30000000000002
 30
0.0
 40
0.5
100
AcDbArc
 50
90.0
 51
179.9999999999988
  0
LINE
  5
58C5
330
1F
100
AcDbEntity
  8
0
 62
     7
 48
0.5
370
    -3
100
AcDbLine
 10
60.60000000000041
 20
30.20000000000017
 30
0.0
 11
58.39999999999918
 21
30.20000000000032
 31
0.0
  0
LINE
  5
58C6
330
1F
100
AcDbEntity
  8
0
 62
     7
 48
0.5
370
    -3
100
AcDbLine
 10
56.29999999999904
 20
30.20000000000016
 30
0.0
 11
55.05000000000018
 21
30.20000000000021
 31
0.0
  0
ARC
  5
58C7
330
1F
100
AcDbEntity
  8
0
 62
     7
 48
0.5
370
    -3
100
AcDbCircle
 10
56.29999999999916
 20
29.90000000000015
 30
0.0
 40
0.3
100
AcDbArc
 50
0.0000000000004071
 51
90.0
  0
LINE
  5
58C8
330
1F
100
AcDbEntity
  8
0
 62
     7
 48
0.5
370
    -3
100
AcDbLine
 10
53.49999999999971
 20
27.30000000000002
 30
0.0
 11
56.47096968769881
 21
29.36051123501741
 31
0.0
  0
LINE
  5
58CA
330
1F
100
AcDbEntity
  8
0
 62
     7
 48
0.5
370
    -3
100
AcDbLine
 10
54.40154837280693
 20
26.09955209963341
 30
0.0
 11
57.32040361067425
 21
28.10815461691201
 31
0.0
  0
ARC
  5
58CB
330
1F
100
AcDbEntity
  8
0
 62
     7
 48
0.5
370
    -3
100
AcDbCircle
 10
53.43783385161373
 20
27.50000000000001
 30
0.0
 40
1.7
100
AcDbArc
 50
270.0
 51
304.5337017169873
  0
LINE
  5
58CD
330
1F
100
AcDbEntity
  8
0
 62
     7
 48
0.5
370
    -3
100
AcDbLine
 10
56.59999999999911
 20
29.90000000000014
 30
0.0
 11
56.59999999999922
 21
29.60702566844463
 31
0.0
  0
ARC
  5
58CE
330
1F
100
AcDbEntity
  8
0
 62
     7
 48
0.5
370
    -3
100
AcDbCircle
 10
56.29999999999916
 20
29.60702566844461
 30
0.0
 40
0.3
100
AcDbArc
 50
304.7431801583108
 51
0.0000000000004071
  0
LINE
  5
58CF
330
1F
100
AcDbEntity
  8
0
 62
     7
 48
0.5
370
    -3
100
AcDbLine
 10
58.09999999999911
 20
29.90000000000013
 30
0.0
 11
58.09999999999911
 21
29.59098180553543
 31
0.0
  0
ARC
  5
58D0
330
1F
100
AcDbEntity
  8
0
 62
     7
 48
0.5
370
    -3
100
AcDbCircle
 10
56.29999999999916
 20
29.59098180553541
 30
0.0
 40
1.8
100
AcDbArc
 50
304.5337017169873
 51
0.0000000000004071
  0
ARC
  5
58D2
330
1F
100
AcDbEntity
  8
0
 62
     7
 48
0.5
370
    -3
100
AcDbCircle
 10
52.00000000000011
 20
27.80000000000005
 30
0.0
 40
0.5
100
AcDbArc
 50
180.0000000000003
 51
270.0
  0
LINE
  5
58D4
330
1F
100
AcDbEntity
  8
0
 62
     7
 48
0.5
370
    -3
100
AcDbLine
 10
52.00000000000011
 20
27.30000000000003
 30
0.0
 11
53.49999999999971
 21
27.30000000000002
 31
0.0
  0
LINE
  5
58D5
330
1F
100
AcDbEntity
  8
0
 62
     7
 48
0.5
370
    -3
100
AcDbLine
 10
52.00000000000034
 20
25.80000000000004
 30
0.0
 11
53.43783385161373
 21
25.80000000000002
 31
0.0
  0
LINE
  5
58D7
330
1F
100
AcDbEntity
  8
0
 62
     7
 48
0.5
370
    -3
100
AcDbLine
 10
51.50000000000045
 20
30.85000000000007
 30
0.0
 11
51.50000000000023
 21
27.80000000000003
 31
0.0
  0
ARC
  5
58D8
330
1F
100
AcDbEntity
  8
0
 62
     7
 48
0.5
370
    -3
100
AcDbCircle
 10
51.25000000000068
 20
30.85000000000007
 30
0.0
 40
0.25
100
AcDbArc
 50
0.0000000000004071
 51
90.0
  0
ARC
  5
58D9
330
1F
100
AcDbEntity
  8
0
 62
     7
 48
0.5
370
    -3
100
AcDbCircle
 10
50.50000000000034
 20
30.6
 30
0.0
 40
0.5
100
AcDbArc
 50
90.0
 51
180.0000000000003
  0
LINE
  5
58DA
330
1F
100
AcDbEntity
  8
0
 62
     7
 48
0.5
370
    -3
100
AcDbLine
 10
50.00000000000034
 20
30.60000000000002
 30
0.0
 11
50.00000000000023
 21
5.99999999999996
 31
0.0
  0
LINE
  5
58DB
330
1F
100
AcDbEntity
  8
0
 62
     7
 48
0.5
370
    -3
100
AcDbLine
 10
51.50000000000045
 20
25.30000000000002
 30
0.0
 11
51.49999999999966
 21
6.000000000000009
 31
0.0
  0
ARC
  5
58DC
330
1F
100
AcDbEntity
  8
0
 62
     7
 48
0.5
370
    -3
100
AcDbCircle
 10
52.99999999999966
 20
5.999999999999945
 30
0.0
 40
1.5
100
AcDbArc
 50
179.9999999999975
 51
270.0
  0
LINE
  5
58DD
330
1F
100
AcDbEntity
  8
0
 62
     7
 48
0.5
370
    -3
100
AcDbLine
 10
50.50000000000057
 20
31.10000000000002
 30
0.0
 11
51.25000000000068
 21
31.10000000000006
 31
0.0
  0
LINE
  5
58DE
330
1F
100
AcDbEntity
  8
0
 62
     7
 48
0.5
370
    -3
100
AcDbLine
 10
53.00000000000022
 20
2.999999999999945
 30
0.0
 11
87.00000000000079
 21
2.999999999999945
 31
0.0
  0
ARC
  5
58DF
330
1F
100
AcDbEntity
  8
0
 62
     7
 48
0.5
370
    -3
100
AcDbCircle
 10
53.00000000000022
 20
5.999999999999945
 30
0.0
 40
3.0
100
AcDbArc
 50
179.9999999999998
 51
270.0
  0
ARC
  5
58E3
330
1F
100
AcDbEntity
  8
0
 62
     7
 48
0.5
370
    -3
100
AcDbCircle
 10
87.00000000000079
 20
5.999999999999857
 30
0.0
 40
3.0
100
AcDbArc
 50
270.0
 51
0.0000000000006107
  0
ARC
  5
58E5
330
1F
100
AcDbEntity
  8
0
 62
     7
 48
0.5
370
    -3
100
AcDbCircle
 10
87.00000000000114
 20
5.999999999999857
 30
0.0
 40
1.5
100
AcDbArc
 50
270.0
 51
0.0000000000020356
  0
ARC
  5
58EB
330
1F
100
AcDbEntity
  8
0
 62
     7
 48
0.5
370
    -3
100
AcDbCircle
 10
88.00000000000057
 20
25.30000000000002
 30
0.0
 40
0.5
100
AcDbArc
 50
0.0000000000012213
 51
90.0
  0
ARC
  5
58F9
330
1F
100
AcDbEntity
  8
0
 62
     7
 48
0.5
370
    -3
100
AcDbCircle
 10
88.0000000000008
 20
27.80000000000005
 30
0.0
 40
0.5
100
AcDbArc
 50
270.0
 51
359.9999999999996
  0
LINE
  5
58FE
330
1F
100
AcDbEntity
  8
0
 62
     7
 48
0.5
370
    -3
100
AcDbLine
 10
88.50000000000045
 20
30.85000000000007
 30
0.0
 11
88.50000000000068
 21
27.80000000000003
 31
0.0
  0
ARC
  5
58FF
330
1F
100
AcDbEntity
  8
0
 62
     7
 48
0.5
370
    -3
100
AcDbCircle
 10
88.75000000000023
 20
30.85000000000007
 30
0.0
 40
0.25
100
AcDbArc
 50
90.0
 51
179.9999999999996
  0
ARC
  5
5900
330
1F
100
AcDbEntity
  8
0
 62
     7
 48
0.5
370
    -3
100
AcDbCircle
 10
89.50000000000057
 20
30.6
 30
0.0
 40
0.5
100
AcDbArc
 50
359.9999999999996
 51
90.0
  0
LINE
  5
5901
330
1F
100
AcDbEntity
  8
0
 62
     7
 48
0.5
370
    -3
100
AcDbLine
 10
90.00000000000056
 20
30.60000000000002
 30
0.0
 11
90.00000000000079
 21
5.999999999999888
 31
0.0
  0
LINE
  5
5902
330
1F
100
AcDbEntity
  8
0
 62
     7
 48
0.5
370
    -3
100
AcDbLine
 10
88.50000000000045
 20
25.30000000000002
 30
0.0
 11
88.50000000000113
 21
5.999999999999913
 31
0.0
  0
LINE
  5
5903
330
1F
100
AcDbEntity
  8
0
 62
     7
 48
0.5
370
    -3
100
AcDbLine
 10
89.50000000000034
 20
31.10000000000002
 30
0.0
 11
88.75000000000023
 21
31.10000000000006
 31
0.0
  0
LINE
  5
5904
330
1F
100
AcDbEntity
  8
0
 62
     7
 48
0.5
370
    -3
100
AcDbLine
 10
87.00000000000057
 20
31.50000000000006
 30
0.0
 11
89.50000000000057
 21
31.50000000000006
 31
0.0
  0
ARC
  5
5908
330
1F
100
AcDbEntity
  8
0
 62
     7
 48
0.5
370
    -3
100
AcDbCircle
 10
87.00000000000057
 20
31.30000000000007
 30
0.0
 40
0.2
100
AcDbArc
 50
90.0
 51
180.0
  0
ARC
  5
590B
330
1F
100
AcDbEntity
  8
0
 62
     7
 48
0.5
370
    -3
100
AcDbCircle
 10
85.00000000000079
 20
31.39999999999995
 30
0.0
 40
0.3
100
AcDbArc
 50
359.9999999999935
 51
90.0
  0
LINE
  5
5911
330
1F
100
AcDbEntity
  8
0
 62
     7
 48
0.5
370
    -3
100
AcDbLine
 10
53.00000000000034
 20
31.50000000000006
 30
0.0
 11
50.50000000000034
 21
31.50000000000006
 31
0.0
  0
ARC
  5
5912
330
1F
100
AcDbEntity
  8
0
 62
     7
 48
0.5
370
    -3
100
AcDbCircle
 10
53.51152410268207
 20
28.10000000000008
 30
0.0
 40
0.3
100
AcDbArc
 50
270.0
 51
302.8636487757262
  0
LINE
  5
5913
330
1F
100
AcDbEntity
  8
0
 62
     7
 48
0.5
370
    -3
100
AcDbLine
 10
53.20000000000039
 20
28.10000000000008
 30
0.0
 11
53.20000000000039
 21
31.30000000000007
 31
0.0
  0
ARC
  5
5914
330
1F
100
AcDbEntity
  8
0
 62
     7
 48
0.5
370
    -3
100
AcDbCircle
 10
53.50000000000034
 20
28.10000000000008
 30
0.0
 40
0.3
100
AcDbArc
 50
180.0
 51
270.0
  0
ARC
  5
5915
330
1F
100
AcDbEntity
  8
0
 62
     7
 48
0.5
370
    -3
100
AcDbCircle
 10
53.00000000000034
 20
31.30000000000007
 30
0.0
 40
0.2
100
AcDbArc
 50
0.0
 51
90.0
  0
LINE
  5
5916
330
1F
100
AcDbEntity
  8
0
 62
     7
 48
0.5
370
    -3
100
AcDbLine
 10
55.60000000000048
 20
29.32933387764396
 30
0.0
 11
55.60000000000048
 21
29.8000000000002
 31
0.0
  0
ARC
  5
5918
330
1F
100
AcDbEntity
  8
0
 62
     7
 48
0.5
370
    -3
100
AcDbCircle
 10
55.00000000000011
 20
31.39999999999995
 30
0.0
 40
0.3
100
AcDbArc
 50
90.0
 51
180.0000000000064
  0
LINE
  5
5919
330
1F
100
AcDbEntity
  8
0
 62
     7
 48
0.5
370
    -3
100
AcDbLine
 10
53.6743165961999
 20
27.84801070646913
 30
0.0
 11
55.46992187107787
 21
29.0820960210574
 31
0.0
  0
ARC
  5
591A
330
1F
100
AcDbEntity
  8
0
 62
     7
 48
0.5
370
    -3
100
AcDbCircle
 10
55.30000000000052
 20
29.32933387764396
 30
0.0
 40
0.3
100
AcDbArc
 50
304.5000000000031
 51
0.0
  0
ARC
  5
591B
330
1F
100
AcDbEntity
  8
0
 62
     7
 48
0.5
370
    -3
100
AcDbCircle
 10
55.20000000000038
 20
29.8000000000002
 30
0.0
 40
0.4
100
AcDbArc
 50
0.0
 51
90.0
  0
LINE
  5
591E
330
1F
100
AcDbEntity
  8
0
 62
     7
 48
0.5
370
    -3
100
AcDbLine
 10
55.00000000000011
 20
31.69999999999995
 30
0.0
 11
85.00000000000079
 21
31.69999999999995
 31
0.0
  0
LINE
  5
591F
330
1F
100
AcDbEntity
  8
0
 62
     7
 48
0.5
370
    -3
100
AcDbLine
 10
50.00000000000034
 20
32.24999999999989
 30
0.0
 11
50.00000000000034
 21
32.00000000000006
 31
0.0
  0
ARC
  5
5920
330
1F
100
AcDbEntity
  8
0
 62
     7
 48
0.5
370
    -3
100
AcDbCircle
 10
50.50000000000034
 20
32.00000000000006
 30
0.0
 40
0.5
100
AcDbArc
 50
180.0
 51
270.0
  0
LINE
  5
5921
330
1F
100
AcDbEntity
  8
0
 62
     7
 48
0.5
370
    -3
100
AcDbLine
 10
51.50000000000034
 20
32.99999999999995
 30
0.0
 11
50.00000000000034
 21
32.24999999999989
 31
0.0
  0
LINE
  5
5922
330
1F
100
AcDbEntity
  8
0
 62
     7
 48
0.5
370
    -3
100
AcDbLine
 10
90.00000000000056
 20
32.24999999999989
 30
0.0
 11
90.00000000000056
 21
32.00000000000006
 31
0.0
  0
ARC
  5
5923
330
1F
100
AcDbEntity
  8
0
 62
     7
 48
0.5
370
    -3
100
AcDbCircle
 10
89.50000000000057
 20
32.00000000000006
 30
0.0
 40
0.5
100
AcDbArc
 50
270.0
 51
0.0
  0
LINE
  5
5924
330
1F
100
AcDbEntity
  8
0
 62
     7
 48
0.5
370
    -3
100
AcDbLine
 10
88.50000000000056
 20
32.99999999999995
 30
0.0
 11
90.00000000000056
 21
32.24999999999989
 31
0.0
  0
LINE
  5
5925
330
1F
100
AcDbEntity
  8
0
 62
     7
 48
0.5
370
    -3
100
AcDbLine
 10
51.50000000000034
 20
32.99999999999995
 30
0.0
 11
88.50000000000056
 21
32.99999999999995
 31
0.0
  0
LINE
  5
5929
330
1F
100
AcDbEntity
  8
0
 62
     2
 48
0.5
370
    -3
100
AcDbLine
 10
70.00000000000046
 20
35.99999999999995
 30
0.0
 11
70.00000000000046
 21
-0.0000000000000542
 31
0.0
  0
LINE
  5
5931
330
1F
100
AcDbEntity
  8
0
 62
     7
 48
0.5
370
    -3
100
AcDbLine
 10
-9.199999999999818
 20
20.40000000000017
 30
0.0
 11
-9.199999999999818
 21
21.69999999999993
 31
0.0
  0
LINE
  5
5932
330
1F
100
AcDbEntity
  8
0
 62
     7
 48
0.5
370
    -3
100
AcDbLine
 10
52.99999999999966
 20
4.499999999999945
 30
0.0
 11
87.00000000000114
 21
4.499999999999857
 31
0.0
  0
LINE
  5
5933
330
1F
100
AcDbEntity
  8
0
 62
     7
 48
0.5
370
    -3
100
AcDbLine
 10
-17.00000000000011
 20
4.5
 30
0.0
 11
17.00000000000057
 21
4.499999999999943
 31
0.0
  0
LINE
  5
5937
330
1F
100
AcDbEntity
  8
0
 62
     7
 48
0.5
370
    -3
100
AcDbLine
 10
60.80000000000042
 20
30.40000000000017
 30
0.0
 11
60.80000000000042
 21
31.69999999999995
 31
0.0
  0
LINE
  5
593A
330
1F
100
AcDbEntity
  8
0
 62
     7
 48
0.5
370
    -3
100
AcDbLine
 10
-19.99999999999932
 20
33.00000000000011
 30
0.0
 11
-19.9999999999992
 21
2033.0
 31
0.0
  0
LINE
  5
593B
330
1F
100
AcDbEntity
  8
0
 62
     7
 48
0.5
370
    -3
100
AcDbLine
 10
-19.9999999999992
 20
2033.0
 30
0.0
 11
20.00000000000079
 21
2033.0
 31
0.0
  0
LINE
  5
593C
330
1F
100
AcDbEntity
  8
0
 62
     7
 48
0.5
370
    -3
100
AcDbLine
 10
20.00000000000079
 20
2033.0
 30
0.0
 11
20.00000000000043
 21
32.99999999999989
 31
0.0
  0
LINE
  5
593D
330
1F
100
AcDbEntity
  8
0
 62
     7
 48
0.5
370
    -3
100
AcDbLine
 10
-18.49999999999934
 20
33.00000000000011
 30
0.0
 11
-18.49999999999923
 21
2033.0
 31
0.0
  0
LINE
  5
593E
330
1F
100
AcDbEntity
  8
0
 62
     7
 48
0.5
370
    -3
100
AcDbLine
 10
18.50000000000093
 20
33.00000000000011
 30
0.0
 11
18.50000000000082
 21
2033.0
 31
0.0
  0
LINE
  5
593F
330
1F
100
AcDbEntity
  8
0
 62
     2
 48
0.5
370
    -3
100
AcDbLine
 10
0.0000000000001139
 20
2036.0
 30
0.0
 11
0.0000000000000002
 21
29.99999999999989
 31
0.0
  0
LINE
  5
5940
330
1F
100
AcDbEntity
  8
0
 62
     7
 48
0.5
370
    -3
100
AcDbLine
 10
-19.99999999999932
 20
33.00000000000011
 30
0.0
 11
20.00000000000043
 21
32.99999999999989
 31
0.0
  0
LINE
  5
5942
330
1F
100
AcDbEntity
  8
0
 62
     7
 48
0.5
370
    -3
100
AcDbLine
 10
50.00000000000113
 20
43.00000000000017
 30
0.0
 11
50.00000000000125
 21
2043.0
 31
0.0
  0
LINE
  5
5943
330
1F
100
AcDbEntity
  8
0
 62
     7
 48
0.5
370
    -3
100
AcDbLine
 10
50.00000000000125
 20
2043.0
 30
0.0
 11
90.00000000000126
 21
2043.0
 31
0.0
  0
LINE
  5
5944
330
1F
100
AcDbEntity
  8
0
 62
     7
 48
0.5
370
    -3
100
AcDbLine
 10
90.00000000000126
 20
2043.0
 30
0.0
 11
90.00000000000088
 21
42.99999999999995
 31
0.0
  0
LINE
  5
5945
330
1F
100
AcDbEntity
  8
0
 62
     7
 48
0.5
370
    -3
100
AcDbLine
 10
51.50000000000111
 20
43.00000000000017
 30
0.0
 11
51.50000000000122
 21
2043.0
 31
0.0
  0
LINE
  5
5946
330
1F
100
AcDbEntity
  8
0
 62
     7
 48
0.5
370
    -3
100
AcDbLine
 10
88.50000000000139
 20
43.00000000000017
 30
0.0
 11
88.50000000000127
 21
2043.0
 31
0.0
  0
LINE
  5
5947
330
1F
100
AcDbEntity
  8
0
 62
     2
 48
0.5
370
    -3
100
AcDbLine
 10
70.00000000000067
 20
2044.5
 30
0.0
 11
70.00000000000055
 21
40.0
 31
0.0
  0
LINE
  5
5948
330
1F
100
AcDbEntity
  8
0
 62
     7
 48
0.5
370
    -3
100
AcDbLine
 10
50.00000000000113
 20
43.00000000000017
 30
0.0
 11
90.00000000000088
 21
42.99999999999995
 31
0.0
  0
MTEXT
  5
5949
330
1F
100
AcDbEntity
  8
0
 62
     1
 48
0.5
370
    -3
100
AcDbMText
 10
70.00000000000046
 20
-5.000000000000055
 30
0.0
 40
2.5
 41
32.05805302350382
 46
0.0
 71
     2
 72
     5
  1
1号
 73
     1
 44
1.0
1001
ACAD
1000
ACAD_MTEXT_COLUMN_INFO_BEGIN
1070
    75
1070
     2
1070
    79
1070
     0
1070
    76
1070
     1
1070
    78
1070
     0
1070
    48
1040
32.05805302350382
1070
    49
1040
12.5
1070
    50
1070
     1
1040
0.0
1000
ACAD_MTEXT_COLUMN_INFO_END
  0
MTEXT
  5
594A
330
1F
100
AcDbEntity
  8
0
 62
     1
 48
0.5
370
    -3
100
AcDbMText
 10
70.00000000000046
 20
-13.00000000000005
 30
0.0
 40
2.5
 41
32.05805302350382
 46
0.0
 71
     2
 72
     5
  1
EFMD1□
 73
     1
 44
1.0
1001
ACAD
1000
ACAD_MTEXT_COLUMN_INFO_BEGIN
1070
    75
1070
     2
1070
    79
1070
     0
1070
    76
1070
     1
1070
    78
1070
     0
1070
    48
1040
32.05805302350382
1070
    49
1040
12.5
1070
    50
1070
     1
1040
0.0
1000
ACAD_MTEXT_COLUMN_INFO_END
  0
MTEXT
  5
594B
330
1F
100
AcDbEntity
  8
0
 62
     1
 48
0.5
370
    -3
100
AcDbMText
 10
0.0
 20
-5.0
 30
0.0
 40
2.5
 41
32.05805302350382
 46
0.0
 71
     2
 72
     5
  1
0号
 73
     1
 44
1.0
1001
ACAD
1000
ACAD_MTEXT_COLUMN_INFO_BEGIN
1070
    75
1070
     2
1070
    79
1070
     0
1070
    76
1070
     1
1070
    78
1070
     0
1070
    48
1040
32.05805302350382
1070
    49
1040
12.5
1070
    50
1070
     1
1040
0.0
1000
ACAD_MTEXT_COLUMN_INFO_END
  0
MTEXT
  5
594C
330
1F
100
AcDbEntity
  8
0
 62
     1
 48
0.5
370
    -3
100
AcDbMText
 10
0.0
 20
-13.0
 30
0.0
 40
2.5
 41
32.05805302350382
 46
0.0
 71
     2
 72
     5
  1
EFMD0□
 73
     1
 44
1.0
1001
ACAD
1000
ACAD_MTEXT_COLUMN_INFO_BEGIN
1070
    75
1070
     2
1070
    79
1070
     0
1070
    76
1070
     1
1070
    78
1070
     0
1070
    48
1040
32.05805302350382
1070
    49
1040
12.5
1070
    50
1070
     1
1040
0.0
1000
ACAD_MTEXT_COLUMN_INFO_END
  0
LINE
  5
5B1A
330
1F
100
AcDbEntity
  8
0
 62
     7
 48
0.5
370
    -3
100
AcDbLine
 10
480.4973179588626
 20
83.0
 30
0.0
 11
570.4973179588628
 21
83.0
 31
0.0
  0
LINE
  5
5B1B
330
1F
100
AcDbEntity
  8
0
 62
     7
 48
0.5
370
    -3
100
AcDbLine
 10
485.1473179588624
 20
80.0
 30
0.0
 11
565.8473179588627
 21
80.0
 31
0.0
  0
ARC
  5
5B1C
330
1F
100
AcDbEntity
  8
0
 62
     7
 48
0.5
370
    -3
100
AcDbCircle
 10
565.8473179588627
 20
79.5
 30
0.0
 40
0.5
100
AcDbArc
 50
0.0
 51
90.0
  0
ARC
  5
5B1D
330
1F
100
AcDbEntity
  8
0
 62
     7
 48
0.5
370
    -3
100
AcDbCircle
 10
569.6473179588624
 20
79.70000000000027
 30
0.0
 40
0.3
100
AcDbArc
 50
90.0
 51
180.0
  0
ARC
  5
5B20
330
1F
100
AcDbEntity
  8
0
 62
     7
 48
0.5
370
    -3
100
AcDbCircle
 10
568.8473179588836
 20
73.00000000000046
 30
0.0
 40
0.5
100
AcDbArc
 50
270.0
 51
0.0
  0
LINE
  5
5B21
330
1F
100
AcDbEntity
  8
0
 62
     7
 48
0.5
370
    -3
100
AcDbLine
 10
575.4973179588837
 20
80.69999999997889
 30
0.0
 11
575.4973179589082
 21
81.5
 31
0.0
  0
ARC
  5
5B22
330
1F
100
AcDbEntity
  8
0
 62
     7
 48
0.5
370
    -3
100
AcDbCircle
 10
574.7973179588838
 20
80.70000000000026
 30
0.0
 40
0.7
100
AcDbArc
 50
270.0
 51
359.9999999982543
  0
LINE
  5
5B23
330
1F
100
AcDbEntity
  8
0
 62
     7
 48
0.5
370
    -3
100
AcDbLine
 10
569.6473179588624
 20
80.0
 30
0.0
 11
574.7973179588838
 21
80.0
 31
0.0
  0
LINE
  5
5B24
330
1F
100
AcDbEntity
  8
0
 62
     7
 48
0.5
370
    -3
100
AcDbLine
 10
575.4973179589082
 20
81.5
 30
0.0
 11
570.4973179588626
 21
83.0
 31
0.0
  0
LINE
  5
5B25
330
1F
100
AcDbEntity
  8
0
 62
     7
 48
0.5
370
    -3
100
AcDbLine
 10
569.3473179588838
 20
73.00000000000046
 30
0.0
 11
569.3473179588838
 21
79.70000000000027
 31
0.0
  0
ARC
  5
5B28
330
1F
100
AcDbEntity
  8
0
 62
     7
 48
0.5
370
    -3
100
AcDbCircle
 10
485.1473179588619
 20
79.5
 30
0.0
 40
0.5
100
AcDbArc
 50
90.0
 51
180.0
  0
ARC
  5
5B29
330
1F
100
AcDbEntity
  8
0
 62
     7
 48
0.5
370
    -3
100
AcDbCircle
 10
481.3473179588623
 20
79.70000000000027
 30
0.0
 40
0.3
100
AcDbArc
 50
0.0
 51
90.0
  0
LINE
  5
5B2A
330
1F
100
AcDbEntity
  8
0
 62
     7
 48
0.5
370
    -3
100
AcDbLine
 10
482.147317958841
 20
72.50000000000046
 30
0.0
 11
482.4917646625628
 21
72.50000000000046
 31
0.0
  0
ARC
  5
5B2B
330
1F
100
AcDbEntity
  8
0
 62
     7
 48
0.5
370
    -3
100
AcDbCircle
 10
482.4917646625628
 20
73.00000000000046
 30
0.0
 40
0.5
100
AcDbArc
 50
270.0
 51
304.562524648875
  0
ARC
  5
5B2C
330
1F
100
AcDbEntity
  8
0
 62
     7
 48
0.5
370
    -3
100
AcDbCircle
 10
482.147317958841
 20
73.00000000000046
 30
0.0
 40
0.5
100
AcDbArc
 50
180.0
 51
270.0
  0
LINE
  5
5B2D
330
1F
100
AcDbEntity
  8
0
 62
     7
 48
0.5
370
    -3
100
AcDbLine
 10
475.497317958841
 20
80.69999999997889
 30
0.0
 11
475.4973179588164
 21
81.5
 31
0.0
  0
ARC
  5
5B2E
330
1F
100
AcDbEntity
  8
0
 62
     7
 48
0.5
370
    -3
100
AcDbCircle
 10
476.1973179588408
 20
80.70000000000026
 30
0.0
 40
0.7
100
AcDbArc
 50
180.0000000017325
 51
270.0
  0
LINE
  5
5B2F
330
1F
100
AcDbEntity
  8
0
 62
     7
 48
0.5
370
    -3
100
AcDbLine
 10
481.3473179588623
 20
80.0
 30
0.0
 11
476.1973179588408
 21
80.0
 31
0.0
  0
LINE
  5
5B30
330
1F
100
AcDbEntity
  8
0
 62
     7
 48
0.5
370
    -3
100
AcDbLine
 10
475.4973179588164
 20
81.5
 30
0.0
 11
480.4973179588621
 21
83.0
 31
0.0
  0
LINE
  5
5B31
330
1F
100
AcDbEntity
  8
0
 62
     7
 48
0.5
370
    -3
100
AcDbLine
 10
481.6473179588408
 20
73.00000000000046
 30
0.0
 11
481.6473179588408
 21
79.70000000000027
 31
0.0
  0
LINE
  5
5B32
330
1F
100
AcDbEntity
  8
0
 62
     7
 48
0.5
370
    -3
100
AcDbLine
 10
484.6473179588413
 20
77.49999999999994
 30
0.0
 11
484.6473179588411
 21
79.5
 31
0.0
  0
LINE
  5
5B33
330
1F
100
AcDbEntity
  8
0
 62
     7
 48
0.5
370
    -3
100
AcDbLine
 10
481.492259184393
 20
2.999999999999886
 30
0.0
 11
569.5023767333323
 21
3.000000000000113
 31
0.0
  0
LINE
  5
5B34
330
1F
100
AcDbEntity
  8
0
 62
     7
 48
0.5
370
    -3
100
AcDbLine
 10
475.4922591843924
 20
78.59999999999991
 30
0.0
 11
475.4922591843926
 21
8.999999999999886
 31
0.0
  0
ARC
  5
5B35
330
1F
100
AcDbEntity
  8
0
 62
     7
 48
0.5
370
    -3
100
AcDbCircle
 10
481.492259184393
 20
8.999999999999886
 30
0.0
 40
6.0
100
AcDbArc
 50
180.0
 51
270.0
  0
ARC
  5
5B36
330
1F
100
AcDbEntity
  8
0
 62
     7
 48
0.5
370
    -3
100
AcDbCircle
 10
476.4922591843926
 20
78.60000000000013
 30
0.0
 40
0.9999999999999998
100
AcDbArc
 50
89.99999999999349
 51
180.0
  0
LINE
  5
5B37
330
1F
100
AcDbEntity
  8
0
 62
     7
 48
0.5
370
    -3
100
AcDbLine
 10
478.4922591843925
 20
8.999999999999886
 30
0.0
 11
478.4922591843926
 21
68.00000000000022
 31
0.0
  0
ARC
  5
5B38
330
1F
100
AcDbEntity
  8
0
 62
     7
 48
0.5
370
    -3
100
AcDbCircle
 10
481.4922591843927
 20
8.999999999999886
 30
0.0
 40
3.0
100
AcDbArc
 50
180.0
 51
270.0
  0
ARC
  5
5B39
330
1F
100
AcDbEntity
  8
0
 62
     7
 48
0.5
370
    -3
100
AcDbCircle
 10
479.4922591843926
 20
68.00000000000022
 30
0.0
 40
0.9999999999999998
100
AcDbArc
 50
90.0
 51
180.0
  0
LINE
  5
5B3A
330
1F
100
AcDbEntity
  8
0
 62
     2
 48
0.5
370
    -3
100
AcDbLine
 10
525.4973179588623
 20
85.99875764683588
 30
0.0
 11
525.4973179588623
 21
-0.0050587744699442
 31
0.0
  0
LINE
  5
5B44
330
1F
100
AcDbEntity
  8
0
 62
     7
 48
0.5
370
    -3
100
AcDbLine
 10
478.4922591843926
 20
73.0
 30
0.0
 11
478.4922591843923
 21
79.09999999999991
 31
0.0
  0
ARC
  5
5B45
330
1F
100
AcDbEntity
  8
0
 62
     7
 48
0.5
370
    -3
100
AcDbCircle
 10
479.4922591843926
 20
73.0
 30
0.0
 40
0.9999999999999998
100
AcDbArc
 50
180.0
 51
269.9999999999935
  0
ARC
  5
5B46
330
1F
100
AcDbEntity
  8
0
 62
     7
 48
0.5
370
    -3
100
AcDbCircle
 10
477.9922591843924
 20
79.09999999999991
 30
0.0
 40
0.5
100
AcDbArc
 50
0.0
 51
89.99999999999349
  0
LINE
  5
5B49
330
1F
100
AcDbEntity
  8
0
 62
     7
 48
0.5
370
    -3
100
AcDbLine
 10
491.1422591843908
 20
77.0
 30
0.0
 11
496.4422591843924
 21
77.0
 31
0.0
  0
LINE
  5
5B4A
330
1F
100
AcDbEntity
  8
0
 62
     7
 48
0.5
370
    -3
100
AcDbLine
 10
485.2473179588405
 20
76.99999999999997
 30
0.0
 11
487.1422591843908
 21
77.00000000000023
 31
0.0
  0
LINE
  5
5B4C
330
1F
100
AcDbEntity
  8
0
 62
     7
 48
0.5
370
    -3
100
AcDbLine
 10
477.9922591843922
 20
79.59999999999991
 30
0.0
 11
476.4922591843926
 21
79.59999999999991
 31
0.0
  0
LINE
  5
5B4E
330
1F
100
AcDbEntity
  8
0
 62
     7
 48
0.5
370
    -3
100
AcDbLine
 10
487.6422591843899
 20
75.60979682962261
 30
0.0
 11
487.6422591843909
 21
76.49999999999977
 31
0.0
  0
LINE
  5
5B4F
330
1F
100
AcDbEntity
  8
0
 62
     7
 48
0.5
370
    -3
100
AcDbLine
 10
490.64225918439
 20
75.60979682961897
 30
0.0
 11
490.6422591843909
 21
76.50000000000045
 31
0.0
  0
ARC
  5
5B50
330
1F
100
AcDbEntity
  8
0
 62
     7
 48
0.5
370
    -3
100
AcDbCircle
 10
491.1422591843908
 20
76.49999999999977
 30
0.0
 40
0.5
100
AcDbArc
 50
89.99999999999349
 51
179.9999999999479
  0
ARC
  5
5B51
330
1F
100
AcDbEntity
  8
0
 62
     7
 48
0.5
370
    -3
100
AcDbCircle
 10
487.1422591843908
 20
76.5
 30
0.0
 40
0.5
100
AcDbArc
 50
359.9999999999479
 51
89.99999999999349
  0
LINE
  5
5B55
330
1F
100
AcDbEntity
  8
0
 62
     7
 48
0.5
370
    -3
100
AcDbLine
 10
487.4262713065633
 20
75.19829091902306
 30
0.0
 11
482.7922591843864
 21
72.00000000000047
 31
0.0
  0
LINE
  5
5B56
330
1F
100
AcDbEntity
  8
0
 62
     7
 48
0.5
370
    -3
100
AcDbLine
 10
489.1303440396025
 20
72.7292554554233
 30
0.0
 11
484.6245512362445
 21
69.61945862580114
 31
0.0
  0
ARC
  5
5B57
330
1F
100
AcDbEntity
  8
0
 62
     7
 48
0.5
370
    -3
100
AcDbCircle
 10
487.14225918439
 20
75.60979682962261
 30
0.0
 40
3.499999999999999
100
AcDbArc
 50
304.6125649048267
 51
359.9999999999479
  0
ARC
  5
5B58
330
1F
100
AcDbEntity
  8
0
 62
     7
 48
0.5
370
    -3
100
AcDbCircle
 10
487.14225918439
 20
75.60979682962306
 30
0.0
 40
0.5
100
AcDbArc
 50
304.6125649048336
 51
359.9999999999479
  0
LINE
  5
5B59
330
1F
100
AcDbEntity
  8
0
 62
     7
 48
0.5
370
    -3
100
AcDbLine
 10
479.4922591843924
 20
72.00000000000023
 30
0.0
 11
482.7922591843864
 21
72.00000000000047
 31
0.0
  0
LINE
  5
5B5A
330
1F
100
AcDbEntity
  8
0
 62
     7
 48
0.5
370
    -3
100
AcDbLine
 10
479.4922591843926
 20
69.0
 30
0.0
 11
482.6364663810323
 21
69.00000000000045
 31
0.0
  0
ARC
  5
5B5B
330
1F
100
AcDbEntity
  8
0
 62
     7
 48
0.5
370
    -3
100
AcDbCircle
 10
482.636466381032
 20
72.50000000000046
 30
0.0
 40
3.499999999999999
100
AcDbArc
 50
269.9999999999935
 51
304.6125649048267
  0
LINE
  5
5B5D
330
1F
100
AcDbEntity
  8
0
 62
     7
 48
0.5
370
    -3
100
AcDbLine
 10
575.5023767333323
 20
78.59999999999991
 30
0.0
 11
575.502376733332
 21
8.999999999999886
 31
0.0
  0
ARC
  5
5B5E
330
1F
100
AcDbEntity
  8
0
 62
     7
 48
0.5
370
    -3
100
AcDbCircle
 10
569.5023767333323
 20
8.999999999999886
 30
0.0
 40
6.0
100
AcDbArc
 50
270.0
 51
0.0
  0
ARC
  5
5B5F
330
1F
100
AcDbEntity
  8
0
 62
     7
 48
0.5
370
    -3
100
AcDbCircle
 10
574.5023767333321
 20
78.60000000000013
 30
0.0
 40
0.9999999999999998
100
AcDbArc
 50
0.0
 51
90.00000000000651
  0
LINE
  5
5B60
330
1F
100
AcDbEntity
  8
0
 62
     7
 48
0.5
370
    -3
100
AcDbLine
 10
572.5023767333323
 20
8.999999999999886
 30
0.0
 11
572.502376733332
 21
68.00000000000022
 31
0.0
  0
ARC
  5
5B61
330
1F
100
AcDbEntity
  8
0
 62
     7
 48
0.5
370
    -3
100
AcDbCircle
 10
569.5023767333325
 20
8.999999999999886
 30
0.0
 40
3.0
100
AcDbArc
 50
270.0
 51
0.0
  0
ARC
  5
5B62
330
1F
100
AcDbEntity
  8
0
 62
     7
 48
0.5
370
    -3
100
AcDbCircle
 10
571.502376733332
 20
68.00000000000022
 30
0.0
 40
0.9999999999999998
100
AcDbArc
 50
0.0
 51
89.99999999998046
  0
LINE
  5
5B63
330
1F
100
AcDbEntity
  8
0
 62
     7
 48
0.5
370
    -3
100
AcDbLine
 10
572.5023767333323
 20
73.0
 30
0.0
 11
572.5023767333325
 21
79.09999999999991
 31
0.0
  0
ARC
  5
5B64
330
1F
100
AcDbEntity
  8
0
 62
     7
 48
0.5
370
    -3
100
AcDbCircle
 10
571.502376733332
 20
73.0
 30
0.0
 40
0.9999999999999998
100
AcDbArc
 50
270.0000000000065
 51
0.0
  0
ARC
  5
5B65
330
1F
100
AcDbEntity
  8
0
 62
     7
 48
0.5
370
    -3
100
AcDbCircle
 10
573.0023767333325
 20
79.09999999999991
 30
0.0
 40
0.4999999999999999
100
AcDbArc
 50
90.00000000000651
 51
180.0
  0
LINE
  5
5B6A
330
1F
100
AcDbEntity
  8
0
 62
     7
 48
0.5
370
    -3
100
AcDbLine
 10
573.0023767333325
 20
79.59999999999991
 30
0.0
 11
574.5023767333321
 21
79.59999999999991
 31
0.0
  0
LINE
  5
5B77
330
1F
100
AcDbEntity
  8
0
 62
     7
 48
0.5
370
    -3
100
AcDbLine
 10
571.5023767333323
 20
72.00000000000023
 30
0.0
 11
568.2023767333382
 21
72.00000000000047
 31
0.0
  0
LINE
  5
5B78
330
1F
100
AcDbEntity
  8
0
 62
     7
 48
0.5
370
    -3
100
AcDbLine
 10
571.502376733332
 20
69.00000000000023
 30
0.0
 11
568.3581695366924
 21
69.00000000000045
 31
0.0
  0
LINE
  5
5B80
330
1F
100
AcDbEntity
  8
0
 62
     7
 48
0.5
370
    -3
100
AcDbLine
 10
485.7309705769662
 20
74.6242940258196
 30
0.0
 11
482.7754172806883
 21
72.58824619949518
 31
0.0
  0
ARC
  5
5B81
330
1F
100
AcDbEntity
  8
0
 62
     7
 48
0.5
370
    -3
100
AcDbCircle
 10
485.1473179588409
 20
77.5
 30
0.0
 40
0.5
100
AcDbArc
 50
180.0
 51
270.0000000000065
  0
ARC
  5
5B82
330
1F
100
AcDbEntity
  8
0
 62
     7
 48
0.5
370
    -3
100
AcDbCircle
 10
485.2473179588407
 20
76.29999999999995
 30
0.0
 40
0.7
100
AcDbArc
 50
359.999999999987
 51
90.00000000001303
  0
LINE
  5
5B83
330
1F
100
AcDbEntity
  8
0
 62
     7
 48
0.5
370
    -3
100
AcDbLine
 10
485.9473179588405
 20
75.03604782632464
 30
0.0
 11
485.9473179588408
 21
76.2999999999998
 31
0.0
  0
ARC
  5
5B84
330
1F
100
AcDbEntity
  8
0
 62
     7
 48
0.5
370
    -3
100
AcDbCircle
 10
485.4473179588405
 20
75.03604782632464
 30
0.0
 40
0.5
100
AcDbArc
 50
304.562524648875
 51
359.999999999987
  0
LINE
  5
5B85
330
1F
100
AcDbEntity
  8
0
 62
     7
 48
0.5
370
    -3
100
AcDbLine
 10
485.1473179588409
 20
77.0
 30
0.0
 11
485.2473179588407
 21
77.0
 31
0.0
  0
LINE
  5
5C59
330
1F
100
AcDbEntity
  8
0
 62
     7
 48
0.5
370
    -3
100
AcDbLine
 10
481.4922591843927
 20
5.999999999999886
 30
0.0
 11
569.5023767333325
 21
5.999999999999886
 31
0.0
  0
MTEXT
  5
5C68
330
1F
100
AcDbEntity
  8
0
 62
     1
 48
0.5
370
    -3
100
AcDbMText
 10
525.4973179588623
 20
-5.000000000000028
 30
0.0
 40
2.5
 41
32.05805302350382
 46
0.0
 71
     2
 72
     5
  1
4号
 73
     1
 44
1.0
1001
ACAD
1000
ACAD_MTEXT_COLUMN_INFO_BEGIN
1070
    75
1070
     2
1070
    79
1070
     0
1070
    76
1070
     1
1070
    78
1070
     0
1070
    48
1040
32.05805302350382
1070
    49
1040
12.5
1070
    50
1070
     1
1040
0.0
1000
ACAD_MTEXT_COLUMN_INFO_END
  0
MTEXT
  5
5C69
330
1F
100
AcDbEntity
  8
0
 62
     1
 48
0.5
370
    -3
100
AcDbMText
 10
525.4973179588623
 20
-13.00000000000003
 30
0.0
 40
2.5
 41
32.05805302350382
 46
0.0
 71
     2
 72
     5
  1
EFMD4□
 73
     1
 44
1.0
1001
ACAD
1000
ACAD_MTEXT_COLUMN_INFO_BEGIN
1070
    75
1070
     2
1070
    79
1070
     0
1070
    76
1070
     1
1070
    78
1070
     0
1070
    48
1040
32.05805302350382
1070
    49
1040
12.5
1070
    50
1070
     1
1040
0.0
1000
ACAD_MTEXT_COLUMN_INFO_END
  0
LINE
  5
5C6C
330
1F
100
AcDbEntity
  8
0
 62
     7
 48
0.5
370
    -3
100
AcDbLine
 10
575.4973179589076
 20
92.99875764683589
 30
0.0
 11
475.4973179588165
 21
92.99875764683591
 31
0.0
  0
LINE
  5
5C6D
330
1F
100
AcDbEntity
  8
0
 62
     7
 48
0.5
370
    -3
100
AcDbLine
 10
575.4973179588396
 20
2092.998757646836
 30
0.0
 11
475.4973179588167
 21
2092.998757646836
 31
0.0
  0
LINE
  5
5C6E
330
1F
100
AcDbEntity
  8
0
 62
     2
 48
0.5
370
    -3
100
AcDbLine
 10
525.4973179588626
 20
2095.998757646836
 30
0.0
 11
525.4973179588623
 21
89.9987576468359
 31
0.0
  0
LINE
  5
5C6F
330
1F
100
AcDbEntity
  8
0
 62
     7
 48
0.5
370
    -3
100
AcDbLine
 10
475.4973179588165
 20
92.99875764683591
 30
0.0
 11
475.4973179588165
 21
2092.998757646836
 31
0.0
  0
LINE
  5
5C71
330
1F
100
AcDbEntity
  8
0
 62
     7
 48
0.5
370
    -3
100
AcDbLine
 10
480.4973179588165
 20
92.99875764683591
 30
0.0
 11
480.4973179588165
 21
2092.998757646836
 31
0.0
  0
LINE
  5
5C73
330
1F
100
AcDbEntity
  8
0
 62
     7
 48
0.5
370
    -3
100
AcDbLine
 10
575.4973179589076
 20
92.99875764683761
 30
0.0
 11
575.4973179588394
 21
2092.998757646838
 31
0.0
  0
LINE
  5
5C74
330
1F
100
AcDbEntity
  8
0
 62
     7
 48
0.5
370
    -3
100
AcDbLine
 10
570.4973179589075
 20
92.99875764683745
 30
0.0
 11
570.4973179588393
 21
2092.998757646838
 31
0.0
  0
ARC
  5
5E71
330
1F
100
AcDbEntity
  8
0
 62
     7
 48
0.5
370
    -3
100
AcDbCircle
 10
-14.59999999999975
 20
20.00000000000015
 30
0.0
 40
0.2
100
AcDbArc
 50
0.0000000000001018
 51
89.9999999999974
  0
LINE
  5
5E72
330
1F
100
AcDbEntity
  8
0
 62
     7
 48
0.5
370
    -3
100
AcDbLine
 10
-14.95000000000006
 20
20.20000000000015
 30
0.0
 11
-13.70000000000107
 21
20.20000000000015
 31
0.0
  0
LINE
  5
5E73
330
1F
100
AcDbEntity
  8
0
 62
     7
 48
0.5
370
    -3
100
AcDbLine
 10
15.29999999999972
 20
21.39999999999992
 30
0.0
 11
15.29999999999995
 21
20.55000000000018
 31
0.0
  0
ARC
  5
5E74
330
1F
100
AcDbEntity
  8
0
 62
     7
 48
0.5
370
    -3
100
AcDbCircle
 10
14.95000000000004
 20
20.55000000000018
 30
0.0
 40
0.35
100
AcDbArc
 50
270.0
 51
0.0000000000000127
  0
ARC
  5
5E75
330
1F
100
AcDbEntity
  8
0
 62
     7
 48
0.5
370
    -3
100
AcDbCircle
 10
11.60000000000116
 20
19.90000000000026
 30
0.0
 40
0.3
100
AcDbArc
 50
0.0000000000000127
 51
90.00000000002605
  0
LINE
  5
5E76
330
1F
100
AcDbEntity
  8
0
 62
     7
 48
0.5
370
    -3
100
AcDbLine
 10
9.399999999999831
 20
20.20000000000012
 30
0.0
 11
11.60000000000104
 21
20.20000000000027
 31
0.0
  0
ARC
  5
5E78
330
1F
100
AcDbEntity
  8
0
 62
     7
 48
0.5
370
    -3
100
AcDbCircle
 10
14.59999999999975
 20
20.00000000000015
 30
0.0
 40
0.2
100
AcDbArc
 50
90.00000000000261
 51
179.9999999999999
  0
ARC
  5
5E79
330
1F
100
AcDbEntity
  8
0
 62
     7
 48
0.5
370
    -3
100
AcDbCircle
 10
13.70000000000107
 20
19.90000000000009
 30
0.0
 40
0.3
100
AcDbArc
 50
90.00000000000003
 51
180.0
  0
LINE
  5
5E7A
330
1F
100
AcDbEntity
  8
0
 62
     7
 48
0.5
370
    -3
100
AcDbLine
 10
16.50000000000047
 20
17.30000000000001
 30
0.0
 11
13.52903031230141
 21
19.36051123501738
 31
0.0
  0
LINE
  5
5E7C
330
1F
100
AcDbEntity
  8
0
 62
     7
 48
0.5
370
    -3
100
AcDbLine
 10
15.5984516271933
 20
16.0995520996334
 30
0.0
 11
12.67959638932598
 21
18.10815461691197
 31
0.0
  0
ARC
  5
5E7D
330
1F
100
AcDbEntity
  8
0
 62
     7
 48
0.5
370
    -3
100
AcDbCircle
 10
16.56216614838649
 20
17.49999999999994
 30
0.0
 40
1.7
100
AcDbArc
 50
235.4662982830127
 51
270.0
  0
LINE
  5
5E7E
330
1F
100
AcDbEntity
  8
0
 62
     7
 48
0.5
370
    -3
100
AcDbLine
 10
13.40000000000111
 20
19.90000000000009
 30
0.0
 11
13.400000000001
 21
19.60702566844458
 31
0.0
  0
ARC
  5
5E7F
330
1F
100
AcDbEntity
  8
0
 62
     7
 48
0.5
370
    -3
100
AcDbCircle
 10
13.70000000000107
 20
19.60702566844458
 30
0.0
 40
0.3
100
AcDbArc
 50
180.0
 51
235.2568198416893
  0
LINE
  5
5E80
330
1F
100
AcDbEntity
  8
0
 62
     7
 48
0.5
370
    -3
100
AcDbLine
 10
11.90000000000111
 20
19.90000000000009
 30
0.0
 11
11.90000000000111
 21
19.59098180553536
 31
0.0
  0
ARC
  5
5E81
330
1F
100
AcDbEntity
  8
0
 62
     7
 48
0.5
370
    -3
100
AcDbCircle
 10
13.70000000000107
 20
19.59098180553536
 30
0.0
 40
1.8
100
AcDbArc
 50
180.0
 51
235.4662982830127
  0
LINE
  5
5E82
330
1F
100
AcDbEntity
  8
0
 62
     7
 48
0.5
370
    -3
100
AcDbLine
 10
18.00000000000011
 20
17.30000000000001
 30
0.0
 11
16.50000000000047
 21
17.30000000000001
 31
0.0
  0
LINE
  5
5E83
330
1F
100
AcDbEntity
  8
0
 62
     7
 48
0.5
370
    -3
100
AcDbLine
 10
17.99999999999988
 20
15.80000000000001
 30
0.0
 11
16.56216614838649
 21
15.80000000000001
 31
0.0
  0
LINE
  5
5E85
330
1F
100
AcDbEntity
  8
0
 62
     7
 48
0.5
370
    -3
100
AcDbLine
 10
16.79999999999984
 20
18.09222815216102
 30
0.0
 11
16.79999999999984
 21
21.30000000000001
 31
0.0
  0
LINE
  5
5E87
330
1F
100
AcDbEntity
  8
0
 62
     7
 48
0.5
370
    -3
100
AcDbLine
 10
14.39999999999975
 20
19.32933387764393
 30
0.0
 11
14.39999999999975
 21
20.00000000000015
 31
0.0
  0
LINE
  5
5E88
330
1F
100
AcDbEntity
  8
0
 62
     7
 48
0.5
370
    -3
100
AcDbLine
 10
16.33007812892239
 20
17.84499029557441
 30
0.0
 11
14.53007812892235
 21
19.08209602105734
 31
0.0
  0
ARC
  5
5E89
330
1F
100
AcDbEntity
  8
0
 62
     7
 48
0.5
370
    -3
100
AcDbCircle
 10
14.6999999999997
 20
19.32933387764393
 30
0.0
 40
0.3
100
AcDbArc
 50
180.0
 51
235.4999999999968
  0
LINE
  5
5E8B
330
1F
100
AcDbEntity
  8
0
 62
     7
 48
0.5
370
    -3
100
AcDbLine
 10
9.199999999999818
 20
20.40000000000012
 30
0.0
 11
9.199999999999818
 21
21.69999999999993
 31
0.0
  0
LINE
  5
5E8C
330
1F
100
AcDbEntity
  8
0
 62
     7
 48
0.5
370
    -3
100
AcDbLine
 10
14.95000000000004
 20
20.20000000000015
 30
0.0
 11
13.70000000000107
 21
20.20000000000015
 31
0.0
  0
LINE
  5
5E8D
330
1F
100
AcDbEntity
  8
0
 62
     7
 48
0.5
370
    -3
100
AcDbLine
 10
85.30000000000041
 20
31.39999999999995
 30
0.0
 11
85.30000000000063
 21
30.55000000000023
 31
0.0
  0
ARC
  5
5E8E
330
1F
100
AcDbEntity
  8
0
 62
     7
 48
0.5
370
    -3
100
AcDbCircle
 10
84.95000000000073
 20
30.55000000000022
 30
0.0
 40
0.35
100
AcDbArc
 50
270.0
 51
359.9999999999997
  0
ARC
  5
5E8F
330
1F
100
AcDbEntity
  8
0
 62
     7
 48
0.5
370
    -3
100
AcDbCircle
 10
81.60000000000184
 20
29.9000000000003
 30
0.0
 40
0.3
100
AcDbArc
 50
359.9999999999997
 51
90.00000000002605
  0
LINE
  5
5E90
330
1F
100
AcDbEntity
  8
0
 62
     7
 48
0.5
370
    -3
100
AcDbLine
 10
79.40000000000051
 20
30.20000000000017
 30
0.0
 11
81.60000000000172
 21
30.20000000000032
 31
0.0
  0
LINE
  5
5E91
330
1F
100
AcDbEntity
  8
0
 62
     7
 48
0.5
370
    -3
100
AcDbLine
 10
83.70000000000187
 20
30.20000000000016
 30
0.0
 11
84.95000000000073
 21
30.20000000000021
 31
0.0
  0
ARC
  5
5E92
330
1F
100
AcDbEntity
  8
0
 62
     7
 48
0.5
370
    -3
100
AcDbCircle
 10
83.70000000000175
 20
29.90000000000015
 30
0.0
 40
0.3
100
AcDbArc
 50
90.0
 51
179.9999999999996
  0
LINE
  5
5E93
330
1F
100
AcDbEntity
  8
0
 62
     7
 48
0.5
370
    -3
100
AcDbLine
 10
86.50000000000121
 20
27.30000000000002
 30
0.0
 11
83.5290303123021
 21
29.36051123501741
 31
0.0
  0
LINE
  5
5E95
330
1F
100
AcDbEntity
  8
0
 62
     7
 48
0.5
370
    -3
100
AcDbLine
 10
85.59845162719398
 20
26.09955209963341
 30
0.0
 11
82.67959638932666
 21
28.10815461691201
 31
0.0
  0
ARC
  5
5E96
330
1F
100
AcDbEntity
  8
0
 62
     7
 48
0.5
370
    -3
100
AcDbCircle
 10
86.56216614838717
 20
27.50000000000001
 30
0.0
 40
1.7
100
AcDbArc
 50
235.4662982830127
 51
270.0
  0
LINE
  5
5E97
330
1F
100
AcDbEntity
  8
0
 62
     7
 48
0.5
370
    -3
100
AcDbLine
 10
83.40000000000179
 20
29.90000000000014
 30
0.0
 11
83.40000000000168
 21
29.60702566844463
 31
0.0
  0
ARC
  5
5E98
330
1F
100
AcDbEntity
  8
0
 62
     7
 48
0.5
370
    -3
100
AcDbCircle
 10
83.70000000000175
 20
29.60702566844461
 30
0.0
 40
0.3
100
AcDbArc
 50
179.9999999999996
 51
235.2568198416892
  0
LINE
  5
5E99
330
1F
100
AcDbEntity
  8
0
 62
     7
 48
0.5
370
    -3
100
AcDbLine
 10
81.9000000000018
 20
29.90000000000013
 30
0.0
 11
81.9000000000018
 21
29.59098180553543
 31
0.0
  0
ARC
  5
5E9A
330
1F
100
AcDbEntity
  8
0
 62
     7
 48
0.5
370
    -3
100
AcDbCircle
 10
83.70000000000175
 20
29.59098180553541
 30
0.0
 40
1.8
100
AcDbArc
 50
179.9999999999996
 51
235.4662982830127
  0
LINE
  5
5E9B
330
1F
100
AcDbEntity
  8
0
 62
     7
 48
0.5
370
    -3
100
AcDbLine
 10
88.0000000000008
 20
27.30000000000003
 30
0.0
 11
86.50000000000121
 21
27.30000000000002
 31
0.0
  0
LINE
  5
5E9C
330
1F
100
AcDbEntity
  8
0
 62
     7
 48
0.5
370
    -3
100
AcDbLine
 10
88.00000000000057
 20
25.80000000000004
 30
0.0
 11
86.56216614838717
 21
25.80000000000002
 31
0.0
  0
ARC
  5
5E9D
330
1F
100
AcDbEntity
  8
0
 62
     7
 48
0.5
370
    -3
100
AcDbCircle
 10
86.48847589731884
 20
28.10000000000008
 30
0.0
 40
0.3
100
AcDbArc
 50
237.1363512242737
 51
270.0
  0
LINE
  5
5E9E
330
1F
100
AcDbEntity
  8
0
 62
     7
 48
0.5
370
    -3
100
AcDbLine
 10
86.80000000000053
 20
28.10000000000008
 30
0.0
 11
86.80000000000053
 21
31.30000000000007
 31
0.0
  0
ARC
  5
5E9F
330
1F
100
AcDbEntity
  8
0
 62
     7
 48
0.5
370
    -3
100
AcDbCircle
 10
86.50000000000057
 20
28.10000000000008
 30
0.0
 40
0.3
100
AcDbArc
 50
270.0
 51
0.0000000000000127
  0
LINE
  5
5EA0
330
1F
100
AcDbEntity
  8
0
 62
     7
 48
0.5
370
    -3
100
AcDbLine
 10
84.40000000000043
 20
29.32933387764396
 30
0.0
 11
84.40000000000043
 21
29.8000000000002
 31
0.0
  0
LINE
  5
5EA1
330
1F
100
AcDbEntity
  8
0
 62
     7
 48
0.5
370
    -3
100
AcDbLine
 10
86.32568340380101
 20
27.84801070646913
 30
0.0
 11
84.53007812892304
 21
29.0820960210574
 31
0.0
  0
ARC
  5
5EA2
330
1F
100
AcDbEntity
  8
0
 62
     7
 48
0.5
370
    -3
100
AcDbCircle
 10
84.70000000000039
 20
29.32933387764396
 30
0.0
 40
0.3
100
AcDbArc
 50
180.0
 51
235.499999999997
  0
ARC
  5
5EA3
330
1F
100
AcDbEntity
  8
0
 62
     7
 48
0.5
370
    -3
100
AcDbCircle
 10
84.80000000000051
 20
29.8000000000002
 30
0.0
 40
0.4
100
AcDbArc
 50
90.0
 51
180.0
  0
LINE
  5
5EA5
330
1F
100
AcDbEntity
  8
0
 62
     7
 48
0.5
370
    -3
100
AcDbLine
 10
79.20000000000048
 20
30.40000000000017
 30
0.0
 11
79.20000000000048
 21
31.69999999999995
 31
0.0
  0
MTEXT
  5
5F6E
330
1F
100
AcDbEntity
  8
0
 62
     1
 48
0.5
370
    -3
100
AcDbMText
 10
655.5074355078024
 20
-4.999999999999886
 30
0.0
 40
2.5
 41
32.05805302350382
 46
0.0
 71
     2
 72
     5
  1
4号100型
 73
     1
 44
1.0
1001
ACAD
1000
ACAD_MTEXT_COLUMN_INFO_BEGIN
1070
    75
1070
     2
1070
    79
1070
     0
1070
    76
1070
     1
1070
    78
1070
     0
1070
    48
1040
32.05805302350382
1070
    49
1040
12.5
1070
    50
1070
     1
1040
0.0
1000
ACAD_MTEXT_COLUMN_INFO_END
  0
MTEXT
  5
5F6F
330
1F
100
AcDbEntity
  8
0
 62
     1
 48
0.5
370
    -3
100
AcDbMText
 10
655.5074355078024
 20
-12.99999999999988
 30
0.0
 40
2.5
 41
32.05805302350382
 46
0.0
 71
     2
 72
     5
  1
EFMD410□
 73
     1
 44
1.0
1001
ACAD
1000
ACAD_MTEXT_COLUMN_INFO_BEGIN
1070
    75
1070
     2
1070
    79
1070
     0
1070
    76
1070
     1
1070
    78
1070
     0
1070
    48
1040
32.05805302350382
1070
    49
1040
12.5
1070
    50
1070
     1
1040
0.0
1000
ACAD_MTEXT_COLUMN_INFO_END
  0
LINE
  5
5F70
330
1F
100
AcDbEntity
  8
0
 62
     7
 48
0.5
370
    -3
100
AcDbLine
 10
615.1574355078024
 20
100.00505877447
 30
0.0
 11
695.8574355078027
 21
100.00505877447
 31
0.0
  0
ARC
  5
5F71
330
1F
100
AcDbEntity
  8
0
 62
     7
 48
0.5
370
    -3
100
AcDbCircle
 10
699.6574355078024
 20
99.70505877447033
 30
0.0
 40
0.3
100
AcDbArc
 50
90.0
 51
180.0
  0
LINE
  5
5F72
330
1F
100
AcDbEntity
  8
0
 62
     7
 48
0.5
370
    -3
100
AcDbLine
 10
705.5074355078237
 20
100.7050587744489
 30
0.0
 11
705.5074355078483
 21
101.50505877447
 31
0.0
  0
ARC
  5
5F73
330
1F
100
AcDbEntity
  8
0
 62
     7
 48
0.5
370
    -3
100
AcDbCircle
 10
704.8074355078239
 20
100.7050587744703
 30
0.0
 40
0.7
100
AcDbArc
 50
270.0
 51
359.9999999982543
  0
LINE
  5
5F74
330
1F
100
AcDbEntity
  8
0
 62
     7
 48
0.5
370
    -3
100
AcDbLine
 10
699.6574355078024
 20
100.00505877447
 30
0.0
 11
704.8074355078239
 21
100.00505877447
 31
0.0
  0
LINE
  5
5F75
330
1F
100
AcDbEntity
  8
0
 62
     7
 48
0.5
370
    -3
100
AcDbLine
 10
705.5074355078483
 20
101.50505877447
 30
0.0
 11
700.5074355078026
 21
103.00505877447
 31
0.0
  0
ARC
  5
5F76
330
1F
100
AcDbEntity
  8
0
 62
     7
 48
0.5
370
    -3
100
AcDbCircle
 10
615.157435507802
 20
99.50505877447007
 30
0.0
 40
0.5
100
AcDbArc
 50
90.0
 51
180.0
  0
ARC
  5
5F77
330
1F
100
AcDbEntity
  8
0
 62
     7
 48
0.5
370
    -3
100
AcDbCircle
 10
611.3574355078022
 20
99.70505877447033
 30
0.0
 40
0.3
100
AcDbArc
 50
0.0
 51
90.0
  0
LINE
  5
5F78
330
1F
100
AcDbEntity
  8
0
 62
     7
 48
0.5
370
    -3
100
AcDbLine
 10
612.1574355077811
 20
92.50505877447052
 30
0.0
 11
612.5018822115029
 21
92.50505877447052
 31
0.0
  0
ARC
  5
5F79
330
1F
100
AcDbEntity
  8
0
 62
     7
 48
0.5
370
    -3
100
AcDbCircle
 10
612.5018822115029
 20
93.00505877447051
 30
0.0
 40
0.5
100
AcDbArc
 50
270.0
 51
304.5625246488751
  0
ARC
  5
5F7A
330
1F
100
AcDbEntity
  8
0
 62
     7
 48
0.5
370
    -3
100
AcDbCircle
 10
612.1574355077811
 20
93.00505877447051
 30
0.0
 40
0.5
100
AcDbArc
 50
180.0
 51
270.0
  0
LINE
  5
5F7B
330
1F
100
AcDbEntity
  8
0
 62
     7
 48
0.5
370
    -3
100
AcDbLine
 10
605.507435507781
 20
100.7050587744489
 30
0.0
 11
605.5074355077564
 21
101.50505877447
 31
0.0
  0
ARC
  5
5F7C
330
1F
100
AcDbEntity
  8
0
 62
     7
 48
0.5
370
    -3
100
AcDbCircle
 10
606.2074355077808
 20
100.7050587744703
 30
0.0
 40
0.7
100
AcDbArc
 50
180.0000000017325
 51
270.0
  0
LINE
  5
5F7D
330
1F
100
AcDbEntity
  8
0
 62
     7
 48
0.5
370
    -3
100
AcDbLine
 10
611.3574355078022
 20
100.00505877447
 30
0.0
 11
606.2074355077808
 21
100.00505877447
 31
0.0
  0
LINE
  5
5F7E
330
1F
100
AcDbEntity
  8
0
 62
     7
 48
0.5
370
    -3
100
AcDbLine
 10
605.5074355077564
 20
101.50505877447
 30
0.0
 11
610.5074355078021
 21
103.00505877447
 31
0.0
  0
LINE
  5
5F7F
330
1F
100
AcDbEntity
  8
0
 62
     7
 48
0.5
370
    -3
100
AcDbLine
 10
611.6574355077808
 20
93.00505877447051
 30
0.0
 11
611.6574355077808
 21
99.70505877447033
 31
0.0
  0
LINE
  5
5F80
330
1F
100
AcDbEntity
  8
0
 62
     7
 48
0.5
370
    -3
100
AcDbLine
 10
614.6574355077813
 20
97.50505877446997
 30
0.0
 11
614.657435507781
 21
99.50505877447007
 31
0.0
  0
LINE
  5
5F81
330
1F
100
AcDbEntity
  8
0
 62
     7
 48
0.5
370
    -3
100
AcDbLine
 10
611.5023767333326
 20
2.999999999999886
 30
0.0
 11
699.512494282272
 21
3.000000000000113
 31
0.0
  0
LINE
  5
5F82
330
1F
100
AcDbEntity
  8
0
 62
     7
 48
0.5
370
    -3
100
AcDbLine
 10
605.5023767333324
 20
98.60505877446996
 30
0.0
 11
605.5023767333326
 21
8.999999999999886
 31
0.0
  0
ARC
  5
5F83
330
1F
100
AcDbEntity
  8
0
 62
     7
 48
0.5
370
    -3
100
AcDbCircle
 10
611.5023767333326
 20
8.999999999999886
 30
0.0
 40
6.0
100
AcDbArc
 50
180.0
 51
270.0
  0
ARC
  5
5F84
330
1F
100
AcDbEntity
  8
0
 62
     7
 48
0.5
370
    -3
100
AcDbCircle
 10
606.5023767333326
 20
98.60505877447019
 30
0.0
 40
0.9999999999999998
100
AcDbArc
 50
89.99999999999349
 51
180.0
  0
LINE
  5
5F85
330
1F
100
AcDbEntity
  8
0
 62
     7
 48
0.5
370
    -3
100
AcDbLine
 10
608.5023767333324
 20
9.000000000000113
 30
0.0
 11
608.5023767333326
 21
88.00505877447028
 31
0.0
  0
ARC
  5
5F86
330
1F
100
AcDbEntity
  8
0
 62
     7
 48
0.5
370
    -3
100
AcDbCircle
 10
611.5023767333324
 20
8.999999999999886
 30
0.0
 40
3.0
100
AcDbArc
 50
180.0
 51
270.0
  0
ARC
  5
5F87
330
1F
100
AcDbEntity
  8
0
 62
     7
 48
0.5
370
    -3
100
AcDbCircle
 10
609.5023767333326
 20
88.00505877447028
 30
0.0
 40
0.9999999999999998
100
AcDbArc
 50
90.0
 51
180.0
  0
LINE
  5
5F88
330
1F
100
AcDbEntity
  8
0
 62
     2
 48
0.5
370
    -3
100
AcDbLine
 10
655.5074355078028
 20
106.00505877447
 30
0.0
 11
655.5074355078024
 21
0.0000000000001137
 31
0.0
  0
LINE
  5
5F89
330
1F
100
AcDbEntity
  8
0
 62
     7
 48
0.5
370
    -3
100
AcDbLine
 10
699.5124942822723
 20
6.000000000000113
 30
0.0
 11
611.5023767333324
 21
6.000000000000113
 31
0.0
  0
LINE
  5
5F8A
330
1F
100
AcDbEntity
  8
0
 62
     7
 48
0.5
370
    -3
100
AcDbLine
 10
608.5023767333326
 20
93.00505877447006
 30
0.0
 11
608.5023767333324
 21
99.10505877446997
 31
0.0
  0
ARC
  5
5F8B
330
1F
100
AcDbEntity
  8
0
 62
     7
 48
0.5
370
    -3
100
AcDbCircle
 10
609.5023767333326
 20
93.00505877447006
 30
0.0
 40
0.9999999999999998
100
AcDbArc
 50
180.0
 51
269.9999999999935
  0
ARC
  5
5F8C
330
1F
100
AcDbEntity
  8
0
 62
     7
 48
0.5
370
    -3
100
AcDbCircle
 10
608.0023767333324
 20
99.10505877446997
 30
0.0
 40
0.5
100
AcDbArc
 50
0.0
 51
89.99999999999349
  0
LINE
  5
5F8D
330
1F
100
AcDbEntity
  8
0
 62
     7
 48
0.5
370
    -3
100
AcDbLine
 10
621.1523767333309
 20
97.00505877447007
 30
0.0
 11
626.4523767333324
 21
97.00505877447007
 31
0.0
  0
LINE
  5
5F8E
330
1F
100
AcDbEntity
  8
0
 62
     7
 48
0.5
370
    -3
100
AcDbLine
 10
615.1574355077813
 20
97.00505877447001
 30
0.0
 11
617.1523767333309
 21
97.00505877447028
 31
0.0
  0
ARC
  5
5F8F
330
1F
100
AcDbEntity
  8
0
 62
     7
 48
0.5
370
    -3
100
AcDbCircle
 10
615.1574355077813
 20
97.50505877447002
 30
0.0
 40
0.5
100
AcDbArc
 50
180.0000000000055
 51
270.0000000000065
  0
LINE
  5
5F90
330
1F
100
AcDbEntity
  8
0
 62
     7
 48
0.5
370
    -3
100
AcDbLine
 10
608.0023767333321
 20
99.60505877446998
 30
0.0
 11
606.5023767333326
 21
99.60505877446998
 31
0.0
  0
LINE
  5
5F91
330
1F
100
AcDbEntity
  8
0
 62
     7
 48
0.5
370
    -3
100
AcDbLine
 10
617.65237673333
 20
95.61485560409266
 30
0.0
 11
617.6523767333309
 21
96.50505877446983
 31
0.0
  0
LINE
  5
5F92
330
1F
100
AcDbEntity
  8
0
 62
     7
 48
0.5
370
    -3
100
AcDbLine
 10
620.65237673333
 20
95.61485560408902
 30
0.0
 11
620.6523767333309
 21
96.50505877447052
 31
0.0
  0
ARC
  5
5F93
330
1F
100
AcDbEntity
  8
0
 62
     7
 48
0.5
370
    -3
100
AcDbCircle
 10
621.1523767333309
 20
96.50505877446983
 30
0.0
 40
0.5
100
AcDbArc
 50
89.99999999999349
 51
179.9999999999479
  0
ARC
  5
5F94
330
1F
100
AcDbEntity
  8
0
 62
     7
 48
0.5
370
    -3
100
AcDbCircle
 10
617.1523767333309
 20
96.50505877447006
 30
0.0
 40
0.5
100
AcDbArc
 50
359.9999999999479
 51
89.99999999999349
  0
LINE
  5
5F95
330
1F
100
AcDbEntity
  8
0
 62
     7
 48
0.5
370
    -3
100
AcDbLine
 10
617.4363888555034
 20
95.20334969349312
 30
0.0
 11
612.8023767333266
 21
92.00505877447053
 31
0.0
  0
LINE
  5
5F96
330
1F
100
AcDbEntity
  8
0
 62
     7
 48
0.5
370
    -3
100
AcDbLine
 10
619.1404615885424
 20
92.73431422989336
 30
0.0
 11
614.6346687851846
 21
89.6245174002712
 31
0.0
  0
ARC
  5
5F97
330
1F
100
AcDbEntity
  8
0
 62
     7
 48
0.5
370
    -3
100
AcDbCircle
 10
617.15237673333
 20
95.61485560409266
 30
0.0
 40
3.499999999999999
100
AcDbArc
 50
304.6125649048231
 51
359.9999999999479
  0
ARC
  5
5F98
330
1F
100
AcDbEntity
  8
0
 62
     7
 48
0.5
370
    -3
100
AcDbCircle
 10
617.15237673333
 20
95.61485560409312
 30
0.0
 40
0.5
100
AcDbArc
 50
304.6125649048347
 51
359.9999999999479
  0
LINE
  5
5F99
330
1F
100
AcDbEntity
  8
0
 62
     7
 48
0.5
370
    -3
100
AcDbLine
 10
609.5023767333324
 20
92.00505877447028
 30
0.0
 11
612.8023767333266
 21
92.00505877447053
 31
0.0
  0
LINE
  5
5F9A
330
1F
100
AcDbEntity
  8
0
 62
     7
 48
0.5
370
    -3
100
AcDbLine
 10
609.5023767333326
 20
89.00505877447006
 30
0.0
 11
612.6465839299722
 21
89.0050587744705
 31
0.0
  0
ARC
  5
5F9B
330
1F
100
AcDbEntity
  8
0
 62
     7
 48
0.5
370
    -3
100
AcDbCircle
 10
612.646583929972
 20
92.50505877447052
 30
0.0
 40
3.499999999999999
100
AcDbArc
 50
269.9999999999935
 51
304.6125649048231
  0
LINE
  5
5F9D
330
1F
100
AcDbEntity
  8
0
 62
     7
 48
0.5
370
    -3
100
AcDbLine
 10
705.5124942822723
 20
98.60505877446996
 30
0.0
 11
705.5124942822721
 21
8.999999999999886
 31
0.0
  0
ARC
  5
5F9E
330
1F
100
AcDbEntity
  8
0
 62
     7
 48
0.5
370
    -3
100
AcDbCircle
 10
699.512494282272
 20
8.999999999999886
 30
0.0
 40
6.0
100
AcDbArc
 50
270.0
 51
0.0
  0
ARC
  5
5F9F
330
1F
100
AcDbEntity
  8
0
 62
     7
 48
0.5
370
    -3
100
AcDbCircle
 10
704.512494282272
 20
98.60505877447019
 30
0.0
 40
0.9999999999999998
100
AcDbArc
 50
0.0
 51
90.00000000000651
  0
LINE
  5
5FA0
330
1F
100
AcDbEntity
  8
0
 62
     7
 48
0.5
370
    -3
100
AcDbLine
 10
702.5124942822725
 20
9.000000000000113
 30
0.0
 11
702.5124942822721
 21
88.00505877447028
 31
0.0
  0
ARC
  5
5FA1
330
1F
100
AcDbEntity
  8
0
 62
     7
 48
0.5
370
    -3
100
AcDbCircle
 10
699.5124942822723
 20
8.999999999999886
 30
0.0
 40
3.0
100
AcDbArc
 50
270.0
 51
0.0
  0
ARC
  5
5FA2
330
1F
100
AcDbEntity
  8
0
 62
     7
 48
0.5
370
    -3
100
AcDbCircle
 10
701.5124942822721
 20
88.00505877447028
 30
0.0
 40
0.9999999999999998
100
AcDbArc
 50
0.0
 51
89.99999999998046
  0
LINE
  5
5FA3
330
1F
100
AcDbEntity
  8
0
 62
     7
 48
0.5
370
    -3
100
AcDbLine
 10
702.5124942822722
 20
93.00505877447006
 30
0.0
 11
702.5124942822725
 21
99.10505877446997
 31
0.0
  0
ARC
  5
5FA4
330
1F
100
AcDbEntity
  8
0
 62
     7
 48
0.5
370
    -3
100
AcDbCircle
 10
701.5124942822721
 20
93.00505877447006
 30
0.0
 40
0.9999999999999998
100
AcDbArc
 50
270.0000000000065
 51
0.0
  0
ARC
  5
5FA5
330
1F
100
AcDbEntity
  8
0
 62
     7
 48
0.5
370
    -3
100
AcDbCircle
 10
703.0124942822725
 20
99.10505877446997
 30
0.0
 40
0.4999999999999999
100
AcDbArc
 50
90.00000000000651
 51
180.0
  0
LINE
  5
5FA6
330
1F
100
AcDbEntity
  8
0
 62
     7
 48
0.5
370
    -3
100
AcDbLine
 10
703.0124942822725
 20
99.60505877446998
 30
0.0
 11
704.512494282272
 21
99.60505877446998
 31
0.0
  0
LINE
  5
5FA7
330
1F
100
AcDbEntity
  8
0
 62
     7
 48
0.5
370
    -3
100
AcDbLine
 10
615.7410881259062
 20
94.62935280028967
 30
0.0
 11
612.7855348296283
 21
92.59330497396524
 31
0.0
  0
ARC
  5
5FA8
330
1F
100
AcDbEntity
  8
0
 62
     7
 48
0.5
370
    -3
100
AcDbCircle
 10
615.2574355077807
 20
96.30505877447003
 30
0.0
 40
0.7
100
AcDbArc
 50
359.999999999987
 51
90.00000000001303
  0
LINE
  5
5FA9
330
1F
100
AcDbEntity
  8
0
 62
     7
 48
0.5
370
    -3
100
AcDbLine
 10
615.9574355077806
 20
95.0411066007947
 30
0.0
 11
615.9574355077808
 21
96.30505877446987
 31
0.0
  0
ARC
  5
5FAA
330
1F
100
AcDbEntity
  8
0
 62
     7
 48
0.5
370
    -3
100
AcDbCircle
 10
615.4574355077805
 20
95.0411066007947
 30
0.0
 40
0.5
100
AcDbArc
 50
304.5625246488751
 51
359.999999999987
  0
LINE
  5
5FAB
330
1F
100
AcDbEntity
  8
0
 62
     7
 48
0.5
370
    -3
100
AcDbLine
 10
605.5074355078025
 20
113.00505877447
 30
0.0
 11
705.5074355078028
 21
113.00505877447
 31
0.0
  0
LINE
  5
5FAC
330
1F
100
AcDbEntity
  8
0
 62
     7
 48
0.5
370
    -3
100
AcDbLine
 10
605.5074355078025
 20
2113.00505877447
 30
0.0
 11
705.5074355078026
 21
2113.00505877447
 31
0.0
  0
LINE
  5
5FAD
330
1F
100
AcDbEntity
  8
0
 62
     7
 48
0.5
370
    -3
100
AcDbLine
 10
605.5074355078025
 20
113.00505877447
 30
0.0
 11
605.5074355078025
 21
2113.005058774469
 31
0.0
  0
LINE
  5
5FAE
330
1F
100
AcDbEntity
  8
0
 62
     7
 48
0.5
370
    -3
100
AcDbLine
 10
705.5074355078026
 20
113.00505877447
 30
0.0
 11
705.5074355078026
 21
2113.005058774469
 31
0.0
  0
LINE
  5
5FAF
330
1F
100
AcDbEntity
  8
0
 62
     7
 48
0.5
370
    -3
100
AcDbLine
 10
610.5074355078238
 20
113.00505877447
 30
0.0
 11
610.5074355078238
 21
2113.00505877447
 31
0.0
  0
LINE
  5
5FB0
330
1F
100
AcDbEntity
  8
0
 62
     7
 48
0.5
370
    -3
100
AcDbLine
 10
700.5074355078238
 20
113.00505877447
 30
0.0
 11
700.5074355078238
 21
2113.005058774469
 31
0.0
  0
LINE
  5
5FB1
330
1F
100
AcDbEntity
  8
0
 62
     2
 48
0.5
370
    -3
100
AcDbLine
 10
655.5074355078025
 20
2116.00505877447
 30
0.0
 11
655.5074355078026
 21
110.00505877447
 31
0.0
  0
LINE
  5
5FB2
330
1F
100
AcDbEntity
  8
0
 62
     7
 48
0.5
370
    -3
100
AcDbLine
 10
740.5183961858215
 20
103.0309019035484
 30
0.0
 11
880.5183961858219
 21
103.0309019035484
 31
0.0
  0
LINE
  5
5FB3
330
1F
100
AcDbEntity
  8
0
 62
     7
 48
0.5
370
    -3
100
AcDbLine
 10
748.3683961859169
 20
99.5309019035484
 30
0.0
 11
872.6683961857261
 21
99.5309019035484
 31
0.0
  0
ARC
  5
5FB4
330
1F
100
AcDbEntity
  8
0
 62
     7
 48
0.5
370
    -3
100
AcDbCircle
 10
748.3683961859169
 20
98.8809019035483
 30
0.0
 40
0.65
100
AcDbArc
 50
90.0
 51
180.0
  0
LINE
  5
5FB5
330
1F
100
AcDbEntity
  8
0
 62
     7
 48
0.5
370
    -3
100
AcDbLine
 10
744.368396185916
 20
89.53090190354862
 30
0.0
 11
744.9202524165248
 21
89.53090190354862
 31
0.0
  0
ARC
  5
5FB6
330
1F
100
AcDbEntity
  8
0
 62
     7
 48
0.5
370
    -3
100
AcDbCircle
 10
744.368396185916
 20
90.18090190354872
 30
0.0
 40
0.65
100
AcDbArc
 50
179.9999999999935
 51
270.0
  0
LINE
  5
5FB7
330
1F
100
AcDbEntity
  8
0
 62
     7
 48
0.5
370
    -3
100
AcDbLine
 10
735.5183961859165
 20
99.93090190352099
 30
0.0
 11
735.5183961858679
 21
101.530901903562
 31
0.0
  0
LINE
  5
5FB8
330
1F
100
AcDbEntity
  8
0
 62
     7
 48
0.5
370
    -3
100
AcDbLine
 10
743.3183961859163
 20
99.0309019035484
 30
0.0
 11
736.4183961859167
 21
99.0309019035484
 31
0.0
  0
ARC
  5
5FB9
330
1F
100
AcDbEntity
  8
0
 62
     7
 48
0.5
370
    -3
100
AcDbCircle
 10
736.4183961859167
 20
99.93090190354827
 30
0.0
 40
0.9
100
AcDbArc
 50
180.000000001739
 51
270.0
  0
LINE
  5
5FBA
330
1F
100
AcDbEntity
  8
0
 62
     7
 48
0.5
370
    -3
100
AcDbLine
 10
743.7183961859159
 20
90.18090190354872
 30
0.0
 11
743.7183961859163
 21
98.63090190354832
 31
0.0
  0
ARC
  5
5FBB
330
1F
100
AcDbEntity
  8
0
 62
     7
 48
0.5
370
    -3
100
AcDbCircle
 10
743.3183961859163
 20
98.63090190354832
 30
0.0
 40
0.4
100
AcDbArc
 50
359.9999999999935
 51
90.0
  0
LINE
  5
5FBC
330
1F
100
AcDbEntity
  8
0
 62
     7
 48
0.5
370
    -3
100
AcDbLine
 10
747.7183961859155
 20
96.18090190354816
 30
0.0
 11
747.7183961859168
 21
98.8809019035483
 31
0.0
  0
ARC
  5
5FBD
330
1F
100
AcDbEntity
  8
0
 62
     7
 48
0.5
370
    -3
100
AcDbCircle
 10
744.9202524165248
 20
90.18090190354849
 30
0.0
 40
0.65
100
AcDbArc
 50
269.999999999987
 51
303.9062769884368
  0
LINE
  5
5FBE
330
1F
100
AcDbEntity
  8
0
 62
     7
 48
0.5
370
    -3
100
AcDbLine
 10
735.5183961858215
 20
101.5309019035484
 30
0.0
 11
740.5183961858215
 21
103.0309019035484
 31
0.0
  0
ARC
  5
5FBF
330
1F
100
AcDbEntity
  8
0
 62
     7
 48
0.5
370
    -3
100
AcDbCircle
 10
872.6683961857261
 20
98.8809019035483
 30
0.0
 40
0.65
100
AcDbArc
 50
0.0
 51
90.0
  0
LINE
  5
5FC0
330
1F
100
AcDbEntity
  8
0
 62
     7
 48
0.5
370
    -3
100
AcDbLine
 10
885.5183961857264
 20
99.93090190352099
 30
0.0
 11
885.5183961857751
 21
101.530901903562
 31
0.0
  0
LINE
  5
5FC1
330
1F
100
AcDbEntity
  8
0
 62
     7
 48
0.5
370
    -3
100
AcDbLine
 10
877.7183961857268
 20
99.0309019035484
 30
0.0
 11
884.6183961857263
 21
99.0309019035484
 31
0.0
  0
ARC
  5
5FC2
330
1F
100
AcDbEntity
  8
0
 62
     7
 48
0.5
370
    -3
100
AcDbCircle
 10
884.6183961857263
 20
99.93090190354827
 30
0.0
 40
0.9
100
AcDbArc
 50
270.0
 51
359.9999999982608
  0
ARC
  5
5FC3
330
1F
100
AcDbEntity
  8
0
 62
     7
 48
0.5
370
    -3
100
AcDbCircle
 10
877.7183961857268
 20
98.63090190354832
 30
0.0
 40
0.4
100
AcDbArc
 50
90.0
 51
180.0
  0
LINE
  5
5FC4
330
1F
100
AcDbEntity
  8
0
 62
     7
 48
0.5
370
    -3
100
AcDbLine
 10
885.5183961858214
 20
101.5309019035484
 30
0.0
 11
880.5183961858215
 21
103.0309019035484
 31
0.0
  0
LINE
  5
5FC5
330
1F
100
AcDbEntity
  8
0
 62
     7
 48
0.5
370
    -3
100
AcDbLine
 10
742.5124942822717
 20
2.999999999999886
 30
0.0
 11
878.5242980893704
 21
3.000000000000113
 31
0.0
  0
ARC
  5
5FC6
330
1F
100
AcDbEntity
  8
0
 62
     7
 48
0.5
370
    -3
100
AcDbCircle
 10
742.5124942822717
 20
9.999999999999886
 30
0.0
 40
7.0
100
AcDbArc
 50
180.0
 51
270.0
  0
LINE
  5
5FC7
330
1F
100
AcDbEntity
  8
0
 62
     7
 48
0.5
370
    -3
100
AcDbLine
 10
742.5124942822712
 20
6.999999999999886
 30
0.0
 11
878.5242980893709
 21
6.999999999999886
 31
0.0
  0
LINE
  5
5FC8
330
1F
100
AcDbEntity
  8
0
 62
     7
 48
0.5
370
    -3
100
AcDbLine
 10
735.5124942822719
 20
97.23090190354833
 30
0.0
 11
735.5124942822722
 21
9.999999999999886
 31
0.0
  0
LINE
  5
5FC9
330
1F
100
AcDbEntity
  8
0
 62
     7
 48
0.5
370
    -3
100
AcDbLine
 10
739.5124942822717
 20
9.999999999999886
 30
0.0
 11
739.5124942822713
 21
83.43090190354804
 31
0.0
  0
ARC
  5
5FCA
330
1F
100
AcDbEntity
  8
0
 62
     7
 48
0.5
370
    -3
100
AcDbCircle
 10
742.5124942822712
 20
9.999999999999886
 30
0.0
 40
3.0
100
AcDbArc
 50
180.0
 51
270.0
  0
LINE
  5
5FCB
330
1F
100
AcDbEntity
  8
0
 62
     2
 48
0.5
370
    -3
100
AcDbLine
 10
810.5183961858209
 20
106.0309019035484
 30
0.0
 11
810.5183961858211
 21
0.0
 31
0.0
  0
ARC
  5
5FCC
330
1F
100
AcDbEntity
  8
0
 62
     7
 48
0.5
370
    -3
100
AcDbCircle
 10
878.5242980893704
 20
9.999999999999886
 30
0.0
 40
7.0
100
AcDbArc
 50
270.0
 51
0.0
  0
LINE
  5
5FCD
330
1F
100
AcDbEntity
  8
0
 62
     7
 48
0.5
370
    -3
100
AcDbLine
 10
885.5242980893704
 20
97.23090190354822
 30
0.0
 11
885.5242980893704
 21
9.999999999999886
 31
0.0
  0
LINE
  5
5FCE
330
1F
100
AcDbEntity
  8
0
 62
     7
 48
0.5
370
    -3
100
AcDbLine
 10
881.5242980893708
 20
9.999999999999886
 30
0.0
 11
881.524298089371
 21
83.43090190354804
 31
0.0
  0
ARC
  5
5FCF
330
1F
100
AcDbEntity
  8
0
 62
     7
 48
0.5
370
    -3
100
AcDbCircle
 10
878.5242980893709
 20
9.999999999999886
 30
0.0
 40
3.0
100
AcDbArc
 50
270.0
 51
0.0
  0
ARC
  5
5FD0
330
1F
100
AcDbEntity
  8
0
 62
     7
 48
0.5
370
    -3
100
AcDbCircle
 10
736.9124942822716
 20
97.23090190354822
 30
0.0
 40
1.399999999999999
100
AcDbArc
 50
90.0
 51
180.0
  0
ARC
  5
5FD1
330
1F
100
AcDbEntity
  8
0
 62
     7
 48
0.5
370
    -3
100
AcDbCircle
 10
740.9124942822711
 20
83.43090190354804
 30
0.0
 40
1.399999999999999
100
AcDbArc
 50
89.99999999998697
 51
180.0
  0
LINE
  5
5FD2
330
1F
100
AcDbEntity
  8
0
 62
     7
 48
0.5
370
    -3
100
AcDbLine
 10
739.5124942822708
 20
90.23090190354833
 30
0.0
 11
739.5124942822717
 21
97.98090190354821
 31
0.0
  0
ARC
  5
5FD3
330
1F
100
AcDbEntity
  8
0
 62
     7
 48
0.5
370
    -3
100
AcDbCircle
 10
738.8624942822716
 20
97.98090190354821
 30
0.0
 40
0.6499999999999999
100
AcDbArc
 50
359.999999999987
 51
90.0
  0
LINE
  5
5FD4
330
1F
100
AcDbEntity
  8
0
 62
     7
 48
0.5
370
    -3
100
AcDbLine
 10
736.912494282272
 20
98.63090190354819
 30
0.0
 11
738.8624942822718
 21
98.63090190354832
 31
0.0
  0
LINE
  5
5FD5
330
1F
100
AcDbEntity
  8
0
 62
     7
 48
0.5
370
    -3
100
AcDbLine
 10
740.9124942822704
 20
88.83090190354812
 30
0.0
 11
745.2124942822707
 21
88.83090190354742
 31
0.0
  0
ARC
  5
5FD6
330
1F
100
AcDbEntity
  8
0
 62
     7
 48
0.5
370
    -3
100
AcDbCircle
 10
740.9124942822707
 20
90.23090190354798
 30
0.0
 40
1.399999999999999
100
AcDbArc
 50
179.999999999987
 51
269.999999999987
  0
LINE
  5
5FD7
330
1F
100
AcDbEntity
  8
0
 62
     7
 48
0.5
370
    -3
100
AcDbLine
 10
740.9124942822709
 20
84.83090190354801
 30
0.0
 11
745.0094495716539
 21
84.83090190354767
 31
0.0
  0
LINE
  5
5FD8
330
1F
100
AcDbEntity
  8
0
 62
     7
 48
0.5
370
    -3
100
AcDbLine
 10
756.3624942822696
 20
95.53090190354794
 30
0.0
 11
763.5124942822713
 21
95.53090190354794
 31
0.0
  0
ARC
  5
5FD9
330
1F
100
AcDbEntity
  8
0
 62
     7
 48
0.5
370
    -3
100
AcDbCircle
 10
756.3624942822693
 20
94.88090190354808
 30
0.0
 40
0.6499999999999999
100
AcDbArc
 50
90.0
 51
179.9999999999413
  0
LINE
  5
5FDA
330
1F
100
AcDbEntity
  8
0
 62
     7
 48
0.5
370
    -3
100
AcDbLine
 10
748.9183961859167
 20
95.53090190354817
 30
0.0
 11
751.0624942822696
 21
95.5309019035484
 31
0.0
  0
LINE
  5
5FDB
330
1F
100
AcDbEntity
  8
0
 62
     7
 48
0.5
370
    -3
100
AcDbLine
 10
751.7124942822682
 20
93.67147131858985
 30
0.0
 11
751.7124942822695
 21
94.88090190354773
 31
0.0
  0
ARC
  5
5FDC
330
1F
100
AcDbEntity
  8
0
 62
     7
 48
0.5
370
    -3
100
AcDbCircle
 10
751.0624942822678
 20
93.67147131859075
 30
0.0
 40
0.65
100
AcDbArc
 50
304.6951535312543
 51
359.9999999999218
  0
ARC
  5
5FDD
330
1F
100
AcDbEntity
  8
0
 62
     7
 48
0.5
370
    -3
100
AcDbCircle
 10
751.0624942822694
 20
94.88090190354853
 30
0.0
 40
0.6499999999999999
100
AcDbArc
 50
359.9999999999283
 51
90.0
  0
LINE
  5
5FDE
330
1F
100
AcDbEntity
  8
0
 62
     7
 48
0.5
370
    -3
100
AcDbLine
 10
755.7124942822676
 20
93.67147131858519
 30
0.0
 11
755.712494282269
 21
94.88090190354865
 31
0.0
  0
ARC
  5
5FDF
330
1F
100
AcDbEntity
  8
0
 62
     7
 48
0.5
370
    -3
100
AcDbCircle
 10
751.0624942822675
 20
93.67147131859054
 30
0.0
 40
4.649999999999999
100
AcDbArc
 50
304.6951535312543
 51
359.9999999999349
  0
LINE
  5
5FE0
330
1F
100
AcDbEntity
  8
0
 62
     7
 48
0.5
370
    -3
100
AcDbLine
 10
745.2124942822707
 20
88.83090190354742
 30
0.0
 11
751.4324807685077
 21
93.13704639402237
 31
0.0
  0
LINE
  5
5FE1
330
1F
100
AcDbEntity
  8
0
 62
     7
 48
0.5
370
    -3
100
AcDbLine
 10
747.6562759732167
 20
85.65770821240482
 30
0.0
 11
753.7093206838298
 21
89.84827762744783
 31
0.0
  0
ARC
  5
5FE2
330
1F
100
AcDbEntity
  8
0
 62
     7
 48
0.5
370
    -3
100
AcDbCircle
 10
745.0094495716544
 20
89.48090190354752
 30
0.0
 40
4.649999999999999
100
AcDbArc
 50
269.999999999987
 51
304.6951535312543
  0
ARC
  5
5FE4
330
1F
100
AcDbEntity
  8
0
 62
     7
 48
0.5
370
    -3
100
AcDbCircle
 10
884.1242980893701
 20
97.23090190354822
 30
0.0
 40
1.399999999999999
100
AcDbArc
 50
0.0
 51
90.0
  0
ARC
  5
5FE5
330
1F
100
AcDbEntity
  8
0
 62
     7
 48
0.5
370
    -3
100
AcDbCircle
 10
880.1242980893706
 20
83.43090190354804
 30
0.0
 40
1.399999999999999
100
AcDbArc
 50
0.0
 51
90.00000000001303
  0
LINE
  5
5FE6
330
1F
100
AcDbEntity
  8
0
 62
     7
 48
0.5
370
    -3
100
AcDbLine
 10
881.5242980893708
 20
90.23090190354833
 30
0.0
 11
881.5242980893698
 21
97.98090190354821
 31
0.0
  0
ARC
  5
5FE7
330
1F
100
AcDbEntity
  8
0
 62
     7
 48
0.5
370
    -3
100
AcDbCircle
 10
882.1742980893699
 20
97.98090190354821
 30
0.0
 40
0.6499999999999999
100
AcDbArc
 50
90.0
 51
180.0000000000128
  0
LINE
  5
5FE8
330
1F
100
AcDbEntity
  8
0
 62
     7
 48
0.5
370
    -3
100
AcDbLine
 10
884.1242980893694
 20
98.63090190354819
 30
0.0
 11
882.1742980893699
 21
98.63090190354832
 31
0.0
  0
ARC
  5
5FE9
330
1F
100
AcDbEntity
  8
0
 62
     7
 48
0.5
370
    -3
100
AcDbCircle
 10
880.1242980893707
 20
90.23090190354798
 30
0.0
 40
1.399999999999999
100
AcDbArc
 50
270.000000000013
 51
0.0000000000130276
  0
LINE
  5
5FEA
330
1F
100
AcDbEntity
  8
0
 62
     7
 48
0.5
370
    -3
100
AcDbLine
 10
749.5309896098969
 20
92.49674338524062
 30
0.0
 11
745.282845840506
 21
89.64143363860092
 31
0.0
  0
ARC
  5
5FEB
330
1F
100
AcDbEntity
  8
0
 62
     7
 48
0.5
370
    -3
100
AcDbCircle
 10
748.3683961859155
 20
96.18090190354816
 30
0.0
 40
0.65
100
AcDbArc
 50
180.0
 51
270.0
  0
LINE
  5
5FEC
330
1F
100
AcDbEntity
  8
0
 62
     7
 48
0.5
370
    -3
100
AcDbLine
 10
749.8183961859158
 20
93.03621165018773
 30
0.0
 11
749.818396185917
 21
94.63090190354755
 31
0.0
  0
ARC
  5
5FED
330
1F
100
AcDbEntity
  8
0
 62
     7
 48
0.5
370
    -3
100
AcDbCircle
 10
749.1683961859157
 20
93.03621165018819
 30
0.0
 40
0.65
100
AcDbArc
 50
303.9062769884446
 51
359.9999999999609
  0
ARC
  5
5FEE
330
1F
100
AcDbEntity
  8
0
 62
     7
 48
0.5
370
    -3
100
AcDbCircle
 10
748.9183961859167
 20
94.63090190354817
 30
0.0
 40
0.9
100
AcDbArc
 50
359.9999999999609
 51
90.0
  0
LINE
  5
5FEF
330
1F
100
AcDbEntity
  8
0
 62
     7
 48
0.5
370
    -3
100
AcDbLine
 10
735.5183961858217
 20
113.0309019035484
 30
0.0
 11
735.5183961858217
 21
2113.030901903549
 31
0.0
  0
LINE
  5
5FF0
330
1F
100
AcDbEntity
  8
0
 62
     7
 48
0.5
370
    -3
100
AcDbLine
 10
740.5183961858218
 20
113.0309019035484
 30
0.0
 11
740.5183961858218
 21
2113.030901903548
 31
0.0
  0
LINE
  5
5FF1
330
1F
100
AcDbEntity
  8
0
 62
     7
 48
0.5
370
    -3
100
AcDbLine
 10
880.5183961858217
 20
113.0309019035483
 30
0.0
 11
880.5183961858217
 21
2113.030901903548
 31
0.0
  0
LINE
  5
5FF2
330
1F
100
AcDbEntity
  8
0
 62
     7
 48
0.5
370
    -3
100
AcDbLine
 10
885.5183961874702
 20
113.0309019035483
 30
0.0
 11
885.5183962482971
 21
2113.030901903548
 31
0.0
  0
LINE
  5
5FF3
330
1F
100
AcDbEntity
  8
0
 62
     7
 48
0.5
370
    -3
100
AcDbLine
 10
735.5183961858217
 20
113.0309019035484
 30
0.0
 11
885.5183961874702
 21
113.0309019035483
 31
0.0
  0
LINE
  5
5FF4
330
1F
100
AcDbEntity
  8
0
 62
     7
 48
0.5
370
    -3
100
AcDbLine
 10
735.5183961858222
 20
2113.030901903548
 30
0.0
 11
885.5183961874706
 21
2113.030901903548
 31
0.0
  0
LINE
  5
5FF5
330
1F
100
AcDbEntity
  8
0
 62
     2
 48
0.5
370
    -3
100
AcDbLine
 10
810.518396186646
 20
110.0309019035484
 30
0.0
 11
810.5183961866464
 21
2116.030901903548
 31
0.0
  0
MTEXT
  5
5FF6
330
1F
100
AcDbEntity
  8
0
 62
     1
 48
0.5
370
    -3
100
AcDbMText
 10
810.5183961858212
 20
-5.187078435460037
 30
0.0
 40
2.5
 41
32.05805302350382
 46
0.0
 71
     2
 72
     5
  1
5号
 73
     1
 44
1.0
1001
ACAD
1000
ACAD_MTEXT_COLUMN_INFO_BEGIN
1070
    75
1070
     2
1070
    79
1070
     0
1070
    76
1070
     1
1070
    78
1070
     0
1070
    48
1040
32.05805302350382
1070
    49
1040
12.5
1070
    50
1070
     1
1040
0.0
1000
ACAD_MTEXT_COLUMN_INFO_END
  0
MTEXT
  5
5FF7
330
1F
100
AcDbEntity
  8
0
 62
     1
 48
0.5
370
    -3
100
AcDbMText
 10
810.5183961858212
 20
-13.18707843546004
 30
0.0
 40
2.5
 41
32.05805302350382
 46
0.0
 71
     2
 72
     5
  1
EFMD5□
 73
     1
 44
1.0
1001
ACAD
1000
ACAD_MTEXT_COLUMN_INFO_BEGIN
1070
    75
1070
     2
1070
    79
1070
     0
1070
    76
1070
     1
1070
    78
1070
     0
1070
    48
1040
32.05805302350382
1070
    49
1040
12.5
1070
    50
1070
     1
1040
0.0
1000
ACAD_MTEXT_COLUMN_INFO_END
  0
LINE
  5
5FF8
330
1F
100
AcDbEntity
  8
0
 62
     7
 48
0.5
370
    -3
100
AcDbLine
 10
610.5074355078021
 20
103.00505877447
 30
0.0
 11
700.5074355078026
 21
103.00505877447
 31
0.0
  0
LINE
  5
5FF9
330
1F
100
AcDbEntity
  8
0
 62
     7
 48
0.5
370
    -3
100
AcDbLine
 10
626.6523767333325
 20
97.20505877447006
 30
0.0
 11
626.6523767333325
 21
100.00505877447
 31
0.0
  0
LINE
  5
5FFA
330
1F
100
AcDbEntity
  8
0
 62
     7
 48
0.5
370
    -3
100
AcDbLine
 10
698.8574355078243
 20
92.5050587744705
 30
0.0
 11
698.5129888041025
 21
92.5050587744705
 31
0.0
  0
ARC
  5
5FFB
330
1F
100
AcDbEntity
  8
0
 62
     7
 48
0.5
370
    -3
100
AcDbCircle
 10
698.5129888041025
 20
93.00505877447049
 30
0.0
 40
0.5
100
AcDbArc
 50
235.4374753511248
 51
270.0
  0
ARC
  5
5FFC
330
1F
100
AcDbEntity
  8
0
 62
     7
 48
0.5
370
    -3
100
AcDbCircle
 10
698.8574355078243
 20
93.00505877447049
 30
0.0
 40
0.5
100
AcDbArc
 50
270.0
 51
0.0
  0
LINE
  5
5FFD
330
1F
100
AcDbEntity
  8
0
 62
     7
 48
0.5
370
    -3
100
AcDbLine
 10
699.3574355078245
 20
93.00505877447049
 30
0.0
 11
699.3574355078245
 21
99.70505877447031
 31
0.0
  0
LINE
  5
5FFE
330
1F
100
AcDbEntity
  8
0
 62
     7
 48
0.5
370
    -3
100
AcDbLine
 10
696.357435507824
 20
97.50505877446995
 30
0.0
 11
696.3574355078243
 21
99.50505877447005
 31
0.0
  0
LINE
  5
5FFF
330
1F
100
AcDbEntity
  8
0
 62
     7
 48
0.5
370
    -3
100
AcDbLine
 10
689.8624942822745
 20
97.00505877447005
 30
0.0
 11
684.562494282273
 21
97.00505877447005
 31
0.0
  0
LINE
  5
6000
330
1F
100
AcDbEntity
  8
0
 62
     7
 48
0.5
370
    -3
100
AcDbLine
 10
695.8574355078241
 20
97.00505877447
 30
0.0
 11
693.8624942822745
 21
97.00505877447028
 31
0.0
  0
ARC
  5
6001
330
1F
100
AcDbEntity
  8
0
 62
     7
 48
0.5
370
    -3
100
AcDbCircle
 10
695.8574355078241
 20
97.50505877447
 30
0.0
 40
0.5
100
AcDbArc
 50
269.9999999999935
 51
359.9999999999941
  0
LINE
  5
6002
330
1F
100
AcDbEntity
  8
0
 62
     7
 48
0.5
370
    -3
100
AcDbLine
 10
693.3624942822754
 20
95.61485560409265
 30
0.0
 11
693.3624942822745
 21
96.50505877446981
 31
0.0
  0
LINE
  5
6003
330
1F
100
AcDbEntity
  8
0
 62
     7
 48
0.5
370
    -3
100
AcDbLine
 10
690.3624942822753
 20
95.61485560408902
 30
0.0
 11
690.3624942822744
 21
96.5050587744705
 31
0.0
  0
ARC
  5
6004
330
1F
100
AcDbEntity
  8
0
 62
     7
 48
0.5
370
    -3
100
AcDbCircle
 10
689.8624942822745
 20
96.50505877446981
 30
0.0
 40
0.5
100
AcDbArc
 50
0.0000000000521102
 51
90.00000000000651
  0
ARC
  5
6005
330
1F
100
AcDbEntity
  8
0
 62
     7
 48
0.5
370
    -3
100
AcDbCircle
 10
693.8624942822745
 20
96.50505877447004
 30
0.0
 40
0.5
100
AcDbArc
 50
90.00000000000651
 51
180.0000000000519
  0
LINE
  5
6006
330
1F
100
AcDbEntity
  8
0
 62
     7
 48
0.5
370
    -3
100
AcDbLine
 10
693.578482160102
 20
95.20334969349312
 30
0.0
 11
698.2124942822789
 21
92.00505877447051
 31
0.0
  0
LINE
  5
6007
330
1F
100
AcDbEntity
  8
0
 62
     7
 48
0.5
370
    -3
100
AcDbLine
 10
691.8744094270628
 20
92.73431422989334
 30
0.0
 11
696.3802022304208
 21
89.62451740027118
 31
0.0
  0
ARC
  5
6008
330
1F
100
AcDbEntity
  8
0
 62
     7
 48
0.5
370
    -3
100
AcDbCircle
 10
693.8624942822753
 20
95.61485560409265
 30
0.0
 40
3.499999999999999
100
AcDbArc
 50
180.0000000000519
 51
235.3874350951733
  0
ARC
  5
6009
330
1F
100
AcDbEntity
  8
0
 62
     7
 48
0.5
370
    -3
100
AcDbCircle
 10
693.8624942822753
 20
95.61485560409311
 30
0.0
 40
0.5
100
AcDbArc
 50
180.0000000000519
 51
235.3874350951652
  0
LINE
  5
600A
330
1F
100
AcDbEntity
  8
0
 62
     7
 48
0.5
370
    -3
100
AcDbLine
 10
701.512494282273
 20
92.00505877447026
 30
0.0
 11
698.2124942822789
 21
92.00505877447051
 31
0.0
  0
LINE
  5
600B
330
1F
100
AcDbEntity
  8
0
 62
     7
 48
0.5
370
    -3
100
AcDbLine
 10
701.5124942822727
 20
89.00505877447004
 30
0.0
 11
698.3682870856331
 21
89.0050587744705
 31
0.0
  0
ARC
  5
600C
330
1F
100
AcDbEntity
  8
0
 62
     7
 48
0.5
370
    -3
100
AcDbCircle
 10
698.3682870856333
 20
92.5050587744705
 30
0.0
 40
3.499999999999999
100
AcDbArc
 50
235.3874350951733
 51
270.0000000000065
  0
LINE
  5
600E
330
1F
100
AcDbEntity
  8
0
 62
     7
 48
0.5
370
    -3
100
AcDbLine
 10
695.2737828896991
 20
94.62935280028965
 30
0.0
 11
698.229336185977
 21
92.59330497396524
 31
0.0
  0
ARC
  5
600F
330
1F
100
AcDbEntity
  8
0
 62
     7
 48
0.5
370
    -3
100
AcDbCircle
 10
695.7574355078246
 20
96.30505877447001
 30
0.0
 40
0.7
100
AcDbArc
 50
89.99999999998697
 51
180.0000000000128
  0
LINE
  5
6010
330
1F
100
AcDbEntity
  8
0
 62
     7
 48
0.5
370
    -3
100
AcDbLine
 10
695.0574355078248
 20
95.04110660079469
 30
0.0
 11
695.0574355078246
 21
96.30505877446985
 31
0.0
  0
ARC
  5
6011
330
1F
100
AcDbEntity
  8
0
 62
     7
 48
0.5
370
    -3
100
AcDbCircle
 10
695.5574355078248
 20
95.04110660079469
 30
0.0
 40
0.5
100
AcDbArc
 50
180.0000000000128
 51
235.4374753511248
  0
LINE
  5
6012
330
1F
100
AcDbEntity
  8
0
 62
     7
 48
0.5
370
    -3
100
AcDbLine
 10
684.3624942822729
 20
97.20505877447005
 30
0.0
 11
684.3624942822729
 21
100.00505877447
 31
0.0
  0
ARC
  5
6013
330
1F
100
AcDbEntity
  8
0
 62
     7
 48
0.5
370
    -3
100
AcDbCircle
 10
695.8574355078027
 20
99.50505877446126
 30
0.0
 40
0.5
100
AcDbArc
 50
359.9999999999874
 51
89.99999999998697
  0
LINE
  5
6014
330
1F
100
AcDbEntity
  8
0
 62
     7
 48
0.5
370
    -3
100
AcDbLine
 10
763.7124942822713
 20
99.5309019035484
 30
0.0
 11
763.7124942822713
 21
95.73090190354795
 31
0.0
  0
LINE
  5
6015
330
1F
100
AcDbEntity
  8
0
 62
     7
 48
0.5
370
    -3
100
AcDbLine
 10
748.9183961859167
 20
95.53090190354817
 30
0.0
 11
748.3683961859155
 21
95.53090190354815
 31
0.0
  0
LINE
  5
6016
330
1F
100
AcDbEntity
  8
0
 62
     7
 48
0.5
370
    -3
100
AcDbLine
 10
876.6683961857257
 20
89.53090190354862
 30
0.0
 11
876.1165399551169
 21
89.53090190354862
 31
0.0
  0
ARC
  5
6017
330
1F
100
AcDbEntity
  8
0
 62
     7
 48
0.5
370
    -3
100
AcDbCircle
 10
876.6683961857257
 20
90.18090190354872
 30
0.0
 40
0.65
100
AcDbArc
 50
270.0
 51
0.0000000000065138
  0
LINE
  5
6018
330
1F
100
AcDbEntity
  8
0
 62
     7
 48
0.5
370
    -3
100
AcDbLine
 10
877.3183961857258
 20
90.18090190354872
 30
0.0
 11
877.3183961857252
 21
98.63090190354832
 31
0.0
  0
LINE
  5
6019
330
1F
100
AcDbEntity
  8
0
 62
     7
 48
0.5
370
    -3
100
AcDbLine
 10
873.3183961857262
 20
96.18090190354816
 30
0.0
 11
873.3183961857248
 21
98.8809019035483
 31
0.0
  0
ARC
  5
601A
330
1F
100
AcDbEntity
  8
0
 62
     7
 48
0.5
370
    -3
100
AcDbCircle
 10
876.1165399551169
 20
90.18090190354849
 30
0.0
 40
0.65
100
AcDbArc
 50
236.0937230115632
 51
270.000000000013
  0
LINE
  5
601B
330
1F
100
AcDbEntity
  8
0
 62
     7
 48
0.5
370
    -3
100
AcDbLine
 10
880.1242980893713
 20
88.83090190354812
 30
0.0
 11
875.8242980893712
 21
88.83090190354742
 31
0.0
  0
LINE
  5
601C
330
1F
100
AcDbEntity
  8
0
 62
     7
 48
0.5
370
    -3
100
AcDbLine
 10
880.1242980893707
 20
84.83090190354801
 30
0.0
 11
876.0273427999877
 21
84.83090190354767
 31
0.0
  0
LINE
  5
601D
330
1F
100
AcDbEntity
  8
0
 62
     7
 48
0.5
370
    -3
100
AcDbLine
 10
864.6742980893721
 20
95.53090190354794
 30
0.0
 11
857.5242980893703
 21
95.53090190354794
 31
0.0
  0
ARC
  5
601E
330
1F
100
AcDbEntity
  8
0
 62
     7
 48
0.5
370
    -3
100
AcDbCircle
 10
864.6742980893723
 20
94.88090190354808
 30
0.0
 40
0.6499999999999999
100
AcDbArc
 50
0.000000000058624
 51
90.0
  0
LINE
  5
601F
330
1F
100
AcDbEntity
  8
0
 62
     7
 48
0.5
370
    -3
100
AcDbLine
 10
872.1183961857249
 20
95.53090190354817
 30
0.0
 11
869.974298089372
 21
95.5309019035484
 31
0.0
  0
LINE
  5
6020
330
1F
100
AcDbEntity
  8
0
 62
     7
 48
0.5
370
    -3
100
AcDbLine
 10
869.3242980893735
 20
93.67147131858985
 30
0.0
 11
869.3242980893721
 21
94.88090190354773
 31
0.0
  0
ARC
  5
6021
330
1F
100
AcDbEntity
  8
0
 62
     7
 48
0.5
370
    -3
100
AcDbCircle
 10
869.9742980893738
 20
93.67147131859075
 30
0.0
 40
0.65
100
AcDbArc
 50
180.000000000078
 51
235.3048464687457
  0
ARC
  5
6022
330
1F
100
AcDbEntity
  8
0
 62
     7
 48
0.5
370
    -3
100
AcDbCircle
 10
869.9742980893722
 20
94.88090190354853
 30
0.0
 40
0.6499999999999999
100
AcDbArc
 50
90.0
 51
180.0000000000715
  0
LINE
  5
6023
330
1F
100
AcDbEntity
  8
0
 62
     7
 48
0.5
370
    -3
100
AcDbLine
 10
865.324298089374
 20
93.67147131858519
 30
0.0
 11
865.3242980893725
 21
94.88090190354865
 31
0.0
  0
ARC
  5
6024
330
1F
100
AcDbEntity
  8
0
 62
     7
 48
0.5
370
    -3
100
AcDbCircle
 10
869.9742980893741
 20
93.67147131859054
 30
0.0
 40
4.649999999999999
100
AcDbArc
 50
180.0000000000649
 51
235.3048464687457
  0
LINE
  5
6025
330
1F
100
AcDbEntity
  8
0
 62
     7
 48
0.5
370
    -3
100
AcDbLine
 10
875.8242980893712
 20
88.83090190354742
 30
0.0
 11
869.604311603134
 21
93.13704639402237
 31
0.0
  0
LINE
  5
6026
330
1F
100
AcDbEntity
  8
0
 62
     7
 48
0.5
370
    -3
100
AcDbLine
 10
873.380516398425
 20
85.65770821240482
 30
0.0
 11
867.3274716878118
 21
89.84827762744783
 31
0.0
  0
ARC
  5
6027
330
1F
100
AcDbEntity
  8
0
 62
     7
 48
0.5
370
    -3
100
AcDbCircle
 10
876.0273427999873
 20
89.48090190354752
 30
0.0
 40
4.649999999999999
100
AcDbArc
 50
235.3048464687457
 51
270.000000000013
  0
LINE
  5
6029
330
1F
100
AcDbEntity
  8
0
 62
     7
 48
0.5
370
    -3
100
AcDbLine
 10
871.5058027617446
 20
92.49674338524062
 30
0.0
 11
875.7539465311356
 21
89.64143363860092
 31
0.0
  0
ARC
  5
602A
330
1F
100
AcDbEntity
  8
0
 62
     7
 48
0.5
370
    -3
100
AcDbCircle
 10
872.6683961857261
 20
96.18090190354816
 30
0.0
 40
0.65
100
AcDbArc
 50
270.0
 51
0.0
  0
LINE
  5
602B
330
1F
100
AcDbEntity
  8
0
 62
     7
 48
0.5
370
    -3
100
AcDbLine
 10
871.2183961857258
 20
93.03621165018773
 30
0.0
 11
871.2183961857247
 21
94.63090190354755
 31
0.0
  0
ARC
  5
602C
330
1F
100
AcDbEntity
  8
0
 62
     7
 48
0.5
370
    -3
100
AcDbCircle
 10
871.8683961857259
 20
93.03621165018819
 30
0.0
 40
0.65
100
AcDbArc
 50
180.0000000000389
 51
236.0937230115553
  0
ARC
  5
602D
330
1F
100
AcDbEntity
  8
0
 62
     7
 48
0.5
370
    -3
100
AcDbCircle
 10
872.1183961857249
 20
94.63090190354817
 30
0.0
 40
0.9
100
AcDbArc
 50
90.0
 51
180.0000000000389
  0
LINE
  5
602E
330
1F
100
AcDbEntity
  8
0
 62
     7
 48
0.5
370
    -3
100
AcDbLine
 10
857.3242980893704
 20
99.5309019035484
 30
0.0
 11
857.3242980893704
 21
95.73090190354795
 31
0.0
  0
LINE
  5
602F
330
1F
100
AcDbEntity
  8
0
 62
     7
 48
0.5
370
    -3
100
AcDbLine
 10
872.1183961857249
 20
95.53090190354817
 30
0.0
 11
872.6683961857261
 21
95.53090190354815
 31
0.0
  0
LINE
  5
60FC
330
1F
100
AcDbEntity
  8
0
 62
     7
 48
0.5
370
    -3
100
AcDbLine
 10
444.5902587874031
 20
3.0
 30
0.0
 11
326.2179819940597
 21
3.0
 31
0.0
  0
LINE
  5
6101
330
1F
100
AcDbEntity
  8
0
 62
     7
 48
0.5
370
    -3
100
AcDbLine
 10
320.4179819940596
 20
58.84999999999994
 30
0.0
 11
320.4179819940597
 21
8.800000000000011
 31
0.0
  0
ARC
  5
6102
330
1F
100
AcDbEntity
  8
0
 62
     7
 48
0.5
370
    -3
100
AcDbCircle
 10
326.2179819940597
 20
8.800000000000011
 30
0.0
 40
5.799999999999999
100
AcDbArc
 50
180.0
 51
270.0
  0
LINE
  5
6103
330
1F
100
AcDbEntity
  8
0
 62
     7
 48
0.5
370
    -3
100
AcDbLine
 10
323.2179819940597
 20
59.34999999999994
 30
0.0
 11
323.2179819940597
 21
53.65000000000009
 31
0.0
  0
ARC
  5
6104
330
1F
100
AcDbEntity
  8
0
 62
     7
 48
0.5
370
    -3
100
AcDbCircle
 10
322.7679819940599
 20
59.34999999999999
 30
0.0
 40
0.45
100
AcDbArc
 50
0.0
 51
90.0
  0
ARC
  5
6105
330
1F
100
AcDbEntity
  8
0
 62
     7
 48
0.5
370
    -3
100
AcDbCircle
 10
324.1679819940598
 20
53.65000000000009
 30
0.0
 40
0.95
100
AcDbArc
 50
180.0
 51
270.0
  0
LINE
  5
6106
330
1F
100
AcDbEntity
  8
0
 62
     7
 48
0.5
370
    -3
100
AcDbLine
 10
323.2179819940597
 20
48.94999999999993
 30
0.0
 11
323.2179819940598
 21
8.049999999999954
 31
0.0
  0
ARC
  5
6107
330
1F
100
AcDbEntity
  8
0
 62
     7
 48
0.5
370
    -3
100
AcDbCircle
 10
325.4679819940598
 20
8.049999999999954
 30
0.0
 40
2.25
100
AcDbArc
 50
180.0
 51
270.0
  0
LINE
  5
610A
330
1F
100
AcDbEntity
  8
0
 62
     7
 48
0.5
370
    -3
100
AcDbLine
 10
331.7679819940598
 20
56.95000000000004
 30
0.0
 11
331.7679819940598
 21
56.08577882579857
 31
0.0
  0
ARC
  5
610B
330
1F
100
AcDbEntity
  8
0
 62
     7
 48
0.5
370
    -3
100
AcDbCircle
 10
331.3179819940597
 20
56.95000000000004
 30
0.0
 40
0.45
100
AcDbArc
 50
0.0
 51
90.0
  0
ARC
  5
610C
330
1F
100
AcDbEntity
  8
0
 62
     7
 48
0.5
370
    -3
100
AcDbCircle
 10
331.3179819940597
 20
56.0857788257984
 30
0.0
 40
0.45
100
AcDbArc
 50
304.6951535312376
 51
0.0
  0
LINE
  5
610D
330
1F
100
AcDbEntity
  8
0
 62
     7
 48
0.5
370
    -3
100
AcDbLine
 10
334.5679819940597
 20
56.95000000000004
 30
0.0
 11
334.5679819940597
 21
56.0857788257984
 31
0.0
  0
ARC
  5
610E
330
1F
100
AcDbEntity
  8
0
 62
     7
 48
0.5
370
    -3
100
AcDbCircle
 10
331.3179819940597
 20
56.0857788257984
 30
0.0
 40
3.25
100
AcDbArc
 50
304.6951535312376
 51
0.0
  0
LINE
  5
610F
330
1F
100
AcDbEntity
  8
0
 62
     7
 48
0.5
370
    -3
100
AcDbLine
 10
321.3679819940597
 20
59.80000000000001
 30
0.0
 11
322.7679819940596
 21
59.80000000000015
 31
0.0
  0
ARC
  5
6110
330
1F
100
AcDbEntity
  8
0
 62
     7
 48
0.5
370
    -3
100
AcDbCircle
 10
321.3679819940599
 20
58.84999999999994
 30
0.0
 40
0.95
100
AcDbArc
 50
90.0
 51
180.0
  0
LINE
  5
6111
330
1F
100
AcDbEntity
  8
0
 62
     7
 48
0.5
370
    -3
100
AcDbLine
 10
327.2179819940598
 20
52.69999999999992
 30
0.0
 11
324.1679819940596
 21
52.70000000000004
 31
0.0
  0
LINE
  5
6112
330
1F
100
AcDbEntity
  8
0
 62
     7
 48
0.5
370
    -3
100
AcDbLine
 10
327.077412579018
 20
49.90000000000032
 30
0.0
 11
324.1679819940598
 21
49.9000000000002
 31
0.0
  0
ARC
  5
6113
330
1F
100
AcDbEntity
  8
0
 62
     7
 48
0.5
370
    -3
100
AcDbCircle
 10
324.1679819940596
 20
48.95000000000016
 30
0.0
 40
0.95
100
AcDbArc
 50
90.0
 51
180.0
  0
LINE
  5
6116
330
1F
100
AcDbEntity
  8
0
 62
     7
 48
0.5
370
    -3
100
AcDbLine
 10
339.9679819940597
 20
57.40000000000018
 30
0.0
 11
335.0179819940598
 21
57.40000000000015
 31
0.0
  0
ARC
  5
6117
330
1F
100
AcDbEntity
  8
0
 62
     7
 48
0.5
370
    -3
100
AcDbCircle
 10
335.0179819940596
 20
56.94999999999999
 30
0.0
 40
0.45
100
AcDbArc
 50
90.0
 51
179.9999999999967
  0
LINE
  5
6118
330
1F
100
AcDbEntity
  8
0
 62
     7
 48
0.5
370
    -3
100
AcDbLine
 10
331.3179819940598
 20
57.40000000000003
 30
0.0
 11
329.4616203907314
 21
57.40000000000019
 31
0.0
  0
LINE
  5
611B
330
1F
100
AcDbEntity
  8
0
 62
     7
 48
0.5
370
    -3
100
AcDbLine
 10
327.2179819940598
 20
52.69999999999992
 30
0.0
 11
331.5741264845335
 21
55.71579233955873
 31
0.0
  0
LINE
  5
611D
330
1F
100
AcDbEntity
  8
0
 62
     7
 48
0.5
370
    -3
100
AcDbLine
 10
328.9273450102165
 20
50.47787537715795
 30
0.0
 11
333.1679144252583
 21
53.4136542029563
 31
0.0
  0
ARC
  5
611E
330
1F
100
AcDbEntity
  8
0
 62
     7
 48
0.5
370
    -3
100
AcDbCircle
 10
327.0774125790179
 20
53.15000000000026
 30
0.0
 40
3.25
100
AcDbArc
 50
270.0
 51
304.6951535312376
  0
LINE
  5
6120
330
1F
100
AcDbEntity
  8
0
 62
     2
 48
0.5
100
AcDbLine
 10
385.4041203907314
 20
65.99999999999988
 30
0.0
 11
385.4041203907314
 21
0.0
 31
0.0
  0
LINE
  5
6122
330
1F
100
AcDbEntity
  8
0
 62
     7
 48
0.5
370
    -3
100
AcDbLine
 10
450.390258787403
 20
58.84999999999997
 30
0.0
 11
450.390258787403
 21
8.800000000000011
 31
0.0
  0
ARC
  5
6123
330
1F
100
AcDbEntity
  8
0
 62
     7
 48
0.5
370
    -3
100
AcDbCircle
 10
444.5902587874031
 20
8.800000000000011
 30
0.0
 40
5.799999999999999
100
AcDbArc
 50
270.0
 51
0.0
  0
LINE
  5
6124
330
1F
100
AcDbEntity
  8
0
 62
     7
 48
0.5
370
    -3
100
AcDbLine
 10
447.590258787403
 20
59.34999999999996
 30
0.0
 11
447.5902587874029
 21
53.65000000000015
 31
0.0
  0
ARC
  5
6125
330
1F
100
AcDbEntity
  8
0
 62
     7
 48
0.5
370
    -3
100
AcDbCircle
 10
448.0402587874031
 20
59.35000000000002
 30
0.0
 40
0.45
100
AcDbArc
 50
90.0
 51
180.0
  0
ARC
  5
6126
330
1F
100
AcDbEntity
  8
0
 62
     7
 48
0.5
370
    -3
100
AcDbCircle
 10
446.6402587874029
 20
53.65000000000009
 30
0.0
 40
0.95
100
AcDbArc
 50
270.0
 51
0.0
  0
LINE
  5
6127
330
1F
100
AcDbEntity
  8
0
 62
     7
 48
0.5
370
    -3
100
AcDbLine
 10
447.590258787403
 20
48.94999999999993
 30
0.0
 11
447.590258787403
 21
8.049999999999954
 31
0.0
  0
ARC
  5
6128
330
1F
100
AcDbEntity
  8
0
 62
     7
 48
0.5
370
    -3
100
AcDbCircle
 10
445.340258787403
 20
8.049999999999954
 30
0.0
 40
2.25
100
AcDbArc
 50
270.0
 51
0.0
  0
LINE
  5
6130
330
1F
100
AcDbEntity
  8
0
 62
     7
 48
0.5
370
    -3
100
AcDbLine
 10
449.440258787403
 20
59.80000000000001
 30
0.0
 11
448.0402587874031
 21
59.80000000000018
 31
0.0
  0
ARC
  5
6131
330
1F
100
AcDbEntity
  8
0
 62
     7
 48
0.5
370
    -3
100
AcDbCircle
 10
449.440258787403
 20
58.84999999999997
 30
0.0
 40
0.95
100
AcDbArc
 50
0.0
 51
90.0
  0
ARC
  5
6134
330
1F
100
AcDbEntity
  8
0
 62
     7
 48
0.5
370
    -3
100
AcDbCircle
 10
446.6402587874029
 20
48.95000000000016
 30
0.0
 40
0.95
100
AcDbArc
 50
0.0
 51
90.0
  0
LINE
  5
6141
330
1F
100
AcDbEntity
  8
0
 62
     7
 48
0.5
370
    -3
100
AcDbLine
 10
325.4041203907314
 20
62.99999999999989
 30
0.0
 11
445.4041203907314
 21
63.0
 31
0.0
  0
LINE
  5
6142
330
1F
100
AcDbEntity
  8
0
 62
     7
 48
0.5
370
    -3
100
AcDbLine
 10
329.4041203907314
 20
60.19999999999988
 30
0.0
 11
441.4041203907314
 21
60.20000000000021
 31
0.0
  0
ARC
  5
6145
330
1F
100
AcDbEntity
  8
0
 62
     7
 48
0.5
370
    -3
100
AcDbCircle
 10
329.4041203907314
 20
59.74999999999988
 30
0.0
 40
0.45
100
AcDbArc
 50
90.0
 51
180.0
  0
LINE
  5
6146
330
1F
100
AcDbEntity
  8
0
 62
     7
 48
0.5
370
    -3
100
AcDbLine
 10
329.5041203907314
 20
57.40000000000017
 30
0.0
 11
329.4191203907314
 21
57.40000000000017
 31
0.0
  0
ARC
  5
6147
330
1F
100
AcDbEntity
  8
0
 62
     7
 48
0.5
370
    -3
100
AcDbCircle
 10
329.5041203907314
 20
56.75000000000019
 30
0.0
 40
0.65
100
AcDbArc
 50
0.0
 51
90.0
  0
LINE
  5
6148
330
1F
100
AcDbEntity
  8
0
 62
     7
 48
0.5
370
    -3
100
AcDbLine
 10
325.8541203907315
 20
60.20000000000004
 30
0.0
 11
321.0541203907314
 21
60.20000000000004
 31
0.0
  0
LINE
  5
6149
330
1F
100
AcDbEntity
  8
0
 62
     7
 48
0.5
370
    -3
100
AcDbLine
 10
326.9658555547251
 20
53.20000000000004
 30
0.0
 11
326.6041203907315
 21
53.20000000000004
 31
0.0
  0
ARC
  5
614A
330
1F
100
AcDbEntity
  8
0
 62
     7
 48
0.5
370
    -3
100
AcDbCircle
 10
326.6041203907315
 20
53.65000000000009
 30
0.0
 40
0.45
100
AcDbArc
 50
180.0
 51
270.0
  0
LINE
  5
614B
330
1F
100
AcDbEntity
  8
0
 62
     7
 48
0.5
370
    -3
100
AcDbLine
 10
320.4041203907314
 20
61.59999999999991
 30
0.0
 11
320.4041203907314
 21
60.85000000000002
 31
0.0
  0
ARC
  5
614C
330
1F
100
AcDbEntity
  8
0
 62
     7
 48
0.5
370
    -3
100
AcDbCircle
 10
321.0541203907314
 20
60.85000000000002
 30
0.0
 40
0.65
100
AcDbArc
 50
180.0
 51
270.0
  0
LINE
  5
614D
330
1F
100
AcDbEntity
  8
0
 62
     7
 48
0.5
370
    -3
100
AcDbLine
 10
326.1541203907314
 20
53.65000000000009
 30
0.0
 11
326.1541203907314
 21
59.90000000000009
 31
0.0
  0
ARC
  5
614E
330
1F
100
AcDbEntity
  8
0
 62
     7
 48
0.5
370
    -3
100
AcDbCircle
 10
325.8541203907315
 20
59.90000000000009
 30
0.0
 40
0.3
100
AcDbArc
 50
0.0
 51
90.0
  0
LINE
  5
614F
330
1F
100
AcDbEntity
  8
0
 62
     7
 48
0.5
370
    -3
100
AcDbLine
 10
330.1541203907314
 20
55.50810828157569
 30
0.0
 11
330.1541203907314
 21
56.75000000000019
 31
0.0
  0
ARC
  5
6150
330
1F
100
AcDbEntity
  8
0
 62
     7
 48
0.5
370
    -3
100
AcDbCircle
 10
329.7041203907314
 20
55.50810828157569
 30
0.0
 40
0.45
100
AcDbArc
 50
304.1596945456667
 51
0.0
  0
LINE
  5
6151
330
1F
100
AcDbEntity
  8
0
 62
     7
 48
0.5
370
    -3
100
AcDbLine
 10
328.9541203907313
 20
57.8650000000002
 30
0.0
 11
328.9541203907313
 21
59.74999999999988
 31
0.0
  0
ARC
  5
6152
330
1F
100
AcDbEntity
  8
0
 62
     7
 48
0.5
370
    -3
100
AcDbCircle
 10
329.4191203907314
 20
57.8650000000002
 30
0.0
 40
0.4650000000000001
100
AcDbArc
 50
180.0
 51
270.0
  0
LINE
  5
6153
330
1F
100
AcDbEntity
  8
0
 62
     7
 48
0.5
370
    -3
100
AcDbLine
 10
320.4041203907314
 20
61.60000000000002
 30
0.0
 11
325.4041203907314
 21
63.0
 31
0.0
  0
LINE
  5
6154
330
1F
100
AcDbEntity
  8
0
 62
     7
 48
0.5
370
    -3
100
AcDbLine
 10
327.218531192977
 20
53.27763590152381
 30
0.0
 11
329.9567960289832
 21
55.1357441830994
 31
0.0
  0
ARC
  5
6155
330
1F
100
AcDbEntity
  8
0
 62
     7
 48
0.5
370
    -3
100
AcDbCircle
 10
326.9658555547251
 20
53.65000000000009
 30
0.0
 40
0.45
100
AcDbArc
 50
270.0
 51
304.1596945456667
  0
LINE
  5
6159
330
1F
100
AcDbEntity
  8
0
 62
     7
 48
0.5
370
    -3
100
AcDbLine
 10
444.9541203907314
 20
60.20000000000004
 30
0.0
 11
449.7541203907314
 21
60.20000000000004
 31
0.0
  0
LINE
  5
615C
330
1F
100
AcDbEntity
  8
0
 62
     7
 48
0.5
370
    -3
100
AcDbLine
 10
450.4041203907314
 20
61.59999999999991
 30
0.0
 11
450.4041203907314
 21
60.85000000000002
 31
0.0
  0
ARC
  5
615D
330
1F
100
AcDbEntity
  8
0
 62
     7
 48
0.5
370
    -3
100
AcDbCircle
 10
449.7541203907314
 20
60.85000000000002
 30
0.0
 40
0.65
100
AcDbArc
 50
270.0
 51
0.0
  0
ARC
  5
615F
330
1F
100
AcDbEntity
  8
0
 62
     7
 48
0.5
370
    -3
100
AcDbCircle
 10
444.9541203907314
 20
59.90000000000009
 30
0.0
 40
0.3
100
AcDbArc
 50
90.0
 51
180.0
  0
LINE
  5
6164
330
1F
100
AcDbEntity
  8
0
 62
     7
 48
0.5
370
    -3
100
AcDbLine
 10
450.4041203907314
 20
61.60000000000002
 30
0.0
 11
445.4041203907314
 21
63.0
 31
0.0
  0
LINE
  5
61FD
330
1F
100
AcDbEntity
  8
0
 62
     7
 48
0.5
370
    -3
100
AcDbLine
 10
325.4679819940598
 20
5.799999999999954
 30
0.0
 11
445.340258787403
 21
5.799999999999954
 31
0.0
  0
MTEXT
  5
6200
330
1F
100
AcDbEntity
  8
0
 62
     1
 48
0.5
370
    -3
100
AcDbMText
 10
385.4041203907314
 20
-5.0
 30
0.0
 40
2.5
 41
32.05805302350382
 46
0.0
 71
     2
 72
     5
  1
130×60型
 73
     1
 44
1.0
1001
ACAD
1000
ACAD_MTEXT_COLUMN_INFO_BEGIN
1070
    75
1070
     2
1070
    79
1070
     0
1070
    76
1070
     1
1070
    78
1070
     0
1070
    48
1040
32.05805302350382
1070
    49
1040
12.5
1070
    50
1070
     1
1040
0.0
1000
ACAD_MTEXT_COLUMN_INFO_END
  0
MTEXT
  5
6201
330
1F
100
AcDbEntity
  8
0
 62
     1
 48
0.5
370
    -3
100
AcDbMText
 10
385.4041203907314
 20
-13.0
 30
0.0
 40
2.5
 41
32.05805302350382
 46
0.0
 71
     2
 72
     5
  1
EFMD3□
 73
     1
 44
1.0
1001
ACAD
1000
ACAD_MTEXT_COLUMN_INFO_BEGIN
1070
    75
1070
     2
1070
    79
1070
     0
1070
    76
1070
     1
1070
    78
1070
     0
1070
    48
1040
32.05805302350382
1070
    49
1040
12.5
1070
    50
1070
     1
1040
0.0
1000
ACAD_MTEXT_COLUMN_INFO_END
  0
LINE
  5
6202
330
1F
100
AcDbEntity
  8
0
 62
     7
 48
0.5
370
    -3
100
AcDbLine
 10
320.4179819940596
 20
72.99999999999986
 30
0.0
 11
320.4179819940596
 21
2073.0
 31
0.0
  0
LINE
  5
6203
330
1F
100
AcDbEntity
  8
0
 62
     7
 48
0.5
370
    -3
100
AcDbLine
 10
325.4179819940596
 20
72.99999999999986
 30
0.0
 11
325.4179819940596
 21
2073.0
 31
0.0
  0
LINE
  5
6206
330
1F
100
AcDbEntity
  8
0
 62
     7
 48
0.5
370
    -3
100
AcDbLine
 10
320.4179819940596
 20
72.99999999999989
 30
0.0
 11
450.3902587874032
 21
72.99999999999986
 31
0.0
  0
LINE
  5
6207
330
1F
100
AcDbEntity
  8
0
 62
     7
 48
0.5
370
    -3
100
AcDbLine
 10
320.4179819940596
 20
2073.0
 30
0.0
 11
450.3902587874032
 21
2073.0
 31
0.0
  0
LINE
  5
6208
330
1F
100
AcDbEntity
  8
0
 62
     2
 48
0.5
370
    -3
100
AcDbLine
 10
385.4041203907314
 20
69.99999999999989
 30
0.0
 11
385.4041203907323
 21
2076.0
 31
0.0
  0
LINE
  5
6209
330
1F
100
AcDbEntity
  8
0
 62
     7
 48
0.5
370
    -3
100
AcDbLine
 10
450.3902587874032
 20
72.99999999999986
 30
0.0
 11
450.3902587874032
 21
2073.0
 31
0.0
  0
LINE
  5
620A
330
1F
100
AcDbEntity
  8
0
 62
     7
 48
0.5
370
    -3
100
AcDbLine
 10
445.3902587874032
 20
72.99999999999986
 30
0.0
 11
445.3902587874032
 21
2073.0
 31
0.0
  0
LINE
  5
62E3
330
1F
100
AcDbEntity
  8
0
 62
     7
 48
0.5
370
    -3
100
AcDbLine
 10
922.5242980893703
 20
3.0
 30
0.0
 11
1108.536101896464
 21
3.0
 31
0.0
  0
LINE
  5
62EB
330
1F
100
AcDbEntity
  8
0
 62
     2
 48
0.5
370
    -3
100
AcDbLine
 10
1015.530199992918
 20
106.0309019035476
 30
0.0
 11
1015.530199992917
 21
0.0
 31
0.0
  0
LINE
  5
62EE
330
1F
100
AcDbEntity
  8
0
 62
     7
 48
0.5
370
    -3
100
AcDbLine
 10
920.5301999928492
 20
103.0309019035476
 30
0.0
 11
1110.530199992988
 21
103.0309019035476
 31
0.0
  0
LINE
  5
62EF
330
1F
100
AcDbEntity
  8
0
 62
     7
 48
0.5
370
    -3
100
AcDbLine
 10
928.3801999930155
 20
99.53090190354851
 30
0.0
 11
1102.680199992966
 21
99.53090190354851
 31
0.0
  0
ARC
  5
62F7
330
1F
100
AcDbEntity
  8
0
 62
     7
 48
0.5
370
    -3
100
AcDbCircle
 10
928.3801999930155
 20
98.88090190354853
 30
0.0
 40
0.65
100
AcDbArc
 50
90.0
 51
180.0
  0
LINE
  5
62F8
330
1F
100
AcDbEntity
  8
0
 62
     7
 48
0.5
370
    -3
100
AcDbLine
 10
924.3801999930145
 20
89.53090190354885
 30
0.0
 11
924.9320562236233
 21
89.53090190354874
 31
0.0
  0
ARC
  5
62F9
330
1F
100
AcDbEntity
  8
0
 62
     7
 48
0.5
370
    -3
100
AcDbCircle
 10
924.3801999930145
 20
90.18090190354882
 30
0.0
 40
0.65
100
AcDbArc
 50
179.9999999999935
 51
270.0
  0
LINE
  5
62FA
330
1F
100
AcDbEntity
  8
0
 62
     7
 48
0.5
370
    -3
100
AcDbLine
 10
915.530199993015
 20
99.9309019035212
 30
0.0
 11
915.5301999929664
 21
101.5309019035622
 31
0.0
  0
LINE
  5
62FB
330
1F
100
AcDbEntity
  8
0
 62
     7
 48
0.5
370
    -3
100
AcDbLine
 10
923.3301999930148
 20
99.03090190354852
 30
0.0
 11
916.4301999930152
 21
99.03090190354852
 31
0.0
  0
ARC
  5
62FC
330
1F
100
AcDbEntity
  8
0
 62
     7
 48
0.5
370
    -3
100
AcDbCircle
 10
916.4301999930152
 20
99.93090190354848
 30
0.0
 40
0.9
100
AcDbArc
 50
180.0000000017391
 51
270.0
  0
LINE
  5
62FD
330
1F
100
AcDbEntity
  8
0
 62
     7
 48
0.5
370
    -3
100
AcDbLine
 10
923.7301999930144
 20
90.18090190354882
 30
0.0
 11
923.7301999930149
 21
98.63090190354853
 31
0.0
  0
ARC
  5
62FE
330
1F
100
AcDbEntity
  8
0
 62
     7
 48
0.5
370
    -3
100
AcDbCircle
 10
923.3301999930148
 20
98.63090190354853
 30
0.0
 40
0.4
100
AcDbArc
 50
359.9999999999935
 51
90.0
  0
LINE
  5
62FF
330
1F
100
AcDbEntity
  8
0
 62
     7
 48
0.5
370
    -3
100
AcDbLine
 10
927.7301999930154
 20
96.42241699757272
 30
0.0
 11
927.7301999930154
 21
98.88090190354853
 31
0.0
  0
ARC
  5
6300
330
1F
100
AcDbEntity
  8
0
 62
     7
 48
0.5
370
    -3
100
AcDbCircle
 10
924.9320562236233
 20
90.18090190354872
 30
0.0
 40
0.65
100
AcDbArc
 50
269.999999999987
 51
303.9062769884368
  0
LINE
  5
6301
330
1F
100
AcDbEntity
  8
0
 62
     7
 48
0.5
370
    -3
100
AcDbLine
 10
915.53019999292
 20
101.5309019035485
 30
0.0
 11
920.5301999929201
 21
103.0309019035485
 31
0.0
  0
ARC
  5
6302
330
1F
100
AcDbEntity
  8
0
 62
     7
 48
0.5
370
    -3
100
AcDbCircle
 10
922.5242980893703
 20
10.00000000000011
 30
0.0
 40
7.0
100
AcDbArc
 50
180.0
 51
270.0
  0
LINE
  5
6303
330
1F
100
AcDbEntity
  8
0
 62
     7
 48
0.5
370
    -3
100
AcDbLine
 10
915.5242980893703
 20
97.23090190354856
 30
0.0
 11
915.5242980893707
 21
10.00000000000011
 31
0.0
  0
LINE
  5
6304
330
1F
100
AcDbEntity
  8
0
 62
     7
 48
0.5
370
    -3
100
AcDbLine
 10
919.5242980893702
 20
10.00000000000011
 30
0.0
 11
919.5242980893699
 21
83.43090190354827
 31
0.0
  0
ARC
  5
6305
330
1F
100
AcDbEntity
  8
0
 62
     7
 48
0.5
370
    -3
100
AcDbCircle
 10
922.5242980893698
 20
10.00000000000011
 30
0.0
 40
3.0
100
AcDbArc
 50
180.0
 51
270.0
  0
ARC
  5
6306
330
1F
100
AcDbEntity
  8
0
 62
     7
 48
0.5
370
    -3
100
AcDbCircle
 10
916.9242980893699
 20
97.23090190354845
 30
0.0
 40
1.399999999999999
100
AcDbArc
 50
90.0
 51
180.0
  0
ARC
  5
6307
330
1F
100
AcDbEntity
  8
0
 62
     7
 48
0.5
370
    -3
100
AcDbCircle
 10
920.9242980893694
 20
83.43090190354814
 30
0.0
 40
1.399999999999999
100
AcDbArc
 50
89.99999999998697
 51
180.0
  0
LINE
  5
6308
330
1F
100
AcDbEntity
  8
0
 62
     7
 48
0.5
370
    -3
100
AcDbLine
 10
919.5242980893693
 20
90.23090190354855
 30
0.0
 11
919.5242980893702
 21
97.98090190354834
 31
0.0
  0
ARC
  5
6309
330
1F
100
AcDbEntity
  8
0
 62
     7
 48
0.5
370
    -3
100
AcDbCircle
 10
918.8742980893701
 20
97.98090190354844
 30
0.0
 40
0.6499999999999999
100
AcDbArc
 50
359.999999999987
 51
90.0
  0
LINE
  5
630C
330
1F
100
AcDbEntity
  8
0
 62
     7
 48
0.5
370
    -3
100
AcDbLine
 10
916.9242980893706
 20
98.63090190354842
 30
0.0
 11
918.8742980893701
 21
98.63090190354842
 31
0.0
  0
LINE
  5
630D
330
1F
100
AcDbEntity
  8
0
 62
     7
 48
0.5
370
    -3
100
AcDbLine
 10
920.9242980893689
 20
88.83090190354824
 30
0.0
 11
925.2242980893694
 21
88.83090190354764
 31
0.0
  0
ARC
  5
630E
330
1F
100
AcDbEntity
  8
0
 62
     7
 48
0.5
370
    -3
100
AcDbCircle
 10
920.9242980893693
 20
90.23090190354821
 30
0.0
 40
1.399999999999999
100
AcDbArc
 50
179.999999999987
 51
269.999999999987
  0
LINE
  5
630F
330
1F
100
AcDbEntity
  8
0
 62
     7
 48
0.5
370
    -3
100
AcDbLine
 10
920.9242980893694
 20
84.83090190354824
 30
0.0
 11
925.0212533787525
 21
84.83090190354777
 31
0.0
  0
LINE
  5
6310
330
1F
100
AcDbEntity
  8
0
 62
     7
 48
0.5
370
    -3
100
AcDbLine
 10
936.3742980893681
 20
95.53090190354806
 30
0.0
 11
943.5242980893697
 21
95.53090190354806
 31
0.0
  0
ARC
  5
6311
330
1F
100
AcDbEntity
  8
0
 62
     7
 48
0.5
370
    -3
100
AcDbCircle
 10
936.3742980893679
 20
94.88090190354819
 30
0.0
 40
0.6499999999999999
100
AcDbArc
 50
90.0
 51
179.9999999999413
  0
LINE
  5
6312
330
1F
100
AcDbEntity
  8
0
 62
     7
 48
0.5
370
    -3
100
AcDbLine
 10
928.7242980893703
 20
95.53090190354827
 30
0.0
 11
931.0742980893682
 21
95.53090190354863
 31
0.0
  0
ARC
  5
6314
330
1F
100
AcDbEntity
  8
0
 62
     7
 48
0.5
370
    -3
100
AcDbCircle
 10
928.7242980893699
 20
96.53090190354829
 30
0.0
 40
0.9999999999999998
100
AcDbArc
 50
186.227984402143
 51
270.0
  0
LINE
  5
6315
330
1F
100
AcDbEntity
  8
0
 62
     7
 48
0.5
370
    -3
100
AcDbLine
 10
931.7242980893665
 20
93.67147131858997
 30
0.0
 11
931.7242980893681
 21
94.88090190354796
 31
0.0
  0
ARC
  5
6316
330
1F
100
AcDbEntity
  8
0
 62
     7
 48
0.5
370
    -3
100
AcDbCircle
 10
931.0742980893664
 20
93.67147131859088
 30
0.0
 40
0.65
100
AcDbArc
 50
304.6951535312622
 51
359.9999999999218
  0
ARC
  5
6317
330
1F
100
AcDbEntity
  8
0
 62
     7
 48
0.5
370
    -3
100
AcDbCircle
 10
931.074298089368
 20
94.88090190354865
 30
0.0
 40
0.6499999999999999
100
AcDbArc
 50
359.9999999999283
 51
90.0
  0
LINE
  5
6318
330
1F
100
AcDbEntity
  8
0
 62
     7
 48
0.5
370
    -3
100
AcDbLine
 10
935.724298089366
 20
93.67147131858542
 30
0.0
 11
935.7242980893676
 21
94.88090190354887
 31
0.0
  0
ARC
  5
6319
330
1F
100
AcDbEntity
  8
0
 62
     7
 48
0.5
370
    -3
100
AcDbCircle
 10
931.0742980893662
 20
93.67147131859065
 30
0.0
 40
4.649999999999999
100
AcDbArc
 50
304.6951535312622
 51
359.9999999999349
  0
LINE
  5
631D
330
1F
100
AcDbEntity
  8
0
 62
     7
 48
0.5
370
    -3
100
AcDbLine
 10
925.2242980893694
 20
88.83090190354764
 30
0.0
 11
931.444284575606
 21
93.13704639402249
 31
0.0
  0
LINE
  5
631E
330
1F
100
AcDbEntity
  8
0
 62
     7
 48
0.5
370
    -3
100
AcDbLine
 10
927.6680797803152
 20
85.65770821240505
 30
0.0
 11
933.7211244909283
 21
89.84827762744794
 31
0.0
  0
ARC
  5
631F
330
1F
100
AcDbEntity
  8
0
 62
     7
 48
0.5
370
    -3
100
AcDbCircle
 10
925.0212533787529
 20
89.48090190354776
 30
0.0
 40
4.649999999999999
100
AcDbArc
 50
269.999999999987
 51
304.6951535312622
  0
LINE
  5
6321
330
1F
100
AcDbEntity
  8
0
 62
     7
 48
0.5
370
    -3
100
AcDbLine
 10
929.5427934169955
 20
92.49674338524073
 30
0.0
 11
925.2946496476045
 21
89.64143363860102
 31
0.0
  0
LINE
  5
6322
330
1F
100
AcDbEntity
  8
0
 62
     7
 48
0.5
370
    -3
100
AcDbLine
 10
929.8301999930144
 20
93.03621165018785
 30
0.0
 11
929.8301999930151
 21
94.63090190354769
 31
0.0
  0
ARC
  5
6323
330
1F
100
AcDbEntity
  8
0
 62
     7
 48
0.5
370
    -3
100
AcDbCircle
 10
929.1801999930143
 20
93.0362116501883
 30
0.0
 40
0.65
100
AcDbArc
 50
303.9062769884371
 51
359.9999999999609
  0
ARC
  5
6324
330
1F
100
AcDbEntity
  8
0
 62
     7
 48
0.5
370
    -3
100
AcDbCircle
 10
928.9301999930152
 20
94.63090190354831
 30
0.0
 40
0.9
100
AcDbArc
 50
359.9999999999609
 51
90.0
  0
LINE
  5
632A
330
1F
100
AcDbEntity
  8
0
 62
     7
 48
0.5
370
    -3
100
AcDbLine
 10
1115.530199992819
 20
99.9309019035212
 30
0.0
 11
1115.530199992868
 21
101.5309019035622
 31
0.0
  0
ARC
  5
632C
330
1F
100
AcDbEntity
  8
0
 62
     7
 48
0.5
370
    -3
100
AcDbCircle
 10
1114.630199992819
 20
99.93090190354848
 30
0.0
 40
0.9
100
AcDbArc
 50
270.0
 51
359.9999999982608
  0
LINE
  5
6331
330
1F
100
AcDbEntity
  8
0
 62
     7
 48
0.5
370
    -3
100
AcDbLine
 10
1115.530199992915
 20
101.5309019035485
 30
0.0
 11
1110.530199992915
 21
103.0309019035485
 31
0.0
  0
ARC
  5
6332
330
1F
100
AcDbEntity
  8
0
 62
     7
 48
0.5
370
    -3
100
AcDbCircle
 10
1108.536101896464
 20
10.00000000000011
 30
0.0
 40
7.0
100
AcDbArc
 50
270.0
 51
0.0
  0
LINE
  5
6333
330
1F
100
AcDbEntity
  8
0
 62
     7
 48
0.5
370
    -3
100
AcDbLine
 10
1115.536101896464
 20
97.23090190354856
 30
0.0
 11
1115.536101896464
 21
10.00000000000011
 31
0.0
  0
LINE
  5
6334
330
1F
100
AcDbEntity
  8
0
 62
     7
 48
0.5
370
    -3
100
AcDbLine
 10
1111.536101896464
 20
10.00000000000011
 30
0.0
 11
1111.536101896465
 21
83.43090190354827
 31
0.0
  0
ARC
  5
6335
330
1F
100
AcDbEntity
  8
0
 62
     7
 48
0.5
370
    -3
100
AcDbCircle
 10
1108.536101896465
 20
10.00000000000011
 30
0.0
 40
3.0
100
AcDbArc
 50
270.0
 51
0.0
  0
ARC
  5
6336
330
1F
100
AcDbEntity
  8
0
 62
     7
 48
0.5
370
    -3
100
AcDbCircle
 10
1114.136101896465
 20
97.23090190354845
 30
0.0
 40
1.399999999999999
100
AcDbArc
 50
0.0
 51
90.0
  0
ARC
  5
6337
330
1F
100
AcDbEntity
  8
0
 62
     7
 48
0.5
370
    -3
100
AcDbCircle
 10
1110.136101896465
 20
83.43090190354814
 30
0.0
 40
1.399999999999999
100
AcDbArc
 50
0.0
 51
90.00000000002605
  0
LINE
  5
6338
330
1F
100
AcDbEntity
  8
0
 62
     7
 48
0.5
370
    -3
100
AcDbLine
 10
1111.536101896465
 20
90.23090190354855
 30
0.0
 11
1111.536101896464
 21
97.98090190354834
 31
0.0
  0
ARC
  5
6339
330
1F
100
AcDbEntity
  8
0
 62
     7
 48
0.5
370
    -3
100
AcDbCircle
 10
1112.186101896464
 20
97.98090190354844
 30
0.0
 40
0.6499999999999999
100
AcDbArc
 50
90.0
 51
180.000000000013
  0
LINE
  5
633C
330
1F
100
AcDbEntity
  8
0
 62
     7
 48
0.5
370
    -3
100
AcDbLine
 10
1114.136101896464
 20
98.63090190354842
 30
0.0
 11
1112.186101896464
 21
98.63090190354842
 31
0.0
  0
ARC
  5
633E
330
1F
100
AcDbEntity
  8
0
 62
     7
 48
0.5
370
    -3
100
AcDbCircle
 10
1110.136101896465
 20
90.23090190354821
 30
0.0
 40
1.399999999999999
100
AcDbArc
 50
270.000000000026
 51
0.0000000000130276
  0
LINE
  5
63FC
330
1F
100
AcDbEntity
  8
0
 62
     7
 48
0.5
370
    -3
100
AcDbLine
 10
922.5242980893698
 20
7.000000000000113
 30
0.0
 11
1108.536101896465
 21
7.000000000000113
 31
0.0
  0
LINE
  5
63FD
330
1F
100
AcDbEntity
  8
0
 62
     7
 48
0.5
370
    -3
100
AcDbLine
 10
885.5242980893704
 20
53.61545095177405
 30
0.0
 11
885.5242980893704
 21
53.61545095177405
 31
0.0
  0
LINE
  5
63FF
330
1F
100
AcDbEntity
  8
0
 62
     7
 48
0.5
370
    -3
100
AcDbLine
 10
943.7242980893698
 20
99.53090190354851
 30
0.0
 11
943.7242980893698
 21
95.73090190354806
 31
0.0
  0
LINE
  5
6400
330
1F
100
AcDbEntity
  8
0
 62
     7
 48
0.5
370
    -3
100
AcDbLine
 10
1106.680199993035
 20
89.53090190551028
 30
0.0
 11
1106.128343762426
 21
89.53090190549829
 31
0.0
  0
ARC
  5
6401
330
1F
100
AcDbEntity
  8
0
 62
     7
 48
0.5
370
    -3
100
AcDbCircle
 10
1106.680199993021
 20
90.18090190551026
 30
0.0
 40
0.65
100
AcDbArc
 50
270.0000000012376
 51
0.0000000012394494
  0
LINE
  5
6402
330
1F
100
AcDbEntity
  8
0
 62
     7
 48
0.5
370
    -3
100
AcDbLine
 10
1107.330199993021
 20
90.18090190552426
 30
0.0
 11
1107.330199992839
 21
98.63090190552396
 31
0.0
  0
LINE
  5
6403
330
1F
100
AcDbEntity
  8
0
 62
     7
 48
0.5
370
    -3
100
AcDbLine
 10
1103.330199992886
 20
96.42241699946207
 30
0.0
 11
1103.330199992833
 21
98.88090190543788
 31
0.0
  0
ARC
  5
6404
330
1F
100
AcDbEntity
  8
0
 62
     7
 48
0.5
370
    -3
100
AcDbCircle
 10
1106.128343762412
 20
90.18090190549827
 30
0.0
 40
0.65
100
AcDbArc
 50
236.093723012801
 51
270.0000000012507
  0
LINE
  5
6406
330
1F
100
AcDbEntity
  8
0
 62
     7
 48
0.5
370
    -3
100
AcDbLine
 10
1110.136101896696
 20
88.83090190558403
 30
0.0
 11
1105.836101896696
 21
88.8309019054909
 31
0.0
  0
LINE
  5
6408
330
1F
100
AcDbEntity
  8
0
 62
     7
 48
0.5
370
    -3
100
AcDbLine
 10
1110.136101896782
 20
84.83090190558403
 30
0.0
 11
1106.039146607399
 21
84.83090190549543
 31
0.0
  0
LINE
  5
6409
330
1F
100
AcDbEntity
  8
0
 62
     7
 48
0.5
370
    -3
100
AcDbLine
 10
1094.686101896553
 20
95.53090190525137
 30
0.0
 11
1087.536101896551
 21
95.53090190509754
 31
0.0
  0
ARC
  5
640A
330
1F
100
AcDbEntity
  8
0
 62
     7
 48
0.5
370
    -3
100
AcDbCircle
 10
1094.686101896567
 20
94.88090190525152
 30
0.0
 40
0.6499999999999999
100
AcDbArc
 50
0.0000000012915596
 51
90.0000000012376
  0
LINE
  5
640B
330
1F
100
AcDbEntity
  8
0
 62
     7
 48
0.5
370
    -3
100
AcDbLine
 10
1102.33610189655
 20
95.53090190541622
 30
0.0
 11
1099.986101896552
 21
95.530901905366
 31
0.0
  0
ARC
  5
640D
330
1F
100
AcDbEntity
  8
0
 62
     7
 48
0.5
370
    -3
100
AcDbCircle
 10
1102.336101896529
 20
96.53090190541623
 30
0.0
 40
0.9999999999999998
100
AcDbArc
 50
270.0000000012376
 51
353.7720155990915
  0
LINE
  5
640E
330
1F
100
AcDbEntity
  8
0
 62
     7
 48
0.5
370
    -3
100
AcDbLine
 10
1099.336101896594
 20
93.67147132039336
 30
0.0
 11
1099.336101896566
 21
94.88090190535137
 31
0.0
  0
ARC
  5
640F
330
1F
100
AcDbEntity
  8
0
 62
     7
 48
0.5
370
    -3
100
AcDbCircle
 10
1099.986101896594
 20
93.67147132040825
 30
0.0
 40
0.65
100
AcDbArc
 50
180.000000001311
 51
235.3048464699727
  0
ARC
  5
6410
330
1F
100
AcDbEntity
  8
0
 62
     7
 48
0.5
370
    -3
100
AcDbCircle
 10
1099.986101896567
 20
94.88090190536603
 30
0.0
 40
0.6499999999999999
100
AcDbArc
 50
90.0000000012376
 51
180.0000000013045
  0
LINE
  5
6411
330
1F
100
AcDbEntity
  8
0
 62
     7
 48
0.5
370
    -3
100
AcDbLine
 10
1095.336101896595
 20
93.67147132030273
 30
0.0
 11
1095.336101896567
 21
94.88090190526619
 31
0.0
  0
ARC
  5
6412
330
1F
100
AcDbEntity
  8
0
 62
     7
 48
0.5
370
    -3
100
AcDbCircle
 10
1099.986101896595
 20
93.67147132040804
 30
0.0
 40
4.649999999999999
100
AcDbArc
 50
180.000000001298
 51
235.3048464699727
  0
LINE
  5
6413
330
1F
100
AcDbEntity
  8
0
 62
     7
 48
0.5
370
    -3
100
AcDbLine
 10
1105.836101896696
 20
88.8309019054909
 30
0.0
 11
1099.616115410366
 21
93.13704639583191
 31
0.0
  0
LINE
  5
6414
330
1F
100
AcDbEntity
  8
0
 62
     7
 48
0.5
370
    -3
100
AcDbLine
 10
1103.392320205818
 20
85.65770821429573
 30
0.0
 11
1097.339275495115
 21
89.84827762920836
 31
0.0
  0
ARC
  5
6415
330
1F
100
AcDbEntity
  8
0
 62
     7
 48
0.5
370
    -3
100
AcDbCircle
 10
1106.039146607298
 20
89.48090190549541
 30
0.0
 40
4.649999999999999
100
AcDbArc
 50
235.3048464699727
 51
270.0000000012507
  0
LINE
  5
6417
330
1F
100
AcDbEntity
  8
0
 62
     7
 48
0.5
370
    -3
100
AcDbLine
 10
1101.51760656899
 20
92.49674338709107
 30
0.0
 11
1105.765750338443
 21
89.64143364054278
 31
0.0
  0
LINE
  5
6418
330
1F
100
AcDbEntity
  8
0
 62
     7
 48
0.5
370
    -3
100
AcDbLine
 10
1101.23019999296
 20
93.03621165203201
 30
0.0
 11
1101.230199992925
 21
94.63090190539185
 31
0.0
  0
ARC
  5
6419
330
1F
100
AcDbEntity
  8
0
 62
     7
 48
0.5
370
    -3
100
AcDbCircle
 10
1101.88019999296
 20
93.03621165204644
 30
0.0
 40
0.65
100
AcDbArc
 50
180.000000001272
 51
236.0937230128009
  0
ARC
  5
641A
330
1F
100
AcDbEntity
  8
0
 62
     7
 48
0.5
370
    -3
100
AcDbCircle
 10
1102.130199992925
 20
94.63090190541183
 30
0.0
 40
0.9
100
AcDbArc
 50
90.0000000012376
 51
180.000000001272
  0
LINE
  5
641B
330
1F
100
AcDbEntity
  8
0
 62
     7
 48
0.5
370
    -3
100
AcDbLine
 10
1087.336101896465
 20
99.53090190509369
 30
0.0
 11
1087.336101896547
 21
95.73090190509322
 31
0.0
  0
ARC
  5
641C
330
1F
100
AcDbEntity
  8
0
 62
     7
 48
0.5
370
    -3
100
AcDbCircle
 10
1102.680199992966
 20
98.88090190354853
 30
0.0
 40
0.65
100
AcDbArc
 50
0.0000000000000127
 51
90.0
  0
LINE
  5
641D
330
1F
100
AcDbEntity
  8
0
 62
     7
 48
0.5
370
    -3
100
AcDbLine
 10
1107.730199992967
 20
99.03090190354852
 30
0.0
 11
1114.630199992966
 21
99.03090190354852
 31
0.0
  0
ARC
  5
641E
330
1F
100
AcDbEntity
  8
0
 62
     7
 48
0.5
370
    -3
100
AcDbCircle
 10
1107.73019999282
 20
98.63090190354853
 30
0.0
 40
0.4
100
AcDbArc
 50
90.0
 51
180.0000000000065
  0
LINE
  5
641F
330
1F
100
AcDbEntity
  8
0
 62
     7
 48
0.5
370
    -3
100
AcDbLine
 10
915.5301999929664
 20
113.0309019035486
 30
0.0
 11
915.5301999929664
 21
2113.030901903549
 31
0.0
  0
LINE
  5
6420
330
1F
100
AcDbEntity
  8
0
 62
     7
 48
0.5
370
    -3
100
AcDbLine
 10
920.5301999929664
 20
113.0309019035486
 30
0.0
 11
920.5301999929664
 21
2113.030901903549
 31
0.0
  0
LINE
  5
6423
330
1F
100
AcDbEntity
  8
0
 62
     7
 48
0.5
370
    -3
100
AcDbLine
 10
915.5301999929665
 20
113.0309019035486
 30
0.0
 11
1115.530199992868
 21
113.0309019035486
 31
0.0
  0
LINE
  5
6424
330
1F
100
AcDbEntity
  8
0
 62
     7
 48
0.5
370
    -3
100
AcDbLine
 10
915.5301999929664
 20
2113.030901903549
 30
0.0
 11
1115.530199992868
 21
2113.030901903548
 31
0.0
  0
LINE
  5
6425
330
1F
100
AcDbEntity
  8
0
 62
     2
 48
0.5
370
    -3
100
AcDbLine
 10
1015.530199992917
 20
110.0309019035487
 30
0.0
 11
1015.530199992917
 21
2116.030901903549
 31
0.0
  0
LINE
  5
6426
330
1F
100
AcDbEntity
  8
0
 62
     7
 48
0.5
370
    -3
100
AcDbLine
 10
1115.530199992868
 20
113.0309019035486
 30
0.0
 11
1115.530199992868
 21
2113.030901903549
 31
0.0
  0
LINE
  5
6427
330
1F
100
AcDbEntity
  8
0
 62
     7
 48
0.5
370
    -3
100
AcDbLine
 10
1110.530199992868
 20
113.0309019035486
 30
0.0
 11
1110.530199992868
 21
2113.030901903549
 31
0.0
  0
MTEXT
  5
6428
330
1F
100
AcDbEntity
  8
0
 62
     1
 48
0.5
370
    -3
100
AcDbMText
 10
1015.530199992917
 20
-5.187078435460037
 30
0.0
 40
2.5
 41
32.05805302350382
 46
0.0
 71
     2
 72
     5
  1
6号
 73
     1
 44
1.0
1001
ACAD
1000
ACAD_MTEXT_COLUMN_INFO_BEGIN
1070
    75
1070
     2
1070
    79
1070
     0
1070
    76
1070
     1
1070
    78
1070
     0
1070
    48
1040
32.05805302350382
1070
    49
1040
12.5
1070
    50
1070
     1
1040
0.0
1000
ACAD_MTEXT_COLUMN_INFO_END
  0
MTEXT
  5
6429
330
1F
100
AcDbEntity
  8
0
 62
     1
 48
0.5
370
    -3
100
AcDbMText
 10
1015.530199992917
 20
-13.18707843546004
 30
0.0
 40
2.5
 41
32.05805302350382
 46
0.0
 71
     2
 72
     5
  1
EFMD6□
 73
     1
 44
1.0
1001
ACAD
1000
ACAD_MTEXT_COLUMN_INFO_BEGIN
1070
    75
1070
     2
1070
    79
1070
     0
1070
    76
1070
     1
1070
    78
1070
     0
1070
    48
1040
32.05805302350382
1070
    49
1040
12.5
1070
    50
1070
     1
1040
0.0
1000
ACAD_MTEXT_COLUMN_INFO_END
  0
LINE
  5
643F
330
1F
100
AcDbEntity
  8
0
 62
     7
 48
0.5
370
    -3
100
AcDbLine
 10
496.6422591843925
 20
80.0
 30
0.0
 11
496.6422591843924
 21
77.2
 31
0.0
  0
LINE
  5
6440
330
1F
100
AcDbEntity
  8
0
 62
     7
 48
0.5
370
    -3
100
AcDbLine
 10
568.8473179588836
 20
72.50000000000046
 30
0.0
 11
568.5028712551618
 21
72.50000000000046
 31
0.0
  0
ARC
  5
6441
330
1F
100
AcDbEntity
  8
0
 62
     7
 48
0.5
370
    -3
100
AcDbCircle
 10
568.5028712551618
 20
73.00000000000046
 30
0.0
 40
0.5
100
AcDbArc
 50
235.4374753511303
 51
270.0
  0
LINE
  5
6444
330
1F
100
AcDbEntity
  8
0
 62
     7
 48
0.5
370
    -3
100
AcDbLine
 10
566.3473179588834
 20
77.49999999999994
 30
0.0
 11
566.3473179588836
 21
79.5
 31
0.0
  0
LINE
  5
6445
330
1F
100
AcDbEntity
  8
0
 62
     7
 48
0.5
370
    -3
100
AcDbLine
 10
559.8523767333338
 20
77.0
 30
0.0
 11
554.5523767333322
 21
77.0
 31
0.0
  0
LINE
  5
6446
330
1F
100
AcDbEntity
  8
0
 62
     7
 48
0.5
370
    -3
100
AcDbLine
 10
565.7473179588841
 20
76.99999999999997
 30
0.0
 11
563.8523767333338
 21
77.00000000000023
 31
0.0
  0
LINE
  5
6447
330
1F
100
AcDbEntity
  8
0
 62
     7
 48
0.5
370
    -3
100
AcDbLine
 10
563.3523767333347
 20
75.60979682962261
 30
0.0
 11
563.3523767333338
 21
76.49999999999977
 31
0.0
  0
LINE
  5
6448
330
1F
100
AcDbEntity
  8
0
 62
     7
 48
0.5
370
    -3
100
AcDbLine
 10
560.3523767333347
 20
75.60979682961897
 30
0.0
 11
560.3523767333338
 21
76.50000000000045
 31
0.0
  0
ARC
  5
6449
330
1F
100
AcDbEntity
  8
0
 62
     7
 48
0.5
370
    -3
100
AcDbCircle
 10
559.8523767333338
 20
76.49999999999977
 30
0.0
 40
0.5
100
AcDbArc
 50
0.0000000000521229
 51
90.00000000001303
  0
ARC
  5
644A
330
1F
100
AcDbEntity
  8
0
 62
     7
 48
0.5
370
    -3
100
AcDbCircle
 10
563.8523767333338
 20
76.5
 30
0.0
 40
0.5
100
AcDbArc
 50
90.00000000001303
 51
180.0000000000521
  0
LINE
  5
644B
330
1F
100
AcDbEntity
  8
0
 62
     7
 48
0.5
370
    -3
100
AcDbLine
 10
563.5683646111613
 20
75.19829091902306
 30
0.0
 11
568.2023767333382
 21
72.00000000000047
 31
0.0
  0
LINE
  5
644C
330
1F
100
AcDbEntity
  8
0
 62
     7
 48
0.5
370
    -3
100
AcDbLine
 10
561.8642918781222
 20
72.7292554554233
 30
0.0
 11
566.3700846814801
 21
69.61945862580114
 31
0.0
  0
ARC
  5
644D
330
1F
100
AcDbEntity
  8
0
 62
     7
 48
0.5
370
    -3
100
AcDbCircle
 10
563.8523767333347
 20
75.60979682962261
 30
0.0
 40
3.499999999999999
100
AcDbArc
 50
180.0000000000521
 51
235.3874350951732
  0
ARC
  5
644E
330
1F
100
AcDbEntity
  8
0
 62
     7
 48
0.5
370
    -3
100
AcDbCircle
 10
563.8523767333347
 20
75.60979682962306
 30
0.0
 40
0.5
100
AcDbArc
 50
180.0000000000521
 51
235.387435095171
  0
ARC
  5
6451
330
1F
100
AcDbEntity
  8
0
 62
     7
 48
0.5
370
    -3
100
AcDbCircle
 10
568.3581695366926
 20
72.50000000000046
 30
0.0
 40
3.499999999999999
100
AcDbArc
 50
235.3874350951732
 51
270.000000000013
  0
LINE
  5
6453
330
1F
100
AcDbEntity
  8
0
 62
     7
 48
0.5
370
    -3
100
AcDbLine
 10
565.2636653407585
 20
74.6242940258196
 30
0.0
 11
568.2192186370364
 21
72.58824619949518
 31
0.0
  0
ARC
  5
6454
330
1F
100
AcDbEntity
  8
0
 62
     7
 48
0.5
370
    -3
100
AcDbCircle
 10
565.8473179588837
 20
77.5
 30
0.0
 40
0.5
100
AcDbArc
 50
270.0
 51
0.0000000000000127
  0
ARC
  5
6455
330
1F
100
AcDbEntity
  8
0
 62
     7
 48
0.5
370
    -3
100
AcDbCircle
 10
565.7473179588841
 20
76.29999999999995
 30
0.0
 40
0.7
100
AcDbArc
 50
89.99999999998697
 51
180.000000000013
  0
LINE
  5
6456
330
1F
100
AcDbEntity
  8
0
 62
     7
 48
0.5
370
    -3
100
AcDbLine
 10
565.0473179588841
 20
75.03604782632464
 30
0.0
 11
565.0473179588839
 21
76.2999999999998
 31
0.0
  0
ARC
  5
6457
330
1F
100
AcDbEntity
  8
0
 62
     7
 48
0.5
370
    -3
100
AcDbCircle
 10
565.5473179588841
 20
75.03604782632464
 30
0.0
 40
0.5
100
AcDbArc
 50
180.000000000013
 51
235.4374753511303
  0
LINE
  5
6458
330
1F
100
AcDbEntity
  8
0
 62
     7
 48
0.5
370
    -3
100
AcDbLine
 10
565.8473179588837
 20
77.0
 30
0.0
 11
565.7473179588841
 21
77.0
 31
0.0
  0
LINE
  5
6459
330
1F
100
AcDbEntity
  8
0
 62
     7
 48
0.5
370
    -3
100
AcDbLine
 10
554.3523767333322
 20
80.0
 30
0.0
 11
554.3523767333322
 21
77.2
 31
0.0
  0
LINE
  5
645A
330
1F
100
AcDbEntity
  8
0
 62
     7
 48
0.5
370
    -3
100
AcDbLine
 10
340.1679819940598
 20
60.19999999999991
 30
0.0
 11
340.1679819940597
 21
57.60000000000018
 31
0.0
  0
LINE
  5
645B
330
1F
100
AcDbEntity
  8
0
 62
     7
 48
0.5
370
    -3
100
AcDbLine
 10
439.040258787403
 20
56.95000000000004
 30
0.0
 11
439.040258787403
 21
56.08577882579857
 31
0.0
  0
ARC
  5
645C
330
1F
100
AcDbEntity
  8
0
 62
     7
 48
0.5
370
    -3
100
AcDbCircle
 10
439.4902587874031
 20
56.95000000000004
 30
0.0
 40
0.45
100
AcDbArc
 50
90.0
 51
180.0
  0
ARC
  5
645D
330
1F
100
AcDbEntity
  8
0
 62
     7
 48
0.5
370
    -3
100
AcDbCircle
 10
439.4902587874031
 20
56.0857788257984
 30
0.0
 40
0.45
100
AcDbArc
 50
180.0
 51
235.3048464687618
  0
LINE
  5
645E
330
1F
100
AcDbEntity
  8
0
 62
     7
 48
0.5
370
    -3
100
AcDbLine
 10
436.240258787403
 20
56.95000000000004
 30
0.0
 11
436.240258787403
 21
56.0857788257984
 31
0.0
  0
ARC
  5
645F
330
1F
100
AcDbEntity
  8
0
 62
     7
 48
0.5
370
    -3
100
AcDbCircle
 10
439.4902587874031
 20
56.0857788257984
 30
0.0
 40
3.25
100
AcDbArc
 50
180.0
 51
235.3048464687618
  0
LINE
  5
6460
330
1F
100
AcDbEntity
  8
0
 62
     7
 48
0.5
370
    -3
100
AcDbLine
 10
443.5902587874029
 20
52.69999999999992
 30
0.0
 11
446.6402587874031
 21
52.70000000000004
 31
0.0
  0
LINE
  5
6461
330
1F
100
AcDbEntity
  8
0
 62
     7
 48
0.5
370
    -3
100
AcDbLine
 10
443.7308282024448
 20
49.90000000000032
 30
0.0
 11
446.640258787403
 21
49.9000000000002
 31
0.0
  0
LINE
  5
6462
330
1F
100
AcDbEntity
  8
0
 62
     7
 48
0.5
370
    -3
100
AcDbLine
 10
430.840258787403
 20
57.40000000000018
 30
0.0
 11
435.790258787403
 21
57.40000000000015
 31
0.0
  0
ARC
  5
6463
330
1F
100
AcDbEntity
  8
0
 62
     7
 48
0.5
370
    -3
100
AcDbCircle
 10
435.7902587874031
 20
56.94999999999999
 30
0.0
 40
0.45
100
AcDbArc
 50
0.0000000000032696
 51
90.0
  0
LINE
  5
6464
330
1F
100
AcDbEntity
  8
0
 62
     7
 48
0.5
370
    -3
100
AcDbLine
 10
439.4902587874029
 20
57.40000000000003
 30
0.0
 11
441.3466203907313
 21
57.40000000000019
 31
0.0
  0
LINE
  5
6465
330
1F
100
AcDbEntity
  8
0
 62
     7
 48
0.5
370
    -3
100
AcDbLine
 10
443.5902587874029
 20
52.69999999999992
 30
0.0
 11
439.2341142969293
 21
55.71579233955873
 31
0.0
  0
LINE
  5
6467
330
1F
100
AcDbEntity
  8
0
 62
     7
 48
0.5
370
    -3
100
AcDbLine
 10
441.8808957712463
 20
50.47787537715795
 30
0.0
 11
437.6403263562045
 21
53.4136542029563
 31
0.0
  0
ARC
  5
6468
330
1F
100
AcDbEntity
  8
0
 62
     7
 48
0.5
370
    -3
100
AcDbCircle
 10
443.7308282024448
 20
53.15000000000026
 30
0.0
 40
3.25
100
AcDbArc
 50
235.3048464687618
 51
270.0
  0
LINE
  5
6469
330
1F
100
AcDbEntity
  8
0
 62
     7
 48
0.5
370
    -3
100
AcDbLine
 10
441.3041203907313
 20
57.40000000000017
 30
0.0
 11
441.3891203907314
 21
57.40000000000017
 31
0.0
  0
ARC
  5
646A
330
1F
100
AcDbEntity
  8
0
 62
     7
 48
0.5
370
    -3
100
AcDbCircle
 10
441.3041203907313
 20
56.75000000000019
 30
0.0
 40
0.65
100
AcDbArc
 50
90.0
 51
180.0
  0
LINE
  5
646B
330
1F
100
AcDbEntity
  8
0
 62
     7
 48
0.5
370
    -3
100
AcDbLine
 10
443.8423852267376
 20
53.20000000000004
 30
0.0
 11
444.2041203907313
 21
53.20000000000004
 31
0.0
  0
ARC
  5
646C
330
1F
100
AcDbEntity
  8
0
 62
     7
 48
0.5
370
    -3
100
AcDbCircle
 10
444.2041203907313
 20
53.65000000000009
 30
0.0
 40
0.45
100
AcDbArc
 50
270.0
 51
0.0000000000000127
  0
LINE
  5
646D
330
1F
100
AcDbEntity
  8
0
 62
     7
 48
0.5
370
    -3
100
AcDbLine
 10
444.6541203907313
 20
53.65000000000009
 30
0.0
 11
444.6541203907313
 21
59.90000000000009
 31
0.0
  0
LINE
  5
646E
330
1F
100
AcDbEntity
  8
0
 62
     7
 48
0.5
370
    -3
100
AcDbLine
 10
440.6541203907313
 20
55.50810828157569
 30
0.0
 11
440.6541203907313
 21
56.75000000000019
 31
0.0
  0
ARC
  5
646F
330
1F
100
AcDbEntity
  8
0
 62
     7
 48
0.5
370
    -3
100
AcDbCircle
 10
441.1041203907315
 20
55.50810828157569
 30
0.0
 40
0.45
100
AcDbArc
 50
180.0
 51
235.8403054543331
  0
LINE
  5
6470
330
1F
100
AcDbEntity
  8
0
 62
     7
 48
0.5
370
    -3
100
AcDbLine
 10
441.8541203907314
 20
57.8650000000002
 30
0.0
 11
441.8541203907314
 21
59.74999999999988
 31
0.0
  0
ARC
  5
6471
330
1F
100
AcDbEntity
  8
0
 62
     7
 48
0.5
370
    -3
100
AcDbCircle
 10
441.3891203907314
 20
57.8650000000002
 30
0.0
 40
0.4650000000000001
100
AcDbArc
 50
270.0
 51
0.0000000000000127
  0
LINE
  5
6472
330
1F
100
AcDbEntity
  8
0
 62
     7
 48
0.5
370
    -3
100
AcDbLine
 10
443.5897095884858
 20
53.27763590152381
 30
0.0
 11
440.8514447524796
 21
55.1357441830994
 31
0.0
  0
ARC
  5
6473
330
1F
100
AcDbEntity
  8
0
 62
     7
 48
0.5
370
    -3
100
AcDbCircle
 10
443.8423852267376
 20
53.65000000000009
 30
0.0
 40
0.45
100
AcDbArc
 50
235.8403054543331
 51
270.0
  0
LINE
  5
6474
330
1F
100
AcDbEntity
  8
0
 62
     7
 48
0.5
370
    -3
100
AcDbLine
 10
430.640258787403
 20
60.19999999999991
 30
0.0
 11
430.640258787403
 21
57.60000000000018
 31
0.0
  0
ARC
  5
6475
330
1F
100
AcDbEntity
  8
0
 62
     7
 48
0.5
370
    -3
100
AcDbCircle
 10
441.4041203907314
 20
59.74999999999988
 30
0.0
 40
0.45
100
AcDbArc
 50
0.0000000000000127
 51
90.0
  0
ARC
  5
6B0A
330
1F
100
AcDbEntity
  8
0
 62
     7
 48
0.5
370
    -3
100
AcDbCircle
 10
16.49999999999984
 20
18.09222815216102
 30
0.0
 40
0.3
100
AcDbArc
 50
235.5000000000001
 51
0.0
  0
ARC
  5
6B0B
330
1F
100
AcDbEntity
  8
0
 62
     7
 48
0.5
370
    -3
100
AcDbCircle
 10
-16.49999999999984
 20
18.09222815216102
 30
0.0
 40
0.3
100
AcDbArc
 50
180.0
 51
304.4999999999999
  0
ARC
  5
6B0C
330
1F
100
AcDbEntity
  8
0
 62
     7
 48
0.5
370
    -3
100
AcDbCircle
 10
-9.399999999999817
 20
20.40000000000017
 30
0.0
 40
0.2
100
AcDbArc
 50
269.9999999999973
 51
0.0
  0
ARC
  5
6B0D
330
1F
100
AcDbEntity
  8
0
 62
     7
 48
0.5
370
    -3
100
AcDbCircle
 10
9.399999999999817
 20
20.40000000000012
 30
0.0
 40
0.2
100
AcDbArc
 50
180.0
 51
270.000000000004
  0
ARC
  5
6B0E
330
1F
100
AcDbEntity
  8
0
 62
     7
 48
0.5
370
    -3
100
AcDbCircle
 10
60.60000000000042
 20
30.40000000000017
 30
0.0
 40
0.2
100
AcDbArc
 50
269.999999999996
 51
0.0
  0
ARC
  5
6B0F
330
1F
100
AcDbEntity
  8
0
 62
     7
 48
0.5
370
    -3
100
AcDbCircle
 10
79.40000000000049
 20
30.40000000000017
 30
0.0
 40
0.2
100
AcDbArc
 50
180.0
 51
270.000000000004
  0
ARC
  5
6B10
330
1F
100
AcDbEntity
  8
0
 62
     7
 48
0.5
370
    -3
100
AcDbCircle
 10
339.9679819940597
 20
57.60000000000019
 30
0.0
 40
0.2
100
AcDbArc
 50
270.0000000000004
 51
359.9999999999988
  0
ARC
  5
6B11
330
1F
100
AcDbEntity
  8
0
 62
     7
 48
0.5
370
    -3
100
AcDbCircle
 10
430.840258787403
 20
57.60000000000019
 30
0.0
 40
0.2
100
AcDbArc
 50
180.0000000000011
 51
269.9999999999996
  0
ARC
  5
6B12
330
1F
100
AcDbEntity
  8
0
 62
     7
 48
0.5
370
    -3
100
AcDbCircle
 10
496.4422591843924
 20
77.2
 30
0.0
 40
0.2
100
AcDbArc
 50
270.0
 51
359.9999999999988
  0
ARC
  5
6B13
330
1F
100
AcDbEntity
  8
0
 62
     7
 48
0.5
370
    -3
100
AcDbCircle
 10
554.5523767333322
 20
77.2
 30
0.0
 40
0.2
100
AcDbArc
 50
180.0
 51
270.0
  0
ARC
  5
6B14
330
1F
100
AcDbEntity
  8
0
 62
     7
 48
0.5
370
    -3
100
AcDbCircle
 10
626.4523767333324
 20
97.20505877447006
 30
0.0
 40
0.2
100
AcDbArc
 50
270.0
 51
0.0
  0
ARC
  5
6B15
330
1F
100
AcDbEntity
  8
0
 62
     7
 48
0.5
370
    -3
100
AcDbCircle
 10
684.562494282273
 20
97.20505877447005
 30
0.0
 40
0.2
100
AcDbArc
 50
180.0
 51
270.0
  0
ARC
  5
6B16
330
1F
100
AcDbEntity
  8
0
 62
     7
 48
0.5
370
    -3
100
AcDbCircle
 10
763.5124942822713
 20
95.73090190354795
 30
0.0
 40
0.2
100
AcDbArc
 50
270.0
 51
0.0
  0
ARC
  5
6B17
330
1F
100
AcDbEntity
  8
0
 62
     7
 48
0.5
370
    -3
100
AcDbCircle
 10
857.5242980893703
 20
95.73090190354795
 30
0.0
 40
0.2
100
AcDbArc
 50
180.0
 51
270.0
  0
ARC
  5
6B18
330
1F
100
AcDbEntity
  8
0
 62
     7
 48
0.5
370
    -3
100
AcDbCircle
 10
943.5242980893697
 20
95.73090190354806
 30
0.0
 40
0.2
100
AcDbArc
 50
270.0
 51
359.9999999999984
  0
ARC
  5
6B19
330
1F
100
AcDbEntity
  8
0
 62
     7
 48
0.5
370
    -3
100
AcDbCircle
 10
1087.536101896547
 20
95.73090190509754
 30
0.0
 40
0.2
100
AcDbArc
 50
180.0000000012376
 51
270.0000000012328
  0
VIEWPORT
  5
2764
102
{ACAD_XDICTIONARY
360
2765
102
}
330
275D
100
AcDbEntity
 67
     1
  8
0
 48
0.5
100
AcDbViewport
 10
155.750804351311
 20
47.97342163123381
 30
0.0
 40
438.0210492482447
 41
309.167112768263
 68
     1
 69
     1
 12
155.750804351311
 22
47.97342163123381
 13
0.0
 23
0.0
 14
10.0
 24
10.0
 15
10.0
 25
10.0
 16
0.0
 26
0.0
 36
1.0
 17
0.0
 27
0.0
 37
0.0
 42
50.0
 43
0.0
 44
0.0
 45
309.167112768263
 50
0.0
 51
0.0
 72
   100
 90
   557088
  1

281
     0
 71
     1
 74
     0
110
0.0
120
0.0
130
0.0
111
1.0
121
0.0
131
0.0
112
0.0
122
1.0
132
0.0
 79
     0
146
0.0
170
     0
 61
     5
348
1FFD
292
     1
282
     1
141
0.0
142
0.0
 63
   250
421
  3355443
  0
ENDSEC
  0
SECTION
  2
OBJECTS
  0
DICTIONARY
  5
C
330
0
100
AcDbDictionary
281
     1
  3
ACAD_CIP_PREVIOUS_PRODUCT_INFO
350
537E
  3
ACAD_COLOR
350
2008
  3
ACAD_DETAILVIEWSTYLE
350
5376
  3
ACAD_GROUP
350
D
  3
ACAD_LAYOUT
350
1A
  3
ACAD_MATERIAL
350
1FDE
  3
ACAD_MLEADERSTYLE
350
202D
  3
ACAD_MLINESTYLE
350
17
  3
ACAD_PLOTSETTINGS
350
19
  3
ACAD_PLOTSTYLENAME
350
E
  3
ACAD_SCALELIST
350
200B
  3
ACAD_SECTIONVIEWSTYLE
350
5374
  3
ACAD_TABLESTYLE
350
2009
  3
ACAD_VISUALSTYLE
350
1FF7
  3
AcadDim
350
9BD
  3
ACDB_RECOMPOSE_DATA
350
6B8B
  3
AcDbVariableDictionary
350
149
  3
AcDsDecomposeData
350
6B91
  0
DICTIONARY
  5
2CF5
330
8
100
AcDbDictionary
280
     1
281
     1
  0
DICTIONARY
  5
2044
330
2
100
AcDbDictionary
280
     1
281
     1
  3
ACAD_LAYERFILTERS
360
20EF
  3
ACAD_LAYERSTATES
360
2045
  3
ACLYDICTIONARY
360
20EE
  0
DICTIONARY
  5
20BE
330
10
100
AcDbDictionary
280
     1
281
     1
  3
ADSK_XREC_LAYER_RECONCILED
360
2784
  0
DICTIONARY
  5
286E
330
1F
100
AcDbDictionary
280
     1
281
     1
  3
ACAD_SORTENTS
360
286F
  0
DICTIONARY
  5
2765
330
2764
100
AcDbDictionary
280
     1
281
     1
  3
ASDK_XREC_ANNOTATION_SCALE_INFO
360
2766
  0
XRECORD
  5
537E
102
{ACAD_REACTORS
330
C
102
}
330
C
100
AcDbXrecord
280
     1
300
ACD
300
2022
300

  0
DICTIONARY
  5
2008
102
{ACAD_REACTORS
330
C
102
}
330
C
100
AcDbDictionary
281
     1
  0
DICTIONARY
  5
5376
102
{ACAD_REACTORS
330
C
102
}
330
C
100
AcDbDictionary
281
     1
  3
Metric50
350
5377
  0
DICTIONARY
  5
D
102
{ACAD_REACTORS
330
C
102
}
330
C
100
AcDbDictionary
281
     1
  0
DICTIONARY
  5
1A
102
{ACAD_REACTORS
330
C
102
}
330
C
100
AcDbDictionary
281
     1
  3
Model
350
22
  3
レイアウト1
350
275E
  0
DICTIONARY
  5
1FDE
102
{ACAD_REACTORS
330
C
102
}
330
C
100
AcDbDictionary
281
     1
  3
ByBlock
350
1FE7
  3
ByLayer
350
1FDF
  3
Global
350
1FEF
  0
DICTIONARY
  5
202D
102
{ACAD_REACTORS
330
C
102
}
330
C
100
AcDbDictionary
281
     1
  3
Standard
350
202E
  3
文字列
350
21B6
  0
DICTIONARY
  5
17
102
{ACAD_REACTORS
330
C
102
}
330
C
100
AcDbDictionary
281
     1
  3
Standard
350
18
  0
DICTIONARY
  5
19
102
{ACAD_REACTORS
330
C
102
}
330
C
100
AcDbDictionary
281
     1
  0
ACDBDICTIONARYWDFLT
  5
E
102
{ACAD_REACTORS
330
C
102
}
330
C
100
AcDbDictionary
281
     1
  3
Normal
350
F
100
AcDbDictionaryWithDefault
340
F
  0
DICTIONARY
  5
200B
102
{ACAD_REACTORS
330
C
102
}
330
C
100
AcDbDictionary
281
     1
  3
A0
350
200C
  3
A1
350
200D
  3
A2
350
200E
  3
A3
350
200F
  3
A4
350
2010
  3
A5
350
2011
  3
A6
350
2012
  3
A7
350
2013
  3
A8
350
2014
  3
A9
350
2015
  3
B0
350
2016
  3
B1
350
2017
  3
B2
350
2018
  3
B3
350
2019
  3
B4
350
201A
  3
B5
350
201B
  3
B6
350
201C
  3
B7
350
201D
  3
B8
350
201E
  3
B9
350
201F
  3
C0
350
2020
  3
C1
350
2021
  3
C2
350
2022
  3
C3
350
2023
  3
C4
350
2024
  3
C5
350
2025
  3
C6
350
2026
  3
C7
350
2027
  3
C8
350
2028
  3
C9
350
2029
  3
D0
350
202A
  3
D1
350
202B
  3
D2
350
202C
  0
DICTIONARY
  5
5374
102
{ACAD_REACTORS
330
C
102
}
330
C
100
AcDbDictionary
281
     1
  3
Metric50
350
5375
  0
DICTIONARY
  5
2009
102
{ACAD_REACTORS
330
C
102
}
330
C
100
AcDbDictionary
281
     1
  3
Standard
350
200A
  0
DICTIONARY
  5
1FF7
102
{ACAD_REACTORS
330
C
102
}
330
C
100
AcDbDictionary
281
     1
  3
2dWireframe
350
1FFD
  3
3D Hidden
350
1FFF
  3
3dWireframe
350
1FFE
  3
Basic
350
1FFC
  3
Brighten
350
2003
  3
ColorChange
350
2007
  3
Conceptual
350
2000
  3
Dim
350
2002
  3
EdgeColorOff
350
2753
  3
Facepattern
350
2006
  3
Flat
350
1FF8
  3
FlatWithEdges
350
1FF9
  3
Gouraud
350
1FFA
  3
GouraudWithEdges
350
1FFB
  3
Hidden
350
274B
  3
JitterOff
350
2751
  3
Linepattern
350
2005
  3
OverhangOff
350
2752
  3
Realistic
350
2001
  3
Shaded
350
2750
  3
Shaded with edges
350
274F
  3
Shades of Gray
350
274C
  3
Sketchy
350
274D
  3
Thicken
350
2004
  3
Wireframe
350
274A
  3
X-Ray
350
274E
  0
XRECORD
  5
9BD
102
{ACAD_REACTORS
330
C
102
}
330
C
100
AcDbXrecord
280
     1
 90
   990106
  3

 60
     0
 61
     0
 62
     4
 63
     4
 64
     1
 65
     0
 66
     0
 67
     2
 68
     1
 69
     0
 70
     0
 71
     0
 72
     0
 40
46.64942440925108
170
     2
340
0
  0
XRECORD
  5
6B8B
102
{ACAD_REACTORS
330
C
102
}
330
C
100
AcDbXrecord
280
     1
 90
        1
330
200A
330
287B
330
287C
330
4168
330
55FC
330
55FD
330
5949
330
594A
330
594B
330
594C
330
5C68
330
5C69
330
5F6E
330
5F6F
330
5FF6
330
5FF7
330
6200
330
6201
330
6428
330
6429
  0
DICTIONARY
  5
149
102
{ACAD_REACTORS
330
C
102
}
330
C
100
AcDbDictionary
281
     1
  3
CANNOSCALE
350
205A
  3
CMLEADERSTYLE
350
2058
  3
CTABLESTYLE
350
2057
  3
CVIEWDETAILSTYLE
350
5473
  3
CVIEWSECTIONSTYLE
350
5474
  3
DIMASSOC
350
4F0
  3
LAYEREVAL
350
5475
  3
LAYERNOTIFY
350
5476
  3
LIGHTINGUNITS
350
205B
  3
MLEADERSCALE
350
2D35
  3
MSLTSCALE
350
2059
  3
SORTENTS
350
14A
  3
XREFOVERRIDE
350
64B1
  0
DICTIONARY
  5
6B91
102
{ACAD_REACTORS
330
C
102
}
330
C
100
AcDbDictionary
281
     1
  3
AcDsRecords
350
6B93
  3
AcDsSchemas
350
6B92
1001
ACAD
1070
     2
  0
DICTIONARY
  5
20EF
102
{ACAD_REACTORS
330
2044
102
}
330
2044
100
AcDbDictionary
281
     1
  0
DICTIONARY
  5
2045
102
{ACAD_REACTORS
330
2044
102
}
330
2044
100
AcDbDictionary
281
     1
  0
DICTIONARY
  5
20EE
102
{ACAD_REACTORS
330
2044
102
}
330
2044
100
AcDbDictionary
281
     1
1001
ACAD
1000
<AllUsed
  0
XRECORD
  5
2784
102
{ACAD_REACTORS
330
20BE
102
}
330
20BE
100
AcDbXrecord
280
     1
290
     1
  0
SORTENTSTABLE
  5
286F
102
{ACAD_REACTORS
330
286E
102
}
330
286E
100
AcDbSortentsTable
330
1F
331
287B
  5
287C
331
287C
  5
291C
331
2A0F
  5
2A10
331
2A10
  5
2A12
331
2A11
  5
2A13
331
2A12
  5
2A60
331
2A13
  5
2A11
331
2DE6
  5
2DE8
331
2DE7
  5
2DEA
331
2DE8
  5
2DEB
331
2DE9
  5
2DEC
331
2DEA
  5
2DE9
331
4168
  5
447C
331
4470
  5
4483
331
4471
  5
4484
331
4474
  5
49B6
331
4475
  5
49B7
331
5422
  5
5426
331
5427
  5
5428
331
5428
  5
542A
331
542A
  5
542B
331
542B
  5
542C
331
542C
  5
542D
331
542D
  5
542E
331
542F
  5
5430
331
5430
  5
5431
331
5431
  5
5432
331
5434
  5
5435
331
5435
  5
5436
331
5436
  5
5437
331
5437
  5
5438
331
5438
  5
5439
331
5439
  5
543A
331
543A
  5
543B
331
543B
  5
543C
331
543C
  5
543D
331
543D
  5
543E
331
543E
  5
543F
331
5440
  5
5441
331
5441
  5
5444
331
544F
  5
5450
331
5459
  5
545B
331
545A
  5
545C
331
545B
  5
545D
331
545C
  5
545E
331
545D
  5
545F
331
545E
  5
5460
331
545F
  5
5461
331
5460
  5
5462
331
5461
  5
5463
331
5462
  5
5464
331
5463
  5
5466
331
5464
  5
5468
331
5466
  5
5469
331
5468
  5
546C
331
5469
  5
546D
331
546C
  5
547E
331
546D
  5
5485
331
547E
  5
5486
331
5485
  5
5452
331
5486
  5
5421
331
558B
  5
558C
331
558C
  5
558D
331
558D
  5
558F
331
558F
  5
5590
331
5591
  5
5592
331
5592
  5
5593
331
5593
  5
5594
331
5594
  5
5595
331
55A8
  5
55AA
331
55AA
  5
55AB
331
55AB
  5
55AC
331
55AC
  5
55AD
331
55AD
  5
55AE
331
55AE
  5
55AF
331
55AF
  5
55B0
331
55B0
  5
55B1
331
55B1
  5
55B2
331
55B2
  5
55B3
331
55B3
  5
55B4
331
55B4
  5
55B6
331
55B6
  5
55B7
331
55B7
  5
55B8
331
55B8
  5
55BE
331
55C0
  5
55C1
331
55C1
  5
558B
331
573E
  5
5740
331
573F
  5
5742
331
5741
  5
5744
331
5742
  5
5745
331
5744
  5
5746
331
5745
  5
5747
331
5746
  5
5749
331
5747
  5
574B
331
5749
  5
574C
331
574B
  5
574E
331
574C
  5
574F
331
574E
  5
5750
331
574F
  5
5751
331
5750
  5
5752
331
5751
  5
5753
331
5752
  5
5754
331
5753
  5
5755
331
5754
  5
5756
331
5755
  5
5759
331
5756
  5
5761
331
5760
  5
5770
331
576E
  5
5774
331
5773
  5
5775
331
5774
  5
5776
331
5775
  5
5777
331
5776
  5
5778
331
5777
  5
5779
331
5778
  5
577A
331
5779
  5
577B
331
577A
  5
577C
331
577B
  5
5780
331
577F
  5
5783
331
5782
  5
5789
331
5788
  5
578B
331
578A
  5
578D
331
578C
  5
578F
331
578D
  5
5790
331
578F
  5
5791
331
5790
  5
5795
331
5791
  5
5797
331
5795
  5
5798
331
5796
  5
5799
331
5797
  5
579A
331
5798
  5
579B
331
5799
  5
579C
331
579A
  5
57A6
331
579B
  5
58C0
331
579C
  5
58C2
331
57A6
  5
58C3
331
58C0
  5
58C4
331
58C2
  5
58C5
331
58C3
  5
58C6
331
58C4
  5
58C7
331
58C5
  5
58C8
331
58C6
  5
58CB
331
58C7
  5
58CD
331
58C8
  5
58CE
331
58CA
  5
58CF
331
58CB
  5
58D0
331
58CD
  5
58D2
331
58CE
  5
58D4
331
58CF
  5
58D5
331
58D0
  5
58D7
331
58D2
  5
58D8
331
58D4
  5
58D9
331
58D5
  5
58DA
331
58D7
  5
58DB
331
58D8
  5
58DC
331
58D9
  5
58DD
331
58DA
  5
58DE
331
58DB
  5
58DF
331
58DC
  5
58E2
331
58DD
  5
58E5
331
58DE
  5
58E7
331
58DF
  5
58EC
331
58E3
  5
58FB
331
58E5
  5
58FF
331
58EB
  5
5900
331
58F9
  5
5901
331
58FE
  5
5902
331
58FF
  5
5903
331
5900
  5
5904
331
5901
  5
5905
331
5902
  5
5909
331
5903
  5
590C
331
5904
  5
5912
331
5908
  5
5913
331
590B
  5
5914
331
5911
  5
5915
331
5912
  5
5916
331
5913
  5
5917
331
5914
  5
5919
331
5915
  5
591A
331
5916
  5
591B
331
5918
  5
591C
331
5919
  5
591F
331
591A
  5
5920
331
591B
  5
5921
331
591E
  5
5922
331
591F
  5
5923
331
5920
  5
5924
331
5921
  5
5925
331
5922
  5
5929
331
5923
  5
5930
331
5924
  5
5932
331
5925
  5
5933
331
5929
  5
5934
331
5931
  5
5938
331
5932
  5
593B
331
5933
  5
593C
331
5937
  5
593D
331
593A
  5
593E
331
593B
  5
593F
331
593C
  5
5940
331
593D
  5
5942
331
593E
  5
5943
331
593F
  5
5944
331
5940
  5
5945
331
5942
  5
5946
331
5943
  5
5947
331
5944
  5
5948
331
5945
  5
5949
331
5946
  5
594A
331
5947
  5
594B
331
5948
  5
594C
331
5949
  5
5B1A
331
594A
  5
5B1B
331
594B
  5
5B1C
331
594C
  5
5B1D
331
5B1A
  5
5B1E
331
5B1B
  5
5B21
331
5B1C
  5
5B22
331
5B1D
  5
5B23
331
5B20
  5
5B24
331
5B21
  5
5B25
331
5B22
  5
5B26
331
5B23
  5
5B27
331
5B24
  5
5B29
331
5B25
  5
5B2A
331
5B28
  5
5B2C
331
5B29
  5
5B2D
331
5B2A
  5
5B2E
331
5B2B
  5
5B2F
331
5B2C
  5
5B30
331
5B2D
  5
5B31
331
5B2E
  5
5B32
331
5B2F
  5
5B33
331
5B30
  5
5B34
331
5B31
  5
5B35
331
5B32
  5
5B36
331
5B33
  5
5B37
331
5B34
  5
5B38
331
5B35
  5
5B39
331
5B36
  5
5B3A
331
5B37
  5
5B44
331
5B38
  5
5B45
331
5B39
  5
5B46
331
5B3A
  5
5B47
331
5B44
  5
5B4A
331
5B45
  5
5B4C
331
5B46
  5
5B4E
331
5B49
  5
5B4F
331
5B4A
  5
5B51
331
5B4C
  5
5B54
331
5B4E
  5
5B56
331
5B4F
  5
5B57
331
5B50
  5
5B58
331
5B51
  5
5B59
331
5B55
  5
5B5A
331
5B56
  5
5B5B
331
5B57
  5
5B5C
331
5B58
  5
5B5E
331
5B59
  5
5B5F
331
5B5A
  5
5B60
331
5B5B
  5
5B61
331
5B5D
  5
5B62
331
5B5E
  5
5B63
331
5B5F
  5
5B64
331
5B60
  5
5B65
331
5B61
  5
5B66
331
5B62
  5
5B6B
331
5B63
  5
5B6C
331
5B64
  5
5B78
331
5B65
  5
5B79
331
5B6A
  5
5B81
331
5B77
  5
5B83
331
5B78
  5
5B84
331
5B80
  5
5B85
331
5B81
  5
5B86
331
5B82
  5
5C68
331
5B83
  5
5C69
331
5B84
  5
5C6C
331
5B85
  5
5C6D
331
5C59
  5
5C6E
331
5C68
  5
5C6F
331
5C69
  5
5C71
331
5C6C
  5
5C73
331
5C6D
  5
5C74
331
5C6E
  5
5D54
331
5C6F
  5
5E72
331
5C71
  5
5E73
331
5C73
  5
5E74
331
5C74
  5
5E75
331
5E71
  5
573F
331
5E72
  5
5E76
331
5E73
  5
5E78
331
5E74
  5
5E79
331
5E75
  5
5E7A
331
5E76
  5
5E7C
331
5E78
  5
5E7E
331
5E79
  5
5E7F
331
5E7A
  5
5E80
331
5E7C
  5
5E81
331
5E7D
  5
5E82
331
5E7E
  5
5E83
331
5E7F
  5
5E85
331
5E80
  5
5E87
331
5E81
  5
5E88
331
5E82
  5
5E89
331
5E83
  5
5E8B
331
5E85
  5
5E8C
331
5E87
  5
5E8D
331
5E88
  5
5E8E
331
5E89
  5
5E90
331
5E8B
  5
5E91
331
5E8C
  5
5E92
331
5E8D
  5
5E93
331
5E8E
  5
5E95
331
5E8F
  5
5E96
331
5E90
  5
5E97
331
5E91
  5
5E99
331
5E92
  5
5E9A
331
5E93
  5
5E9B
331
5E95
  5
5E9C
331
5E96
  5
5E9D
331
5E97
  5
5E9E
331
5E98
  5
5E9F
331
5E99
  5
5EA0
331
5E9A
  5
5EA1
331
5E9B
  5
5EA2
331
5E9C
  5
5EA3
331
5E9D
  5
5EA5
331
5E9E
  5
5F6E
331
5E9F
  5
5F6F
331
5EA0
  5
5F70
331
5EA1
  5
5F71
331
5EA2
  5
5F72
331
5EA3
  5
5F73
331
5EA5
  5
5F74
331
5F6E
  5
5F75
331
5F6F
  5
5F76
331
5F70
  5
5F77
331
5F71
  5
5F78
331
5F72
  5
5F79
331
5F73
  5
5F7A
331
5F74
  5
5F7B
331
5F75
  5
5F7C
331
5F76
  5
5F7D
331
5F77
  5
5F7E
331
5F78
  5
5F7F
331
5F79
  5
5F80
331
5F7A
  5
5F81
331
5F7B
  5
5F82
331
5F7C
  5
5F83
331
5F7D
  5
5F84
331
5F7E
  5
5F85
331
5F7F
  5
5F86
331
5F80
  5
5F87
331
5F81
  5
5F88
331
5F82
  5
5F89
331
5F83
  5
5F8A
331
5F84
  5
5F8B
331
5F85
  5
5F8C
331
5F86
  5
5F8D
331
5F87
  5
5F8E
331
5F88
  5
5F8F
331
5F89
  5
5F90
331
5F8A
  5
5F91
331
5F8B
  5
5F92
331
5F8C
  5
5F93
331
5F8D
  5
5F94
331
5F8E
  5
5F96
331
5F8F
  5
5F97
331
5F90
  5
5F98
331
5F91
  5
5F99
331
5F92
  5
5F9A
331
5F93
  5
5F9B
331
5F94
  5
5F9D
331
5F95
  5
5F9E
331
5F96
  5
5F9F
331
5F97
  5
5FA0
331
5F98
  5
5FA1
331
5F99
  5
5FA2
331
5F9A
  5
5FA3
331
5F9B
  5
5FA4
331
5F9D
  5
5FA5
331
5F9E
  5
5FA6
331
5F9F
  5
5FA7
331
5FA0
  5
5FA8
331
5FA1
  5
5FA9
331
5FA2
  5
5FAA
331
5FA3
  5
5FAB
331
5FA4
  5
5FAC
331
5FA5
  5
5FAD
331
5FA6
  5
5FAE
331
5FA7
  5
5FAF
331
5FA8
  5
5FB0
331
5FA9
  5
5FB1
331
5FAA
  5
5FB2
331
5FAB
  5
5FB3
331
5FAC
  5
5FB4
331
5FAD
  5
5FB5
331
5FAE
  5
5FB6
331
5FAF
  5
5FB7
331
5FB0
  5
5FB8
331
5FB1
  5
5FB9
331
5FB2
  5
5FBA
331
5FB3
  5
5FBB
331
5FB4
  5
5FBC
331
5FB5
  5
5FBD
331
5FB6
  5
5FBE
331
5FB7
  5
5FBF
331
5FB8
  5
5FC0
331
5FB9
  5
5FC1
331
5FBA
  5
5FC2
331
5FBB
  5
5FC3
331
5FBC
  5
5FC4
331
5FBD
  5
5FC5
331
5FBE
  5
5FC6
331
5FBF
  5
5FC7
331
5FC0
  5
5FC8
331
5FC1
  5
5FC9
331
5FC2
  5
5FCA
331
5FC3
  5
5FCB
331
5FC4
  5
5FCC
331
5FC5
  5
5FCD
331
5FC6
  5
5FCE
331
5FC7
  5
5FCF
331
5FC8
  5
5FD0
331
5FC9
  5
5FD1
331
5FCA
  5
5FD2
331
5FCB
  5
5FD3
331
5FCC
  5
5FD4
331
5FCD
  5
5FD5
331
5FCE
  5
5FD6
331
5FCF
  5
5FD7
331
5FD0
  5
5FD8
331
5FD1
  5
5FD9
331
5FD2
  5
5FDA
331
5FD3
  5
5FDB
331
5FD4
  5
5FDC
331
5FD5
  5
5FDD
331
5FD6
  5
5FDE
331
5FD7
  5
5FDF
331
5FD8
  5
5FE0
331
5FD9
  5
5FE2
331
5FDA
  5
5FE4
331
5FDB
  5
5FE5
331
5FDC
  5
5FE6
331
5FDD
  5
5FE7
331
5FDE
  5
5FE8
331
5FDF
  5
5FE9
331
5FE0
  5
5FEA
331
5FE1
  5
5FEB
331
5FE2
  5
5FEC
331
5FE4
  5
5FED
331
5FE5
  5
5FEE
331
5FE6
  5
5FEF
331
5FE7
  5
5FF0
331
5FE8
  5
5FF1
331
5FE9
  5
5FF2
331
5FEA
  5
5FF3
331
5FEB
  5
5FF4
331
5FEC
  5
5FF5
331
5FED
  5
5FF6
331
5FEE
  5
5FF7
331
5FEF
  5
5FF8
331
5FF0
  5
5FF9
331
5FF1
  5
5FFA
331
5FF2
  5
5FFB
331
5FF3
  5
5FFC
331
5FF4
  5
5FFD
331
5FF5
  5
5FFE
331
5FF6
  5
5FFF
331
5FF7
  5
6000
331
5FF8
  5
6001
331
5FF9
  5
6002
331
5FFA
  5
6003
331
5FFB
  5
6004
331
5FFC
  5
6005
331
5FFD
  5
6006
331
5FFE
  5
6007
331
5FFF
  5
6008
331
6000
  5
600A
331
6001
  5
600B
331
6002
  5
600C
331
6003
  5
600E
331
6004
  5
600F
331
6005
  5
6010
331
6006
  5
6011
331
6007
  5
6012
331
6008
  5
6013
331
6009
  5
6014
331
600A
  5
6015
331
600B
  5
6016
331
600C
  5
6017
331
600E
  5
6018
331
600F
  5
6019
331
6010
  5
601A
331
6011
  5
601B
331
6012
  5
601C
331
6013
  5
601D
331
6014
  5
601E
331
6015
  5
601F
331
6016
  5
6020
331
6017
  5
6021
331
6018
  5
6022
331
6019
  5
6023
331
601A
  5
6024
331
601B
  5
6025
331
601C
  5
6026
331
601D
  5
6027
331
601E
  5
602A
331
601F
  5
602B
331
6020
  5
602C
331
6021
  5
602D
331
6022
  5
602E
331
6023
  5
602F
331
6024
  5
60FC
331
6025
  5
6101
331
6026
  5
6102
331
6027
  5
6103
331
6029
  5
6104
331
602A
  5
6105
331
602B
  5
6106
331
602C
  5
6107
331
602D
  5
610A
331
602E
  5
610B
331
602F
  5
610C
331
60FC
  5
610D
331
6101
  5
610E
331
6102
  5
610F
331
6103
  5
6110
331
6104
  5
6111
331
6105
  5
6112
331
6106
  5
6113
331
6107
  5
6116
331
610A
  5
6117
331
610B
  5
6118
331
610C
  5
611B
331
610D
  5
611D
331
610E
  5
611E
331
610F
  5
6120
331
6110
  5
6122
331
6111
  5
6123
331
6112
  5
6124
331
6113
  5
6125
331
6116
  5
6126
331
6117
  5
6128
331
6118
  5
6130
331
611B
  5
6131
331
611D
  5
6134
331
611E
  5
6141
331
6120
  5
6142
331
6122
  5
6145
331
6123
  5
6146
331
6124
  5
6147
331
6125
  5
6148
331
6126
  5
6149
331
6127
  5
614A
331
6128
  5
614B
331
6130
  5
614C
331
6131
  5
614D
331
6134
  5
614E
331
6141
  5
614F
331
6142
  5
6150
331
6145
  5
6151
331
6146
  5
6152
331
6147
  5
6153
331
6148
  5
6154
331
6149
  5
6155
331
614A
  5
6159
331
614B
  5
615C
331
614C
  5
615D
331
614D
  5
615F
331
614E
  5
6164
331
614F
  5
61FD
331
6150
  5
6200
331
6151
  5
6201
331
6152
  5
6202
331
6153
  5
6203
331
6154
  5
6206
331
6155
  5
6207
331
6159
  5
6208
331
615C
  5
6209
331
615D
  5
620A
331
615F
  5
62E3
331
6164
  5
62EB
331
61FD
  5
62EE
331
6200
  5
62EF
331
6201
  5
62F7
331
6202
  5
62F8
331
6203
  5
62F9
331
6206
  5
62FA
331
6207
  5
62FB
331
6208
  5
62FC
331
6209
  5
62FD
331
620A
  5
62FE
331
62E3
  5
62FF
331
62EB
  5
6300
331
62EE
  5
6301
331
62EF
  5
6302
331
62F7
  5
6303
331
62F8
  5
6304
331
62F9
  5
6305
331
62FA
  5
6306
331
62FB
  5
6307
331
62FC
  5
6308
331
62FD
  5
6309
331
62FE
  5
630C
331
62FF
  5
630D
331
6300
  5
630E
331
6301
  5
630F
331
6302
  5
6310
331
6303
  5
6311
331
6304
  5
6312
331
6305
  5
6314
331
6306
  5
6315
331
6307
  5
6316
331
6308
  5
6317
331
6309
  5
6318
331
630C
  5
6319
331
630D
  5
631D
331
630E
  5
631E
331
630F
  5
631F
331
6310
  5
6321
331
6311
  5
6323
331
6312
  5
6324
331
6314
  5
632A
331
6315
  5
632C
331
6316
  5
6331
331
6317
  5
6332
331
6318
  5
6333
331
6319
  5
6334
331
631D
  5
6335
331
631E
  5
6336
331
631F
  5
6337
331
6321
  5
6338
331
6322
  5
6339
331
6323
  5
633C
331
6324
  5
633E
331
632A
  5
63FC
331
632C
  5
63FD
331
6331
  5
63FF
331
6332
  5
6400
331
6333
  5
6401
331
6334
  5
6402
331
6335
  5
6403
331
6336
  5
6404
331
6337
  5
6406
331
6338
  5
6408
331
6339
  5
6409
331
633C
  5
640A
331
633E
  5
640B
331
63FC
  5
640D
331
63FD
  5
640E
331
63FF
  5
640F
331
6400
  5
6410
331
6401
  5
6411
331
6402
  5
6412
331
6403
  5
6413
331
6404
  5
6414
331
6406
  5
6415
331
6408
  5
6417
331
6409
  5
6418
331
640A
  5
641A
331
640B
  5
641B
331
640D
  5
641C
331
640E
  5
641D
331
640F
  5
641E
331
6410
  5
641F
331
6411
  5
6420
331
6412
  5
6423
331
6413
  5
6424
331
6414
  5
6425
331
6415
  5
6426
331
6417
  5
6427
331
6418
  5
6428
331
6419
  5
6429
331
641A
  5
643F
331
641B
  5
6440
331
641C
  5
6441
331
641D
  5
6444
331
641E
  5
6445
331
641F
  5
6446
331
6420
  5
6447
331
6423
  5
6448
331
6424
  5
6449
331
6425
  5
644A
331
6426
  5
644B
331
6427
  5
644C
331
6428
  5
644D
331
6429
  5
644E
331
643F
  5
6451
331
6440
  5
6453
331
6441
  5
6454
331
6444
  5
6455
331
6445
  5
6456
331
6446
  5
6458
331
6447
  5
6459
331
6448
  5
645A
331
6449
  5
645B
331
644A
  5
645C
331
644B
  5
645D
331
644C
  5
645E
331
644D
  5
645F
331
644E
  5
6460
331
6451
  5
6461
331
6453
  5
6462
331
6454
  5
6463
331
6455
  5
6464
331
6456
  5
6465
331
6457
  5
6467
331
6458
  5
6468
331
6459
  5
6469
331
645A
  5
646A
331
645B
  5
646B
331
645C
  5
646C
331
645D
  5
646D
331
645E
  5
646E
331
645F
  5
646F
331
6460
  5
6470
331
6461
  5
6471
331
6462
  5
6472
331
6463
  5
6474
331
6464
  5
6475
331
6465
  5
6B0A
331
6467
  5
6B0B
331
6468
  5
6B0C
331
6469
  5
6B0D
331
646A
  5
6B0E
331
646B
  5
6B0F
331
646C
  5
6B10
331
646D
  5
6B11
331
646E
  5
6B12
331
646F
  5
6B13
331
6470
  5
6B14
331
6471
  5
6B15
331
6472
  5
6B16
331
6473
  5
6B17
331
6474
  5
6B18
331
6475
  5
6B19
331
6B0A
  5
5E8F
331
6B0B
  5
5796
331
6B0C
  5
573E
331
6B0D
  5
5E7D
331
6B0E
  5
58C9
331
6B0F
  5
5E98
331
6B10
  5
6127
331
6B11
  5
6473
331
6B12
  5
5B50
331
6B13
  5
6457
331
6B14
  5
5F95
331
6B15
  5
6009
331
6B16
  5
5FE1
331
6B17
  5
6029
331
6B18
  5
6322
331
6B19
  5
6419
  0
XRECORD
  5
2766
102
{ACAD_REACTORS
330
2765
102
}
330
2765
100
AcDbXrecord
280
     1
 90
        1
340
200C
  0
ACDBDETAILVIEWSTYLE
  5
5377
102
{ACAD_XDICTIONARY
360
6B96
102
}
102
{ACAD_REACTORS
330
5376
102
}
330
5376
100
AcDbModelDocViewStyle
 70
     0
  3
Metric50
290
     0
100
AcDbDetailViewStyle
 70
     0
 71
     0
 90
        3
 71
     1
340
11
 62
   256
 40
5.0
340
0
 62
   256
 40
5.0
300

 40
0.0
280
     1
 71
     2
340
16
 90
       25
 62
   256
 71
     3
340
11
 62
   256
 40
5.0
 90
        0
 40
15.0
 90
        1
300
%<\AcVar ViewDetailId>% (%<\AcVar ViewScale \f "%sn">%)
 71
     4
340
16
 90
       25
 62
   256
340
16
 90
       25
 62
   256
280
     0
  0
LAYOUT
  5
22
102
{ACAD_XDICTIONARY
360
277B
102
}
102
{ACAD_REACTORS
330
1A
102
}
330
1A
100
AcDbPlotSettings
  1

  2
\\8FCL3\IPSIO NX710
  4
A4
  6

 40
5.831416606903076
 41
4.942422866821289
 42
7.609405517578125
 43
5.789093017578125
 44
209.9733276367187
 45
296.9683227539062
 46
0.0
 47
0.0
 48
0.0
 49
0.0
140
0.0
141
0.0
142
1.0
143
1.334254467352194
 70
 11952
 72
     1
 73
     1
 74
     0
  7

 75
     0
147
0.7494822198230922
 76
     0
 77
     2
 78
   300
148
-57.88030180184231
149
202.7182899524258
100
AcDbLayout
  1
Model
 70
     1
 71
     0
 10
0.0
 20
0.0
 11
12.0
 21
9.0
 12
0.0
 22
0.0
 32
0.0
 14
0.0
 24
0.0
 34
0.0
 15
0.0
 25
0.0
 35
0.0
146
0.0
 13
0.0
 23
0.0
 33
0.0
 16
1.0
 26
0.0
 36
0.0
 17
0.0
 27
1.0
 37
0.0
 76
     0
330
1F
331
1D8F
  0
LAYOUT
  5
275E
102
{ACAD_XDICTIONARY
360
2772
102
}
102
{ACAD_REACTORS
330
1A
102
}
330
1A
100
AcDbPlotSettings
  1

  2
HMYPR07
  4
A4
  6

 40
5.873749732971191
 41
5.873747825622558
 42
5.873748779296875
 43
5.873748779296875
 44
209.9733276367187
 45
296.9259948730469
 46
0.0
 47
0.0
 48
0.0
 49
0.0
140
0.0
141
0.0
142
1.0
143
1.0
 70
   688
 72
     1
 73
     1
 74
     5
  7

 75
    16
147
1.0
 76
     0
 77
     2
 78
   300
148
0.0
149
0.0
100
AcDbLayout
  1
レイアウト1
 70
     1
 71
     1
 10
-5.873748779296875
 20
-5.873749732971191
 11
291.05224609375
 21
204.0995779037475
 12
0.0
 22
0.0
 32
0.0
 14
1.000000000000000E+20
 24
1.000000000000000E+20
 34
1.000000000000000E+20
 15
-1.000000000000000E+20
 25
-1.000000000000000E+20
 35
-1.000000000000000E+20
146
0.0
 13
0.0
 23
0.0
 33
0.0
 16
1.0
 26
0.0
 36
0.0
 17
0.0
 27
1.0
 37
0.0
 76
     0
330
275D
331
2764
1001
ACAD_PSEXT
1000
HMYPR07
1000
Canon LBP3920/3970 LIPS
1000
192.168.32.57
1000

1070
     0
  0
MATERIAL
  5
1FE7
102
{ACAD_XDICTIONARY
360
1FE8
102
}
102
{ACAD_REACTORS
330
1FDE
102
}
330
1FDE
100
AcDbMaterial
  1
ByBlock
 72
     0
 43
0.0008202099737533
 43
0.0
 43
0.0
 43
0.0
 43
0.0
 43
0.0008202099737533
 43
0.0
 43
0.0
 43
0.0
 43
0.0
 43
1.0
 43
0.0
 43
0.0
 43
0.0
 43
0.0
 43
1.0
 77
     0
 47
0.0008202099737533
 47
0.0
 47
0.0
 47
0.0
 47
0.0
 47
0.0008202099737533
 47
0.0
 47
0.0
 47
0.0
 47
0.0
 47
1.0
 47
0.0
 47
0.0
 47
0.0
 47
0.0
 47
1.0
171
     0
 49
0.0008202099737533
 49
0.0
 49
0.0
 49
0.0
 49
0.0
 49
0.0008202099737533
 49
0.0
 49
0.0
 49
0.0
 49
0.0
 49
1.0
 49
0.0
 49
0.0
 49
0.0
 49
0.0
 49
1.0
175
     0
142
0.0008202099737533
142
0.0
142
0.0
142
0.0
142
0.0
142
0.0008202099737533
142
0.0
142
0.0
142
0.0
142
0.0
142
1.0
142
0.0
142
0.0
142
0.0
142
0.0
142
1.0
179
     0
144
0.0008202099737533
144
0.0
144
0.0
144
0.0
144
0.0
144
0.0008202099737533
144
0.0
144
0.0
144
0.0
144
0.0
144
1.0
144
0.0
144
0.0
144
0.0
144
0.0
144
1.0
147
0.0008202099737533
147
0.0
147
0.0
147
0.0
147
0.0
147
0.0008202099737533
147
0.0
147
0.0
147
0.0
147
0.0
147
1.0
147
0.0
147
0.0
147
0.0
147
0.0
147
1.0
  0
MATERIAL
  5
1FDF
102
{ACAD_XDICTIONARY
360
1FE0
102
}
102
{ACAD_REACTORS
330
1FDE
102
}
330
1FDE
100
AcDbMaterial
  1
ByLayer
 72
     0
 43
0.0008202099737533
 43
0.0
 43
0.0
 43
0.0
 43
0.0
 43
0.0008202099737533
 43
0.0
 43
0.0
 43
0.0
 43
0.0
 43
1.0
 43
0.0
 43
0.0
 43
0.0
 43
0.0
 43
1.0
 77
     0
 47
0.0008202099737533
 47
0.0
 47
0.0
 47
0.0
 47
0.0
 47
0.0008202099737533
 47
0.0
 47
0.0
 47
0.0
 47
0.0
 47
1.0
 47
0.0
 47
0.0
 47
0.0
 47
0.0
 47
1.0
171
     0
 49
0.0008202099737533
 49
0.0
 49
0.0
 49
0.0
 49
0.0
 49
0.0008202099737533
 49
0.0
 49
0.0
 49
0.0
 49
0.0
 49
1.0
 49
0.0
 49
0.0
 49
0.0
 49
0.0
 49
1.0
175
     0
142
0.0008202099737533
142
0.0
142
0.0
142
0.0
142
0.0
142
0.0008202099737533
142
0.0
142
0.0
142
0.0
142
0.0
142
1.0
142
0.0
142
0.0
142
0.0
142
0.0
142
1.0
179
     0
144
0.0008202099737533
144
0.0
144
0.0
144
0.0
144
0.0
144
0.0008202099737533
144
0.0
144
0.0
144
0.0
144
0.0
144
1.0
144
0.0
144
0.0
144
0.0
144
0.0
144
1.0
147
0.0008202099737533
147
0.0
147
0.0
147
0.0
147
0.0
147
0.0008202099737533
147
0.0
147
0.0
147
0.0
147
0.0
147
1.0
147
0.0
147
0.0
147
0.0
147
0.0
147
1.0
  0
MATERIAL
  5
1FEF
102
{ACAD_XDICTIONARY
360
1FF0
102
}
102
{ACAD_REACTORS
330
1FDE
102
}
330
1FDE
100
AcDbMaterial
  1
Global
 72
     0
 43
0.0008202099737533
 43
0.0
 43
0.0
 43
0.0
 43
0.0
 43
0.0008202099737533
 43
0.0
 43
0.0
 43
0.0
 43
0.0
 43
1.0
 43
0.0
 43
0.0
 43
0.0
 43
0.0
 43
1.0
 77
     0
 47
0.0008202099737533
 47
0.0
 47
0.0
 47
0.0
 47
0.0
 47
0.0008202099737533
 47
0.0
 47
0.0
 47
0.0
 47
0.0
 47
1.0
 47
0.0
 47
0.0
 47
0.0
 47
0.0
 47
1.0
171
     0
 49
0.0008202099737533
 49
0.0
 49
0.0
 49
0.0
 49
0.0
 49
0.0008202099737533
 49
0.0
 49
0.0
 49
0.0
 49
0.0
 49
1.0
 49
0.0
 49
0.0
 49
0.0
 49
0.0
 49
1.0
175
     0
142
0.0008202099737533
142
0.0
142
0.0
142
0.0
142
0.0
142
0.0008202099737533
142
0.0
142
0.0
142
0.0
142
0.0
142
1.0
142
0.0
142
0.0
142
0.0
142
0.0
142
1.0
179
     0
144
0.0008202099737533
144
0.0
144
0.0
144
0.0
144
0.0
144
0.0008202099737533
144
0.0
144
0.0
144
0.0
144
0.0
144
1.0
144
0.0
144
0.0
144
0.0
144
0.0
144
1.0
147
0.0008202099737533
147
0.0
147
0.0
147
0.0
147
0.0
147
0.0008202099737533
147
0.0
147
0.0
147
0.0
147
0.0
147
1.0
147
0.0
147
0.0
147
0.0
147
0.0
147
1.0
  0
MLEADERSTYLE
  5
202E
102
{ACAD_REACTORS
330
202D
102
}
330
202D
100
AcDbMLeaderStyle
179
     2
170
     2
171
     1
172
     0
 90
        2
 40
0.0
 41
0.0
173
     1
 91
-1056964608
340
14
 92
       -2
290
     1
 42
2.0
291
     1
 43
0.36
  3
Standard
 44
4.0
300

342
11
174
     1
178
     6
175
     1
176
     0
 93
-1056964608
 45
4.0
292
     0
297
     0
 46
4.0
 94
-1056964608
 47
1.0
 49
1.0
140
1.0
293
     1
141
0.0
294
     1
177
     0
142
1.0
295
     0
296
     0
143
0.125
271
     0
272
     9
273
     9
298
     0
  0
MLEADERSTYLE
  5
21B6
102
{ACAD_REACTORS
330
202D
102
}
330
202D
100
AcDbMLeaderStyle
179
     2
170
     2
171
     1
172
     0
 90
        2
 40
0.0
 41
0.0
173
     1
 91
-1073741824
340
15
 92
       -1
290
     1
 42
1.0
291
     1
 43
0.5
  3
Standard
 44
2.5
300

342
DE0
174
     5
178
     5
175
     1
176
     0
 93
-1073741824
 45
2.5
292
     0
297
     0
 46
4.0
 94
-1056964608
 47
1.0
 49
1.0
140
1.0
293
     1
141
0.0
294
     1
177
     0
142
0.0
295
     0
296
     0
143
0.125
271
     0
272
     9
273
     9
298
     0
  0
MLINESTYLE
  5
18
102
{ACAD_REACTORS
330
17
102
}
330
17
100
AcDbMlineStyle
  2
STANDARD
 70
     0
  3

 62
   256
 51
90.0
 52
90.0
 71
     2
 49
0.5
 62
   256
  6
BYLAYER
 49
-0.5
 62
   256
  6
BYLAYER
  0
ACDBPLACEHOLDER
  5
F
102
{ACAD_REACTORS
330
E
102
}
330
E
  0
SCALE
  5
200C
102
{ACAD_REACTORS
330
200B
102
}
330
200B
100
AcDbScale
 70
     0
300
1:1
140
1.0
141
1.0
290
     1
  0
SCALE
  5
200D
102
{ACAD_REACTORS
330
200B
102
}
330
200B
100
AcDbScale
 70
     0
300
1:2
140
1.0
141
2.0
290
     0
  0
SCALE
  5
200E
102
{ACAD_REACTORS
330
200B
102
}
330
200B
100
AcDbScale
 70
     0
300
1:4
140
1.0
141
4.0
290
     0
  0
SCALE
  5
200F
102
{ACAD_REACTORS
330
200B
102
}
330
200B
100
AcDbScale
 70
     0
300
1:5
140
1.0
141
5.0
290
     0
  0
SCALE
  5
2010
102
{ACAD_REACTORS
330
200B
102
}
330
200B
100
AcDbScale
 70
     0
300
1:8
140
1.0
141
8.0
290
     0
  0
SCALE
  5
2011
102
{ACAD_REACTORS
330
200B
102
}
330
200B
100
AcDbScale
 70
     0
300
1:10
140
1.0
141
10.0
290
     0
  0
SCALE
  5
2012
102
{ACAD_REACTORS
330
200B
102
}
330
200B
100
AcDbScale
 70
     0
300
1:16
140
1.0
141
16.0
290
     0
  0
SCALE
  5
2013
102
{ACAD_REACTORS
330
200B
102
}
330
200B
100
AcDbScale
 70
     0
300
1:20
140
1.0
141
20.0
290
     0
  0
SCALE
  5
2014
102
{ACAD_REACTORS
330
200B
102
}
330
200B
100
AcDbScale
 70
     0
300
1:30
140
1.0
141
30.0
290
     0
  0
SCALE
  5
2015
102
{ACAD_REACTORS
330
200B
102
}
330
200B
100
AcDbScale
 70
     0
300
1:40
140
1.0
141
40.0
290
     0
  0
SCALE
  5
2016
102
{ACAD_REACTORS
330
200B
102
}
330
200B
100
AcDbScale
 70
     0
300
1:50
140
1.0
141
50.0
290
     0
  0
SCALE
  5
2017
102
{ACAD_REACTORS
330
200B
102
}
330
200B
100
AcDbScale
 70
     0
300
1:100
140
1.0
141
100.0
290
     0
  0
SCALE
  5
2018
102
{ACAD_REACTORS
330
200B
102
}
330
200B
100
AcDbScale
 70
     0
300
2:1
140
2.0
141
1.0
290
     0
  0
SCALE
  5
2019
102
{ACAD_REACTORS
330
200B
102
}
330
200B
100
AcDbScale
 70
     0
300
4:1
140
4.0
141
1.0
290
     0
  0
SCALE
  5
201A
102
{ACAD_REACTORS
330
200B
102
}
330
200B
100
AcDbScale
 70
     0
300
8:1
140
8.0
141
1.0
290
     0
  0
SCALE
  5
201B
102
{ACAD_REACTORS
330
200B
102
}
330
200B
100
AcDbScale
 70
     0
300
10:1
140
10.0
141
1.0
290
     0
  0
SCALE
  5
201C
102
{ACAD_REACTORS
330
200B
102
}
330
200B
100
AcDbScale
 70
     0
300
100:1
140
100.0
141
1.0
290
     0
  0
SCALE
  5
201D
102
{ACAD_REACTORS
330
200B
102
}
330
200B
100
AcDbScale
 70
     0
300
1/128" = 1'-0"
140
0.0078125
141
12.0
290
     0
  0
SCALE
  5
201E
102
{ACAD_REACTORS
330
200B
102
}
330
200B
100
AcDbScale
 70
     0
300
1/64" = 1'-0"
140
0.015625
141
12.0
290
     0
  0
SCALE
  5
201F
102
{ACAD_REACTORS
330
200B
102
}
330
200B
100
AcDbScale
 70
     0
300
1/32" = 1'-0"
140
0.03125
141
12.0
290
     0
  0
SCALE
  5
2020
102
{ACAD_REACTORS
330
200B
102
}
330
200B
100
AcDbScale
 70
     0
300
1/16" = 1'-0"
140
0.0625
141
12.0
290
     0
  0
SCALE
  5
2021
102
{ACAD_REACTORS
330
200B
102
}
330
200B
100
AcDbScale
 70
     0
300
3/32" = 1'-0"
140
0.09375
141
12.0
290
     0
  0
SCALE
  5
2022
102
{ACAD_REACTORS
330
200B
102
}
330
200B
100
AcDbScale
 70
     0
300
1/8" = 1'-0"
140
0.125
141
12.0
290
     0
  0
SCALE
  5
2023
102
{ACAD_REACTORS
330
200B
102
}
330
200B
100
AcDbScale
 70
     0
300
3/16" = 1'-0"
140
0.1875
141
12.0
290
     0
  0
SCALE
  5
2024
102
{ACAD_REACTORS
330
200B
102
}
330
200B
100
AcDbScale
 70
     0
300
1/4" = 1'-0"
140
0.25
141
12.0
290
     0
  0
SCALE
  5
2025
102
{ACAD_REACTORS
330
200B
102
}
330
200B
100
AcDbScale
 70
     0
300
3/8" = 1'-0"
140
0.375
141
12.0
290
     0
  0
SCALE
  5
2026
102
{ACAD_REACTORS
330
200B
102
}
330
200B
100
AcDbScale
 70
     0
300
1/2" = 1'-0"
140
0.5
141
12.0
290
     0
  0
SCALE
  5
2027
102
{ACAD_REACTORS
330
200B
102
}
330
200B
100
AcDbScale
 70
     0
300
3/4" = 1'-0"
140
0.75
141
12.0
290
     0
  0
SCALE
  5
2028
102
{ACAD_REACTORS
330
200B
102
}
330
200B
100
AcDbScale
 70
     0
300
1" = 1'-0"
140
1.0
141
12.0
290
     0
  0
SCALE
  5
2029
102
{ACAD_REACTORS
330
200B
102
}
330
200B
100
AcDbScale
 70
     0
300
1-1/2" = 1'-0"
140
1.5
141
12.0
290
     0
  0
SCALE
  5
202A
102
{ACAD_REACTORS
330
200B
102
}
330
200B
100
AcDbScale
 70
     0
300
3" = 1'-0"
140
3.0
141
12.0
290
     0
  0
SCALE
  5
202B
102
{ACAD_REACTORS
330
200B
102
}
330
200B
100
AcDbScale
 70
     0
300
6" = 1'-0"
140
6.0
141
12.0
290
     0
  0
SCALE
  5
202C
102
{ACAD_REACTORS
330
200B
102
}
330
200B
100
AcDbScale
 70
     0
300
1'-0" = 1'-0"
140
12.0
141
12.0
290
     0
  0
ACDBSECTIONVIEWSTYLE
  5
5375
102
{ACAD_XDICTIONARY
360
6B94
102
}
102
{ACAD_REACTORS
330
5374
102
}
330
5374
100
AcDbModelDocViewStyle
 70
     0
  3
Metric50
290
     0
100
AcDbSectionViewStyle
 70
     0
 71
     0
 90
      102
 71
     1
340
11
 62
   256
 40
5.0
340
0
340
0
 62
   256
 40
5.0
300
I, O, Q, S, X, Z
 40
10.0
 90
        0
 40
2.5
 90
        0
 71
     2
340
16
 90
       25
 62
   256
340
16
 90
       50
 62
   256
 40
5.0
 40
2.5
 40
5.0
 71
     3
340
11
 62
   256
 40
5.0
 90
        0
 40
15.0
 90
        1
300
%<\AcVar ViewSectionStartId>%-%<\AcVar ViewSectionEndId>% (%<\AcVar ViewScale \f "%sn">%)
 71
     4
 62
   256
 62
   257
300
ANSI31
 40
1.0
 90
        0
290
     0
290
     0
 90
        6
 40
0.0
 40
1.570796326794896
 40
0.2617993877991494
 40
1.308996938995747
 40
-0.2617993877991494
 40
1.832595714594046
  0
TABLESTYLE
  5
200A
102
{ACAD_XDICTIONARY
360
2054
102
}
102
{ACAD_REACTORS
330
2009
102
}
330
2009
100
AcDbTableStyle
280
     0
  3
Standard
 70
     0
 71
     0
 40
1.5
 41
1.5
280
     0
281
     0
  7
Standard
140
4.5
170
     2
 62
     0
 63
     7
283
     0
 90
      512
 91
        0
  1

274
    -2
284
     1
 64
     0
275
    -2
285
     1
 65
     0
276
    -2
286
     1
 66
     0
277
    -2
287
     1
 67
     0
278
    -2
288
     1
 68
     0
279
    -2
289
     1
 69
     0
  7
Standard
140
6.0
170
     5
 62
     0
 63
     7
283
     0
 90
      512
 91
        0
  1

274
    -2
284
     1
 64
     0
275
    -2
285
     1
 65
     0
276
    -2
286
     1
 66
     0
277
    -2
287
     1
 67
     0
278
    -2
288
     1
 68
     0
279
    -2
289
     1
 69
     0
  7
Standard
140
4.5
170
     5
 62
     0
 63
     7
283
     0
 90
      512
 91
        0
  1

274
    -2
284
     1
 64
     0
275
    -2
285
     1
 65
     0
276
    -2
286
     1
 66
     0
277
    -2
287
     1
 67
     0
278
    -2
288
     1
 68
     0
279
    -2
289
     1
 69
     0
  0
VISUALSTYLE
  5
1FFD
102
{ACAD_REACTORS
330
1FF7
102
}
330
1FF7
100
AcDbVisualStyle
  2
2dWireframe
 70
     4
177
     3
291
     0
 70
    58
 90
        0
176
     1
 90
        2
176
     1
 90
        0
176
     1
 90
        0
176
     1
 40
0.6
176
     1
 40
30.0
176
     1
 62
     7
420
 16777215
176
     1
 90
        1
176
     1
 90
        4
176
     1
 62
     7
176
     1
 62
   257
176
     1
 90
        1
176
     1
 90
        1
176
     1
 40
1.0
176
     1
 90
        0
176
     1
 62
   257
176
     1
 40
1.0
176
     1
 90
        1
176
     1
 90
        6
176
     1
 90
        2
176
     1
 62
     7
176
     1
 90
        5
176
     1
 90
        0
176
     1
 90
        0
176
     1
290
     0
176
     1
 90
        1
176
     1
 40
0.0
176
     1
 90
        0
176
     1
290
     1
176
     1
290
     1
176
     1
290
     0
176
     1
290
     0
176
     1
290
     0
176
     1
290
     0
176
     1
290
     0
176
     1
290
     0
176
     1
290
     0
176
     1
 90
       50
176
     1
 40
0.0
176
     1
 40
1.0
176
     1
 90
        0
176
     1
 62
    18
420
        0
176
     1
 90
       50
176
     1
 90
        3
176
     1
 62
     5
420
      255
176
     1
290
     0
176
     1
 90
       50
176
     1
 90
       50
176
     1
 90
       50
176
     1
290
     0
176
     1
 90
       50
176
     1
 62
   256
176
     0
 40
1.0
176
     0
 90
        2
176
     1
  1
strokes_ogs.tif
176
     1
290
     0
176
     1
 40
1.0
176
     1
 40
1.0
176
     1
1001
ACAD
1000
AcDbSavedByObjectVersion
1070
     0
  0
VISUALSTYLE
  5
1FFF
102
{ACAD_REACTORS
330
1FF7
102
}
330
1FF7
100
AcDbVisualStyle
  2
3D Hidden
 70
     6
177
     3
291
     0
 70
    58
 90
        1
176
     1
 90
        2
176
     1
 90
        2
176
     1
 90
        0
176
     1
 40
0.6
176
     1
 40
30.0
176
     1
 62
     7
420
 16777215
176
     1
 90
        2
176
     1
 90
        2
176
     1
 62
     7
176
     1
 62
   257
176
     1
 90
        2
176
     1
 90
        1
176
     1
 40
40.0
176
     1
 90
        0
176
     1
 62
   257
176
     1
 40
1.0
176
     1
 90
        1
176
     1
 90
        6
176
     1
 90
        2
176
     1
 62
     7
176
     1
 90
        3
176
     1
 90
        0
176
     1
 90
        0
176
     1
290
     0
176
     1
 90
        1
176
     1
 40
0.0
176
     1
 90
        0
176
     1
290
     0
176
     1
290
     1
176
     1
290
     1
176
     1
290
     0
176
     1
290
     0
176
     1
290
     0
176
     1
290
     0
176
     1
290
     0
176
     1
290
     0
176
     1
 90
       50
176
     1
 40
0.0
176
     1
 40
1.0
176
     1
 90
        0
176
     1
 62
    18
420
        0
176
     1
 90
       50
176
     1
 90
        3
176
     1
 62
     5
420
      255
176
     1
290
     0
176
     1
 90
       50
176
     1
 90
       50
176
     1
 90
       50
176
     1
290
     0
176
     1
 90
       50
176
     1
 62
   256
176
     0
 40
1.0
176
     0
 90
        2
176
     1
  1
strokes_ogs.tif
176
     1
290
     0
176
     1
 40
1.0
176
     1
 40
1.0
176
     1
1001
ACAD
1000
AcDbSavedByObjectVersion
1070
     0
  0
VISUALSTYLE
  5
1FFE
102
{ACAD_REACTORS
330
1FF7
102
}
330
1FF7
100
AcDbVisualStyle
  2
3dWireframe
 70
     5
177
     3
291
     0
 70
    58
 90
        0
176
     1
 90
        2
176
     1
 90
        0
176
     1
 90
        0
176
     1
 40
0.6
176
     1
 40
30.0
176
     1
 62
     7
420
 16777215
176
     1
 90
        1
176
     1
 90
        4
176
     1
 62
     7
176
     1
 62
   257
176
     1
 90
        1
176
     1
 90
        1
176
     1
 40
1.0
176
     1
 90
        0
176
     1
 62
   257
176
     1
 40
1.0
176
     1
 90
        1
176
     1
 90
        6
176
     1
 90
        2
176
     1
 62
     7
176
     1
 90
        5
176
     1
 90
        0
176
     1
 90
        0
176
     1
290
     0
176
     1
 90
        1
176
     1
 40
0.0
176
     1
 90
        0
176
     1
290
     0
176
     1
290
     1
176
     1
290
     1
176
     1
290
     0
176
     1
290
     0
176
     1
290
     0
176
     1
290
     0
176
     1
290
     0
176
     1
290
     0
176
     1
 90
       50
176
     1
 40
0.0
176
     1
 40
1.0
176
     1
 90
        0
176
     1
 62
    18
420
        0
176
     1
 90
       50
176
     1
 90
        3
176
     1
 62
     5
420
      255
176
     1
290
     0
176
     1
 90
       50
176
     1
 90
       50
176
     1
 90
       50
176
     1
290
     0
176
     1
 90
       50
176
     1
 62
   256
176
     0
 40
1.0
176
     0
 90
        2
176
     1
  1
strokes_ogs.tif
176
     1
290
     0
176
     1
 40
1.0
176
     1
 40
1.0
176
     1
1001
ACAD
1000
AcDbSavedByObjectVersion
1070
     0
  0
VISUALSTYLE
  5
1FFC
102
{ACAD_REACTORS
330
1FF7
102
}
330
1FF7
100
AcDbVisualStyle
  2
Basic
 70
     7
177
     3
291
     1
 70
    58
 90
        1
176
     1
 90
        0
176
     1
 90
        1
176
     1
 90
        0
176
     1
 40
0.6
176
     1
 40
30.0
176
     1
 62
     7
420
 16777215
176
     1
 90
        0
176
     1
 90
        4
176
     1
 62
     7
176
     1
 62
   257
176
     1
 90
        1
176
     1
 90
        1
176
     1
 40
1.0
176
     1
 90
        8
176
     1
 62
     7
176
     1
 40
1.0
176
     1
 90
        1
176
     1
 90
        6
176
     1
 90
        2
176
     1
 62
     7
176
     1
 90
        5
176
     1
 90
        0
176
     1
 90
        0
176
     1
290
     0
176
     1
 90
        1
176
     1
 40
0.0
176
     1
 90
        0
176
     1
290
     0
176
     1
290
     1
176
     1
290
     1
176
     1
290
     0
176
     1
290
     0
176
     1
290
     0
176
     1
290
     0
176
     1
290
     0
176
     1
290
     0
176
     1
 90
       50
176
     1
 40
0.0
176
     1
 40
1.0
176
     1
 90
        0
176
     1
 62
    18
420
        0
176
     1
 90
       50
176
     1
 90
        3
176
     1
 62
     5
420
      255
176
     1
290
     0
176
     1
 90
       50
176
     1
 90
       50
176
     1
 90
       50
176
     1
290
     0
176
     1
 90
       50
176
     1
 62
   256
176
     0
 40
1.0
176
     0
 90
        2
176
     1
  1
strokes_ogs.tif
176
     1
290
     0
176
     1
 40
1.0
176
     1
 40
1.0
176
     1
1001
ACAD
1000
AcDbSavedByObjectVersion
1070
     0
  0
VISUALSTYLE
  5
2003
102
{ACAD_REACTORS
330
1FF7
102
}
330
1FF7
100
AcDbVisualStyle
  2
Brighten
 70
    12
177
     3
291
     1
 70
    58
 90
        2
176
     1
 90
        2
176
     1
 90
        0
176
     1
 90
        0
176
     1
 40
0.6
176
     1
 40
30.0
176
     1
 62
     7
420
 16777215
176
     1
 90
        1
176
     1
 90
        4
176
     1
 62
     7
176
     1
 62
   257
176
     1
 90
        1
176
     1
 90
        1
176
     1
 40
1.0
176
     1
 90
        8
176
     1
 62
     7
176
     1
 40
1.0
176
     1
 90
        1
176
     1
 90
        6
176
     1
 90
        2
176
     1
 62
     7
176
     1
 90
        5
176
     1
 90
        0
176
     1
 90
        0
176
     1
290
     0
176
     1
 90
        1
176
     1
 40
50.0
176
     1
 90
        0
176
     1
290
     0
176
     1
290
     1
176
     1
290
     1
176
     1
290
     0
176
     1
290
     0
176
     1
290
     0
176
     1
290
     0
176
     1
290
     0
176
     1
290
     0
176
     1
 90
       50
176
     1
 40
0.0
176
     1
 40
1.0
176
     1
 90
        0
176
     1
 62
    18
420
        0
176
     1
 90
       50
176
     1
 90
        3
176
     1
 62
     5
420
      255
176
     1
290
     0
176
     1
 90
       50
176
     1
 90
       50
176
     1
 90
       50
176
     1
290
     0
176
     1
 90
       50
176
     1
 62
   256
176
     0
 40
1.0
176
     0
 90
        2
176
     1
  1
strokes_ogs.tif
176
     1
290
     0
176
     1
 40
1.0
176
     1
 40
1.0
176
     1
1001
ACAD
1000
AcDbSavedByObjectVersion
1070
     0
  0
VISUALSTYLE
  5
2007
102
{ACAD_REACTORS
330
1FF7
102
}
330
1FF7
100
AcDbVisualStyle
  2
ColorChange
 70
    16
177
     3
291
     1
 70
    58
 90
        2
176
     1
 90
        2
176
     1
 90
        3
176
     1
 90
        0
176
     1
 40
0.6
176
     1
 40
30.0
176
     1
 62
     8
420
  8421504
176
     1
 90
        1
176
     1
 90
        4
176
     1
 62
     7
176
     1
 62
   257
176
     1
 90
        1
176
     1
 90
        1
176
     1
 40
1.0
176
     1
 90
        8
176
     1
 62
     8
420
  8421504
176
     1
 40
1.0
176
     1
 90
        1
176
     1
 90
        6
176
     1
 90
        2
176
     1
 62
     7
176
     1
 90
        5
176
     1
 90
        0
176
     1
 90
        0
176
     1
290
     0
176
     1
 90
        1
176
     1
 40
0.0
176
     1
 90
        0
176
     1
290
     0
176
     1
290
     1
176
     1
290
     1
176
     1
290
     0
176
     1
290
     0
176
     1
290
     0
176
     1
290
     0
176
     1
290
     0
176
     1
290
     0
176
     1
 90
       50
176
     1
 40
0.0
176
     1
 40
1.0
176
     1
 90
        0
176
     1
 62
    18
420
        0
176
     1
 90
       50
176
     1
 90
        3
176
     1
 62
     5
420
      255
176
     1
290
     0
176
     1
 90
       50
176
     1
 90
       50
176
     1
 90
       50
176
     1
290
     0
176
     1
 90
       50
176
     1
 62
   256
176
     0
 40
1.0
176
     0
 90
        2
176
     1
  1
strokes_ogs.tif
176
     1
290
     0
176
     1
 40
1.0
176
     1
 40
1.0
176
     1
1001
ACAD
1000
AcDbSavedByObjectVersion
1070
     0
  0
VISUALSTYLE
  5
2000
102
{ACAD_REACTORS
330
1FF7
102
}
330
1FF7
100
AcDbVisualStyle
  2
Conceptual
 70
     9
177
     3
291
     0
 70
    58
 90
        3
176
     1
 90
        2
176
     1
 90
        0
176
     1
 90
        0
176
     1
 40
0.6
176
     1
 40
30.0
176
     1
 62
     7
420
 16777215
176
     1
 90
        2
176
     1
 90
        2
176
     1
 62
     7
176
     1
 62
   257
176
     1
 90
        1
176
     1
 90
        1
176
     1
 40
40.0
176
     1
 90
        8
176
     1
 62
     7
176
     1
 40
1.0
176
     1
 90
        1
176
     1
 90
        6
176
     1
 90
        2
176
     1
 62
     7
176
     1
 90
        3
176
     1
 90
        0
176
     1
 90
        0
176
     1
290
     0
176
     1
 90
        1
176
     1
 40
0.0
176
     1
 90
        0
176
     1
290
     0
176
     1
290
     1
176
     1
290
     1
176
     1
290
     0
176
     1
290
     0
176
     1
290
     0
176
     1
290
     0
176
     1
290
     0
176
     1
290
     0
176
     1
 90
       50
176
     1
 40
0.0
176
     1
 40
1.0
176
     1
 90
        0
176
     1
 62
    18
420
        0
176
     1
 90
       50
176
     1
 90
        3
176
     1
 62
     5
420
      255
176
     1
290
     0
176
     1
 90
       50
176
     1
 90
       50
176
     1
 90
       50
176
     1
290
     0
176
     1
 90
       50
176
     1
 62
   256
176
     0
 40
1.0
176
     0
 90
        2
176
     1
  1
strokes_ogs.tif
176
     1
290
     0
176
     1
 40
1.0
176
     1
 40
1.0
176
     1
1001
ACAD
1000
AcDbSavedByObjectVersion
1070
     0
  0
VISUALSTYLE
  5
2002
102
{ACAD_REACTORS
330
1FF7
102
}
330
1FF7
100
AcDbVisualStyle
  2
Dim
 70
    11
177
     3
291
     1
 70
    58
 90
        2
176
     1
 90
        2
176
     1
 90
        0
176
     1
 90
        0
176
     1
 40
0.6
176
     1
 40
30.0
176
     1
 62
     7
420
 16777215
176
     1
 90
        1
176
     1
 90
        4
176
     1
 62
     7
176
     1
 62
   257
176
     1
 90
        1
176
     1
 90
        1
176
     1
 40
1.0
176
     1
 90
        8
176
     1
 62
     7
176
     1
 40
1.0
176
     1
 90
        1
176
     1
 90
        6
176
     1
 90
        2
176
     1
 62
     7
176
     1
 90
        5
176
     1
 90
        0
176
     1
 90
        0
176
     1
290
     0
176
     1
 90
        1
176
     1
 40
-50.0
176
     1
 90
        0
176
     1
290
     0
176
     1
290
     1
176
     1
290
     1
176
     1
290
     0
176
     1
290
     0
176
     1
290
     0
176
     1
290
     0
176
     1
290
     0
176
     1
290
     0
176
     1
 90
       50
176
     1
 40
0.0
176
     1
 40
1.0
176
     1
 90
        0
176
     1
 62
    18
420
        0
176
     1
 90
       50
176
     1
 90
        3
176
     1
 62
     5
420
      255
176
     1
290
     0
176
     1
 90
       50
176
     1
 90
       50
176
     1
 90
       50
176
     1
290
     0
176
     1
 90
       50
176
     1
 62
   256
176
     0
 40
1.0
176
     0
 90
        2
176
     1
  1
strokes_ogs.tif
176
     1
290
     0
176
     1
 40
1.0
176
     1
 40
1.0
176
     1
1001
ACAD
1000
AcDbSavedByObjectVersion
1070
     0
  0
VISUALSTYLE
  5
2753
102
{ACAD_REACTORS
330
1FF7
102
}
330
1FF7
100
AcDbVisualStyle
  2
EdgeColorOff
 70
    22
177
     3
291
     1
 70
    58
 90
        2
176
     0
 90
        2
176
     0
 90
        0
176
     0
 90
        0
176
     0
 40
0.6
176
     0
 40
30.0
176
     0
 62
     7
420
 16777215
176
     0
 90
        1
176
     0
 90
        4
176
     0
 62
     7
176
     0
 62
   257
176
     0
 90
        1
176
     0
 90
        1
176
     0
 40
1.0
176
     0
 90
        8
176
     2
 62
     7
176
     0
 40
1.0
176
     0
 90
        1
176
     0
 90
        6
176
     0
 90
        2
176
     0
 62
     7
176
     0
 90
        5
176
     0
 90
        0
176
     0
 90
        0
176
     0
290
     0
176
     0
 90
        1
176
     0
 40
0.0
176
     0
 90
        0
176
     0
290
     0
176
     0
290
     1
176
     0
290
     1
176
     0
290
     0
176
     0
290
     0
176
     0
290
     0
176
     1
290
     0
176
     1
290
     0
176
     1
290
     0
176
     1
 90
       50
176
     1
 40
0.0
176
     1
 40
1.0
176
     1
 90
        0
176
     1
 62
    18
420
        0
176
     1
 90
       50
176
     1
 90
        3
176
     1
 62
     5
420
      255
176
     1
290
     0
176
     1
 90
       50
176
     1
 90
       50
176
     1
 90
       50
176
     1
290
     0
176
     1
 90
       50
176
     1
 62
   256
176
     0
 40
1.0
176
     0
 90
        2
176
     1
  1
strokes_ogs.tif
176
     1
290
     0
176
     1
 40
1.0
176
     1
 40
1.0
176
     1
1001
ACAD
1000
AcDbSavedByObjectVersion
1070
     0
  0
VISUALSTYLE
  5
2006
102
{ACAD_REACTORS
330
1FF7
102
}
330
1FF7
100
AcDbVisualStyle
  2
Facepattern
 70
    15
177
     3
291
     1
 70
    58
 90
        2
176
     1
 90
        2
176
     1
 90
        0
176
     1
 90
        0
176
     1
 40
0.6
176
     1
 40
30.0
176
     1
 62
     7
420
 16777215
176
     1
 90
        1
176
     1
 90
        4
176
     1
 62
     7
176
     1
 62
   257
176
     1
 90
        1
176
     1
 90
        1
176
     1
 40
1.0
176
     1
 90
        8
176
     1
 62
     7
176
     1
 40
1.0
176
     1
 90
        1
176
     1
 90
        6
176
     1
 90
        2
176
     1
 62
     7
176
     1
 90
        5
176
     1
 90
        0
176
     1
 90
        0
176
     1
290
     0
176
     1
 90
        1
176
     1
 40
0.0
176
     1
 90
        0
176
     1
290
     0
176
     1
290
     1
176
     1
290
     1
176
     1
290
     0
176
     1
290
     0
176
     1
290
     0
176
     1
290
     0
176
     1
290
     0
176
     1
290
     0
176
     1
 90
       50
176
     1
 40
0.0
176
     1
 40
1.0
176
     1
 90
        0
176
     1
 62
    18
420
        0
176
     1
 90
       50
176
     1
 90
        3
176
     1
 62
     5
420
      255
176
     1
290
     0
176
     1
 90
       50
176
     1
 90
       50
176
     1
 90
       50
176
     1
290
     0
176
     1
 90
       50
176
     1
 62
   256
176
     0
 40
1.0
176
     0
 90
        2
176
     1
  1
strokes_ogs.tif
176
     1
290
     0
176
     1
 40
1.0
176
     1
 40
1.0
176
     1
1001
ACAD
1000
AcDbSavedByObjectVersion
1070
     0
  0
VISUALSTYLE
  5
1FF8
102
{ACAD_REACTORS
330
1FF7
102
}
330
1FF7
100
AcDbVisualStyle
  2
Flat
 70
     0
177
     3
291
     1
 70
    58
 90
        2
176
     1
 90
        1
176
     1
 90
        1
176
     1
 90
        2
176
     1
 40
0.6
176
     1
 40
30.0
176
     1
 62
     7
420
 16777215
176
     1
 90
        0
176
     1
 90
        4
176
     1
 62
     7
176
     1
 62
   257
176
     1
 90
        1
176
     1
 90
        1
176
     1
 40
1.0
176
     1
 90
        8
176
     1
 62
     7
176
     1
 40
1.0
176
     1
 90
        1
176
     1
 90
        6
176
     1
 90
        2
176
     1
 62
     7
176
     1
 90
        5
176
     1
 90
        0
176
     1
 90
        0
176
     1
290
     0
176
     1
 90
       13
176
     1
 40
0.0
176
     1
 90
        0
176
     1
290
     0
176
     1
290
     1
176
     1
290
     1
176
     1
290
     0
176
     1
290
     0
176
     1
290
     0
176
     1
290
     0
176
     1
290
     0
176
     1
290
     0
176
     1
 90
       50
176
     1
 40
0.0
176
     1
 40
1.0
176
     1
 90
        0
176
     1
 62
    18
420
        0
176
     1
 90
       50
176
     1
 90
        3
176
     1
 62
     5
420
      255
176
     1
290
     0
176
     1
 90
       50
176
     1
 90
       50
176
     1
 90
       50
176
     1
290
     0
176
     1
 90
       50
176
     1
 62
   256
176
     0
 40
1.0
176
     0
 90
        2
176
     1
  1
strokes_ogs.tif
176
     1
290
     0
176
     1
 40
1.0
176
     1
 40
1.0
176
     1
1001
ACAD
1000
AcDbSavedByObjectVersion
1070
     0
  0
VISUALSTYLE
  5
1FF9
102
{ACAD_REACTORS
330
1FF7
102
}
330
1FF7
100
AcDbVisualStyle
  2
FlatWithEdges
 70
     1
177
     3
291
     1
 70
    58
 90
        2
176
     1
 90
        1
176
     1
 90
        1
176
     1
 90
        2
176
     1
 40
0.6
176
     1
 40
30.0
176
     1
 62
     7
420
 16777215
176
     1
 90
        1
176
     1
 90
        4
176
     1
 62
     7
176
     1
 62
   257
176
     1
 90
        1
176
     1
 90
        1
176
     1
 40
1.0
176
     1
 90
        0
176
     1
 62
   257
176
     1
 40
1.0
176
     1
 90
        1
176
     1
 90
        6
176
     1
 90
        2
176
     1
 62
     7
176
     1
 90
        5
176
     1
 90
        0
176
     1
 90
        0
176
     1
290
     0
176
     1
 90
       13
176
     1
 40
0.0
176
     1
 90
        0
176
     1
290
     0
176
     1
290
     1
176
     1
290
     1
176
     1
290
     0
176
     1
290
     0
176
     1
290
     0
176
     1
290
     0
176
     1
290
     0
176
     1
290
     0
176
     1
 90
       50
176
     1
 40
0.0
176
     1
 40
1.0
176
     1
 90
        0
176
     1
 62
    18
420
        0
176
     1
 90
       50
176
     1
 90
        3
176
     1
 62
     5
420
      255
176
     1
290
     0
176
     1
 90
       50
176
     1
 90
       50
176
     1
 90
       50
176
     1
290
     0
176
     1
 90
       50
176
     1
 62
   256
176
     0
 40
1.0
176
     0
 90
        2
176
     1
  1
strokes_ogs.tif
176
     1
290
     0
176
     1
 40
1.0
176
     1
 40
1.0
176
     1
1001
ACAD
1000
AcDbSavedByObjectVersion
1070
     0
  0
VISUALSTYLE
  5
1FFA
102
{ACAD_REACTORS
330
1FF7
102
}
330
1FF7
100
AcDbVisualStyle
  2
Gouraud
 70
     2
177
     3
291
     1
 70
    58
 90
        2
176
     1
 90
        2
176
     1
 90
        1
176
     1
 90
        2
176
     1
 40
0.6
176
     1
 40
30.0
176
     1
 62
     7
420
 16777215
176
     1
 90
        0
176
     1
 90
        4
176
     1
 62
     7
176
     1
 62
   257
176
     1
 90
        1
176
     1
 90
        1
176
     1
 40
1.0
176
     1
 90
        0
176
     1
 62
     7
176
     1
 40
1.0
176
     1
 90
        1
176
     1
 90
        6
176
     1
 90
        2
176
     1
 62
     7
176
     1
 90
        5
176
     1
 90
        0
176
     1
 90
        0
176
     1
290
     0
176
     1
 90
       13
176
     1
 40
0.0
176
     1
 90
        0
176
     1
290
     0
176
     1
290
     1
176
     1
290
     1
176
     1
290
     0
176
     1
290
     0
176
     1
290
     0
176
     1
290
     0
176
     1
290
     0
176
     1
290
     0
176
     1
 90
       50
176
     1
 40
0.0
176
     1
 40
1.0
176
     1
 90
        0
176
     1
 62
    18
420
        0
176
     1
 90
       50
176
     1
 90
        3
176
     1
 62
     5
420
      255
176
     1
290
     0
176
     1
 90
       50
176
     1
 90
       50
176
     1
 90
       50
176
     1
290
     0
176
     1
 90
       50
176
     1
 62
   256
176
     0
 40
1.0
176
     0
 90
        2
176
     1
  1
strokes_ogs.tif
176
     1
290
     0
176
     1
 40
1.0
176
     1
 40
1.0
176
     1
1001
ACAD
1000
AcDbSavedByObjectVersion
1070
     0
  0
VISUALSTYLE
  5
1FFB
102
{ACAD_REACTORS
330
1FF7
102
}
330
1FF7
100
AcDbVisualStyle
  2
GouraudWithEdges
 70
     3
177
     3
291
     1
 70
    58
 90
        2
176
     1
 90
        2
176
     1
 90
        1
176
     1
 90
        2
176
     1
 40
0.6
176
     1
 40
30.0
176
     1
 62
     7
420
 16777215
176
     1
 90
        1
176
     1
 90
        4
176
     1
 62
     7
176
     1
 62
   257
176
     1
 90
        1
176
     1
 90
        1
176
     1
 40
1.0
176
     1
 90
        0
176
     1
 62
   257
176
     1
 40
1.0
176
     1
 90
        1
176
     1
 90
        6
176
     1
 90
        2
176
     1
 62
     7
176
     1
 90
        5
176
     1
 90
        0
176
     1
 90
        0
176
     1
290
     0
176
     1
 90
       13
176
     1
 40
0.0
176
     1
 90
        0
176
     1
290
     0
176
     1
290
     1
176
     1
290
     1
176
     1
290
     0
176
     1
290
     0
176
     1
290
     0
176
     1
290
     0
176
     1
290
     0
176
     1
290
     0
176
     1
 90
       50
176
     1
 40
0.0
176
     1
 40
1.0
176
     1
 90
        0
176
     1
 62
    18
420
        0
176
     1
 90
       50
176
     1
 90
        3
176
     1
 62
     5
420
      255
176
     1
290
     0
176
     1
 90
       50
176
     1
 90
       50
176
     1
 90
       50
176
     1
290
     0
176
     1
 90
       50
176
     1
 62
   256
176
     0
 40
1.0
176
     0
 90
        2
176
     1
  1
strokes_ogs.tif
176
     1
290
     0
176
     1
 40
1.0
176
     1
 40
1.0
176
     1
1001
ACAD
1000
AcDbSavedByObjectVersion
1070
     0
  0
VISUALSTYLE
  5
274B
102
{ACAD_REACTORS
330
1FF7
102
}
330
1FF7
100
AcDbVisualStyle
  2
Hidden
 70
     6
177
     3
291
     0
 70
    58
 90
        1
176
     1
 90
        2
176
     1
 90
        2
176
     1
 90
        0
176
     1
 40
0.6
176
     1
 40
30.0
176
     1
 62
     7
420
 16777215
176
     1
 90
        2
176
     1
 90
        2
176
     1
 62
     7
176
     1
 62
   257
176
     1
 90
        2
176
     1
 90
        1
176
     1
 40
40.0
176
     1
 90
        0
176
     1
 62
   257
176
     1
 40
1.0
176
     1
 90
        1
176
     1
 90
        6
176
     1
 90
        2
176
     1
 62
     7
176
     1
 90
        3
176
     1
 90
        0
176
     1
 90
        0
176
     1
290
     0
176
     1
 90
        1
176
     1
 40
0.0
176
     1
 90
        0
176
     1
290
     0
176
     1
290
     1
176
     1
290
     1
176
     1
290
     0
176
     1
290
     0
176
     1
290
     0
176
     1
290
     0
176
     1
290
     0
176
     1
290
     0
176
     1
 90
       50
176
     1
 40
0.0
176
     1
 40
1.0
176
     1
 90
        0
176
     1
 62
    18
420
        0
176
     1
 90
       50
176
     1
 90
        3
176
     1
 62
     5
420
      255
176
     1
290
     0
176
     1
 90
       50
176
     1
 90
       50
176
     1
 90
       50
176
     1
290
     0
176
     1
 90
       50
176
     1
 62
   256
176
     0
 40
1.0
176
     0
 90
        2
176
     1
  1
strokes_ogs.tif
176
     1
290
     0
176
     1
 40
1.0
176
     1
 40
1.0
176
     1
1001
ACAD
1000
AcDbSavedByObjectVersion
1070
     0
  0
VISUALSTYLE
  5
2751
102
{ACAD_REACTORS
330
1FF7
102
}
330
1FF7
100
AcDbVisualStyle
  2
JitterOff
 70
    20
177
     3
291
     1
 70
    58
 90
        2
176
     0
 90
        2
176
     0
 90
        0
176
     0
 90
        0
176
     0
 40
0.6
176
     0
 40
30.0
176
     0
 62
     7
420
 16777215
176
     0
 90
        1
176
     0
 90
        4
176
     0
 62
     7
176
     0
 62
   257
176
     0
 90
        1
176
     0
 90
        1
176
     0
 40
1.0
176
     0
 90
       10
176
     2
 62
     7
176
     0
 40
1.0
176
     0
 90
        1
176
     0
 90
        6
176
     0
 90
        2
176
     0
 62
     7
176
     0
 90
        5
176
     0
 90
        0
176
     0
 90
        0
176
     0
290
     0
176
     0
 90
        1
176
     0
 40
0.0
176
     0
 90
        0
176
     0
290
     0
176
     0
290
     1
176
     0
290
     1
176
     0
290
     0
176
     0
290
     0
176
     0
290
     0
176
     1
290
     0
176
     1
290
     0
176
     1
290
     0
176
     1
 90
       50
176
     1
 40
0.0
176
     1
 40
1.0
176
     1
 90
        0
176
     1
 62
    18
420
        0
176
     1
 90
       50
176
     1
 90
        3
176
     1
 62
     5
420
      255
176
     1
290
     0
176
     1
 90
       50
176
     1
 90
       50
176
     1
 90
       50
176
     1
290
     0
176
     1
 90
       50
176
     1
 62
   256
176
     0
 40
1.0
176
     0
 90
        2
176
     1
  1
strokes_ogs.tif
176
     1
290
     0
176
     1
 40
1.0
176
     1
 40
1.0
176
     1
1001
ACAD
1000
AcDbSavedByObjectVersion
1070
     0
  0
VISUALSTYLE
  5
2005
102
{ACAD_REACTORS
330
1FF7
102
}
330
1FF7
100
AcDbVisualStyle
  2
Linepattern
 70
    14
177
     3
291
     1
 70
    58
 90
        2
176
     1
 90
        2
176
     1
 90
        0
176
     1
 90
        0
176
     1
 40
0.6
176
     1
 40
30.0
176
     1
 62
     7
420
 16777215
176
     1
 90
        1
176
     1
 90
        4
176
     1
 62
     7
176
     1
 62
   257
176
     1
 90
        7
176
     1
 90
        7
176
     1
 40
1.0
176
     1
 90
        8
176
     1
 62
     7
176
     1
 40
1.0
176
     1
 90
        1
176
     1
 90
        6
176
     1
 90
        2
176
     1
 62
     7
176
     1
 90
        5
176
     1
 90
        0
176
     1
 90
        0
176
     1
290
     0
176
     1
 90
        1
176
     1
 40
0.0
176
     1
 90
        0
176
     1
290
     0
176
     1
290
     1
176
     1
290
     1
176
     1
290
     0
176
     1
290
     0
176
     1
290
     0
176
     1
290
     0
176
     1
290
     0
176
     1
290
     0
176
     1
 90
       50
176
     1
 40
0.0
176
     1
 40
1.0
176
     1
 90
        0
176
     1
 62
    18
420
        0
176
     1
 90
       50
176
     1
 90
        3
176
     1
 62
     5
420
      255
176
     1
290
     0
176
     1
 90
       50
176
     1
 90
       50
176
     1
 90
       50
176
     1
290
     0
176
     1
 90
       50
176
     1
 62
   256
176
     0
 40
1.0
176
     0
 90
        2
176
     1
  1
strokes_ogs.tif
176
     1
290
     0
176
     1
 40
1.0
176
     1
 40
1.0
176
     1
1001
ACAD
1000
AcDbSavedByObjectVersion
1070
     0
  0
VISUALSTYLE
  5
2752
102
{ACAD_REACTORS
330
1FF7
102
}
330
1FF7
100
AcDbVisualStyle
  2
OverhangOff
 70
    21
177
     3
291
     1
 70
    58
 90
        2
176
     0
 90
        2
176
     0
 90
        0
176
     0
 90
        0
176
     0
 40
0.6
176
     0
 40
30.0
176
     0
 62
     7
420
 16777215
176
     0
 90
        1
176
     0
 90
        4
176
     0
 62
     7
176
     0
 62
   257
176
     0
 90
        1
176
     0
 90
        1
176
     0
 40
1.0
176
     0
 90
        9
176
     2
 62
     7
176
     0
 40
1.0
176
     0
 90
        1
176
     0
 90
        6
176
     0
 90
        2
176
     0
 62
     7
176
     0
 90
        5
176
     0
 90
        0
176
     0
 90
        0
176
     0
290
     0
176
     0
 90
        1
176
     0
 40
0.0
176
     0
 90
        0
176
     0
290
     0
176
     0
290
     1
176
     0
290
     1
176
     0
290
     0
176
     0
290
     0
176
     0
290
     0
176
     1
290
     0
176
     1
290
     0
176
     1
290
     0
176
     1
 90
       50
176
     1
 40
0.0
176
     1
 40
1.0
176
     1
 90
        0
176
     1
 62
    18
420
        0
176
     1
 90
       50
176
     1
 90
        3
176
     1
 62
     5
420
      255
176
     1
290
     0
176
     1
 90
       50
176
     1
 90
       50
176
     1
 90
       50
176
     1
290
     0
176
     1
 90
       50
176
     1
 62
   256
176
     0
 40
1.0
176
     0
 90
        2
176
     1
  1
strokes_ogs.tif
176
     1
290
     0
176
     1
 40
1.0
176
     1
 40
1.0
176
     1
1001
ACAD
1000
AcDbSavedByObjectVersion
1070
     0
  0
VISUALSTYLE
  5
2001
102
{ACAD_REACTORS
330
1FF7
102
}
330
1FF7
100
AcDbVisualStyle
  2
Realistic
 70
     8
177
     3
291
     0
 70
    58
 90
        2
176
     1
 90
        2
176
     1
 90
        0
176
     1
 90
        0
176
     1
 40
0.6
176
     1
 40
30.0
176
     1
 62
     7
420
 16777215
176
     1
 90
        1
176
     1
 90
        0
176
     1
 62
     7
176
     1
 62
   257
176
     1
 90
        1
176
     1
 90
        1
176
     1
 40
1.0
176
     1
 90
        8
176
     1
 62
     8
420
  7895160
176
     1
 40
1.0
176
     1
 90
        1
176
     1
 90
        6
176
     1
 90
        2
176
     1
 62
     7
176
     1
 90
        5
176
     1
 90
        0
176
     1
 90
        0
176
     1
290
     0
176
     1
 90
       13
176
     1
 40
0.0
176
     1
 90
        0
176
     1
290
     0
176
     1
290
     1
176
     1
290
     1
176
     1
290
     0
176
     1
290
     0
176
     1
290
     0
176
     1
290
     0
176
     1
290
     0
176
     1
290
     0
176
     1
 90
       50
176
     1
 40
0.0
176
     1
 40
1.0
176
     1
 90
        0
176
     1
 62
    18
420
        0
176
     1
 90
       50
176
     1
 90
        3
176
     1
 62
     5
420
      255
176
     1
290
     0
176
     1
 90
       50
176
     1
 90
       50
176
     1
 90
       50
176
     1
290
     0
176
     1
 90
       50
176
     1
 62
   256
176
     0
 40
1.0
176
     0
 90
        2
176
     1
  1
strokes_ogs.tif
176
     1
290
     0
176
     1
 40
1.0
176
     1
 40
1.0
176
     1
1001
ACAD
1000
AcDbSavedByObjectVersion
1070
     0
  0
VISUALSTYLE
  5
2750
102
{ACAD_REACTORS
330
1FF7
102
}
330
1FF7
100
AcDbVisualStyle
  2
Shaded
 70
    27
177
     3
291
     0
 70
    58
 90
        2
176
     1
 90
        2
176
     1
 90
        1
176
     1
 90
        2
176
     1
 40
0.6
176
     1
 40
30.0
176
     1
 62
     7
420
 16777215
176
     1
 90
        0
176
     1
 90
        4
176
     1
 62
     7
176
     1
 62
   257
176
     1
 90
        1
176
     1
 90
        1
176
     1
 40
1.0
176
     1
 90
        8
176
     1
 62
   257
176
     1
 40
1.0
176
     1
 90
        1
176
     1
 90
        6
176
     1
 90
        2
176
     1
 62
     8
420
  7895160
176
     1
 90
        3
176
     1
 90
        0
176
     1
 90
        0
176
     1
290
     0
176
     1
 90
        5
176
     1
 40
0.0
176
     1
 90
        0
176
     1
290
     0
176
     1
290
     1
176
     1
290
     1
176
     1
290
     0
176
     1
290
     0
176
     1
290
     0
176
     1
290
     0
176
     1
290
     0
176
     1
290
     0
176
     1
 90
       50
176
     1
 40
0.0
176
     1
 40
1.0
176
     1
 90
        0
176
     1
 62
    18
420
        0
176
     1
 90
       50
176
     1
 90
        3
176
     1
 62
     5
420
      255
176
     1
290
     0
176
     1
 90
       50
176
     1
 90
       50
176
     1
 90
       50
176
     1
290
     0
176
     1
 90
       50
176
     1
 62
   256
176
     0
 40
1.0
176
     0
 90
        2
176
     1
  1
strokes_ogs.tif
176
     1
290
     0
176
     1
 40
1.0
176
     1
 40
1.0
176
     1
1001
ACAD
1000
AcDbSavedByObjectVersion
1070
     0
  0
VISUALSTYLE
  5
274F
102
{ACAD_REACTORS
330
1FF7
102
}
330
1FF7
100
AcDbVisualStyle
  2
Shaded with edges
 70
    26
177
     3
291
     0
 70
    58
 90
        2
176
     1
 90
        2
176
     1
 90
        1
176
     1
 90
        2
176
     1
 40
0.6
176
     1
 40
30.0
176
     1
 62
     7
420
 16777215
176
     1
 90
        1
176
     1
 90
        2
176
     1
 62
     7
176
     1
 62
   257
176
     1
 90
        2
176
     1
 90
        1
176
     1
 40
1.0
176
     1
 90
        8
176
     1
 62
   257
176
     1
 40
1.0
176
     1
 90
        1
176
     1
 90
        6
176
     1
 90
        2
176
     1
 62
     7
176
     1
 90
        3
176
     1
 90
        0
176
     1
 90
        0
176
     1
290
     0
176
     1
 90
        5
176
     1
 40
0.0
176
     1
 90
        0
176
     1
290
     0
176
     1
290
     1
176
     1
290
     1
176
     1
290
     0
176
     1
290
     0
176
     1
290
     0
176
     1
290
     0
176
     1
290
     0
176
     1
290
     0
176
     1
 90
       50
176
     1
 40
0.0
176
     1
 40
1.0
176
     1
 90
        0
176
     1
 62
    18
420
        0
176
     1
 90
       50
176
     1
 90
        3
176
     1
 62
     5
420
      255
176
     1
290
     0
176
     1
 90
       50
176
     1
 90
       50
176
     1
 90
       50
176
     1
290
     0
176
     1
 90
       50
176
     1
 62
   256
176
     0
 40
1.0
176
     0
 90
        2
176
     1
  1
strokes_ogs.tif
176
     1
290
     0
176
     1
 40
1.0
176
     1
 40
1.0
176
     1
1001
ACAD
1000
AcDbSavedByObjectVersion
1070
     0
  0
VISUALSTYLE
  5
274C
102
{ACAD_REACTORS
330
1FF7
102
}
330
1FF7
100
AcDbVisualStyle
  2
Shades of Gray
 70
    23
177
     3
291
     0
 70
    58
 90
        2
176
     1
 90
        2
176
     1
 90
        3
176
     1
 90
        0
176
     1
 40
0.6
176
     1
 40
30.0
176
     1
 62
     7
420
 16777215
176
     1
 90
        2
176
     1
 90
        2
176
     1
 62
     7
176
     1
 62
     7
176
     1
 90
        1
176
     1
 90
        1
176
     1
 40
40.0
176
     1
 90
        8
176
     1
 62
     7
176
     1
 40
1.0
176
     1
 90
        1
176
     1
 90
        6
176
     1
 90
        2
176
     1
 62
     7
176
     1
 90
        3
176
     1
 90
        0
176
     1
 90
        0
176
     1
290
     0
176
     1
 90
        1
176
     1
 40
0.0
176
     1
 90
        0
176
     1
290
     0
176
     1
290
     1
176
     1
290
     1
176
     1
290
     0
176
     1
290
     0
176
     1
290
     0
176
     1
290
     0
176
     1
290
     0
176
     1
290
     0
176
     1
 90
       50
176
     1
 40
0.0
176
     1
 40
1.0
176
     1
 90
        0
176
     1
 62
    18
420
        0
176
     1
 90
       50
176
     1
 90
        3
176
     1
 62
     5
420
      255
176
     1
290
     0
176
     1
 90
       50
176
     1
 90
       50
176
     1
 90
       50
176
     1
290
     0
176
     1
 90
       50
176
     1
 62
   256
176
     0
 40
1.0
176
     0
 90
        2
176
     1
  1
strokes_ogs.tif
176
     1
290
     0
176
     1
 40
1.0
176
     1
 40
1.0
176
     1
1001
ACAD
1000
AcDbSavedByObjectVersion
1070
     0
  0
VISUALSTYLE
  5
274D
102
{ACAD_REACTORS
330
1FF7
102
}
330
1FF7
100
AcDbVisualStyle
  2
Sketchy
 70
    24
177
     3
291
     0
 70
    58
 90
        1
176
     1
 90
        2
176
     1
 90
        2
176
     1
 90
        0
176
     1
 40
0.6
176
     1
 40
30.0
176
     1
 62
     7
420
 16777215
176
     1
 90
        2
176
     1
 90
        2
176
     1
 62
     7
176
     1
 62
     7
176
     1
 90
        1
176
     1
 90
        1
176
     1
 40
40.0
176
     1
 90
       11
176
     1
 62
     7
176
     1
 40
1.0
176
     1
 90
        1
176
     1
 90
        6
176
     1
 90
        2
176
     1
 62
     7
176
     1
 90
        6
176
     1
 90
        0
176
     1
 90
        0
176
     1
290
     0
176
     1
 90
        1
176
     1
 40
0.0
176
     1
 90
        0
176
     1
290
     0
176
     1
290
     1
176
     1
290
     1
176
     1
290
     0
176
     1
290
     0
176
     1
290
     0
176
     1
290
     0
176
     1
290
     0
176
     1
290
     0
176
     1
 90
       50
176
     1
 40
0.0
176
     1
 40
1.0
176
     1
 90
        0
176
     1
 62
    18
420
        0
176
     1
 90
       50
176
     1
 90
        3
176
     1
 62
     5
420
      255
176
     1
290
     0
176
     1
 90
       50
176
     1
 90
       50
176
     1
 90
       50
176
     1
290
     0
176
     1
 90
       50
176
     1
 62
   256
176
     0
 40
1.0
176
     0
 90
        2
176
     1
  1
strokes_ogs.tif
176
     1
290
     0
176
     1
 40
1.0
176
     1
 40
1.0
176
     1
1001
ACAD
1000
AcDbSavedByObjectVersion
1070
     0
  0
VISUALSTYLE
  5
2004
102
{ACAD_REACTORS
330
1FF7
102
}
330
1FF7
100
AcDbVisualStyle
  2
Thicken
 70
    13
177
     3
291
     1
 70
    58
 90
        2
176
     1
 90
        2
176
     1
 90
        0
176
     1
 90
        0
176
     1
 40
0.6
176
     1
 40
30.0
176
     1
 62
     7
420
 16777215
176
     1
 90
        1
176
     1
 90
        4
176
     1
 62
     7
176
     1
 62
   257
176
     1
 90
        1
176
     1
 90
        1
176
     1
 40
1.0
176
     1
 90
       12
176
     1
 62
     7
176
     1
 40
1.0
176
     1
 90
        1
176
     1
 90
        6
176
     1
 90
        2
176
     1
 62
     7
176
     1
 90
        5
176
     1
 90
        0
176
     1
 90
        0
176
     1
290
     0
176
     1
 90
        1
176
     1
 40
0.0
176
     1
 90
        0
176
     1
290
     0
176
     1
290
     1
176
     1
290
     1
176
     1
290
     0
176
     1
290
     0
176
     1
290
     0
176
     1
290
     0
176
     1
290
     0
176
     1
290
     0
176
     1
 90
       50
176
     1
 40
0.0
176
     1
 40
1.0
176
     1
 90
        0
176
     1
 62
    18
420
        0
176
     1
 90
       50
176
     1
 90
        3
176
     1
 62
     5
420
      255
176
     1
290
     0
176
     1
 90
       50
176
     1
 90
       50
176
     1
 90
       50
176
     1
290
     0
176
     1
 90
       50
176
     1
 62
   256
176
     0
 40
1.0
176
     0
 90
        2
176
     1
  1
strokes_ogs.tif
176
     1
290
     0
176
     1
 40
1.0
176
     1
 40
1.0
176
     1
1001
ACAD
1000
AcDbSavedByObjectVersion
1070
     0
  0
VISUALSTYLE
  5
274A
102
{ACAD_REACTORS
330
1FF7
102
}
330
1FF7
100
AcDbVisualStyle
  2
Wireframe
 70
     5
177
     3
291
     0
 70
    58
 90
        0
176
     1
 90
        2
176
     1
 90
        0
176
     1
 90
        0
176
     1
 40
0.6
176
     1
 40
30.0
176
     1
 62
     7
420
 16777215
176
     1
 90
        1
176
     1
 90
        4
176
     1
 62
     7
176
     1
 62
   257
176
     1
 90
        1
176
     1
 90
        1
176
     1
 40
1.0
176
     1
 90
        0
176
     1
 62
   257
176
     1
 40
1.0
176
     1
 90
        1
176
     1
 90
        6
176
     1
 90
        2
176
     1
 62
     7
176
     1
 90
        3
176
     1
 90
        0
176
     1
 90
        0
176
     1
290
     0
176
     1
 90
        1
176
     1
 40
0.0
176
     1
 90
        0
176
     1
290
     0
176
     1
290
     1
176
     1
290
     1
176
     1
290
     0
176
     1
290
     0
176
     1
290
     0
176
     1
290
     0
176
     1
290
     0
176
     1
290
     0
176
     1
 90
       50
176
     1
 40
0.0
176
     1
 40
1.0
176
     1
 90
        0
176
     1
 62
    18
420
        0
176
     1
 90
       50
176
     1
 90
        3
176
     1
 62
     5
420
      255
176
     1
290
     0
176
     1
 90
       50
176
     1
 90
       50
176
     1
 90
       50
176
     1
290
     0
176
     1
 90
       50
176
     1
 62
   256
176
     0
 40
1.0
176
     0
 90
        2
176
     1
  1
strokes_ogs.tif
176
     1
290
     0
176
     1
 40
1.0
176
     1
 40
1.0
176
     1
1001
ACAD
1000
AcDbSavedByObjectVersion
1070
     0
  0
VISUALSTYLE
  5
274E
102
{ACAD_REACTORS
330
1FF7
102
}
330
1FF7
100
AcDbVisualStyle
  2
X-Ray
 70
    25
177
     3
291
     0
 70
    58
 90
        2
176
     1
 90
        2
176
     1
 90
        1
176
     1
 90
        1
176
     1
 40
0.5
176
     1
 40
30.0
176
     1
 62
     7
420
 16777215
176
     1
 90
        1
176
     1
 90
        0
176
     1
 62
     7
176
     1
 62
   257
176
     1
 90
        1
176
     1
 90
        1
176
     1
 40
1.0
176
     1
 90
        8
176
     1
 62
     7
176
     1
 40
1.0
176
     1
 90
        1
176
     1
 90
        6
176
     1
 90
        2
176
     1
 62
     7
176
     1
 90
        3
176
     1
 90
        0
176
     1
 90
        0
176
     1
290
     0
176
     1
 90
       13
176
     1
 40
0.0
176
     1
 90
        0
176
     1
290
     0
176
     1
290
     1
176
     1
290
     1
176
     1
290
     0
176
     1
290
     0
176
     1
290
     0
176
     1
290
     0
176
     1
290
     0
176
     1
290
     0
176
     1
 90
       50
176
     1
 40
0.0
176
     1
 40
1.0
176
     1
 90
        0
176
     1
 62
    18
420
        0
176
     1
 90
       50
176
     1
 90
        3
176
     1
 62
     5
420
      255
176
     1
290
     0
176
     1
 90
       50
176
     1
 90
       50
176
     1
 90
       50
176
     1
290
     0
176
     1
 90
       50
176
     1
 62
   256
176
     0
 40
1.0
176
     0
 90
        2
176
     1
  1
strokes_ogs.tif
176
     1
290
     0
176
     1
 40
1.0
176
     1
 40
1.0
176
     1
1001
ACAD
1000
AcDbSavedByObjectVersion
1070
     0
  0
DICTIONARYVAR
  5
205A
102
{ACAD_REACTORS
330
149
102
}
330
149
100
DictionaryVariables
280
     0
  1
1:1
  0
DICTIONARYVAR
  5
2058
102
{ACAD_REACTORS
330
149
102
}
330
149
100
DictionaryVariables
280
     0
  1
文字列
  0
DICTIONARYVAR
  5
2057
102
{ACAD_REACTORS
330
149
102
}
330
149
100
DictionaryVariables
280
     0
  1
STANDARD
  0
DICTIONARYVAR
  5
5473
102
{ACAD_REACTORS
330
149
102
}
330
149
100
DictionaryVariables
280
     0
  1
Metric50
  0
DICTIONARYVAR
  5
5474
102
{ACAD_REACTORS
330
149
102
}
330
149
100
DictionaryVariables
280
     0
  1
Metric50
  0
DICTIONARYVAR
  5
4F0
102
{ACAD_REACTORS
330
149
102
}
330
149
100
DictionaryVariables
280
     0
  1
1
  0
DICTIONARYVAR
  5
5475
102
{ACAD_REACTORS
330
149
102
}
330
149
100
DictionaryVariables
280
     0
  1
1
  0
DICTIONARYVAR
  5
5476
102
{ACAD_REACTORS
330
149
102
}
330
149
100
DictionaryVariables
280
     0
  1
3
  0
DICTIONARYVAR
  5
205B
102
{ACAD_REACTORS
330
149
102
}
330
149
100
DictionaryVariables
280
     0
  1
0
  0
DICTIONARYVAR
  5
2D35
102
{ACAD_REACTORS
330
149
102
}
330
149
100
DictionaryVariables
280
     0
  1
0.000000
  0
DICTIONARYVAR
  5
2059
102
{ACAD_REACTORS
330
149
102
}
330
149
100
DictionaryVariables
280
     0
  1
0
  0
DICTIONARYVAR
  5
14A
102
{ACAD_REACTORS
330
149
102
}
330
149
100
DictionaryVariables
280
     0
  1
96
  0
DICTIONARYVAR
  5
64B1
102
{ACAD_REACTORS
330
149
102
}
330
149
100
DictionaryVariables
280
     0
  1
1
  0
DICTIONARY
  5
6B93
102
{ACAD_REACTORS
330
6B91
102
}
330
6B91
100
AcDbDictionary
281
     1
  0
DICTIONARY
  5
6B92
102
{ACAD_REACTORS
330
6B91
102
}
330
6B91
100
AcDbDictionary
281
     1
  3
1968471588032
350
6B8C
  3
1968471588048
350
6B8D
  3
1968471588064
350
6B8E
  3
1968471588080
350
6B8F
  3
1968471588096
350
6B90
  0
DICTIONARY
  5
6B96
330
5377
100
AcDbDictionary
280
     1
281
     1
  3
ACAD_XREC_ROUNDTRIP
360
6B97
  0
DICTIONARY
  5
277B
330
22
100
AcDbDictionary
280
     1
281
     1
  0
DICTIONARY
  5
2772
330
275E
100
AcDbDictionary
280
     1
281
     1
  0
DICTIONARY
  5
1FE8
330
1FE7
100
AcDbDictionary
280
     1
281
     1
  3
BUMPTILE
360
1FEA
  3
DIFFUSETILE
360
1FE9
  3
OPACITYTILE
360
1FED
  3
REFLECTIONTILE
360
1FEC
  3
REFRACTIONTILE
360
1FEE
  3
SPECULARTILE
360
1FEB
  0
DICTIONARY
  5
1FE0
330
1FDF
100
AcDbDictionary
280
     1
281
     1
  3
BUMPTILE
360
1FE2
  3
DIFFUSETILE
360
1FE1
  3
OPACITYTILE
360
1FE5
  3
REFLECTIONTILE
360
1FE4
  3
REFRACTIONTILE
360
1FE6
  3
SPECULARTILE
360
1FE3
  0
DICTIONARY
  5
1FF0
330
1FEF
100
AcDbDictionary
280
     1
281
     1
  3
BUMPTILE
360
1FF2
  3
DIFFUSETILE
360
1FF1
  3
OPACITYTILE
360
1FF5
  3
REFLECTIONTILE
360
1FF4
  3
REFRACTIONTILE
360
1FF6
  3
SPECULARTILE
360
1FF3
  0
DICTIONARY
  5
6B94
330
5375
100
AcDbDictionary
280
     1
281
     1
  3
ACAD_XREC_ROUNDTRIP
360
6B95
  0
DICTIONARY
  5
2054
330
200A
100
AcDbDictionary
280
     1
281
     1
  3
ACAD_ROUNDTRIP_2008_TABLESTYLE_CELLSTYLEMAP
360
6B8A
  0
XRECORD
  5
6B8C
102
{ACAD_REACTORS
330
6B92
102
}
330
6B92
100
AcDbXrecord
280
     1
  1
AcDb_Thumbnail_Schema
102
{ATTRRECORD
341
6B8D
  2
AcDbDs::TreatedAsObjectData
280
     1
291
     1
102
ATTRRECORD}
102
{ATTRRECORD
341
6B8E
  2
AcDbDs::Legacy
280
     1
291
     1
102
ATTRRECORD}
  2
AcDbDs::ID
280
    10
 91
        8
102
{ATTRRECORD
341
6B8F
  2
AcDs:Indexable
280
     1
291
     1
102
ATTRRECORD}
102
{ATTRRECORD
341
6B90
  2
AcDbDs::HandleAttribute
280
     7
282
     1
102
ATTRRECORD}
  2
Thumbnail_Data
280
    15
 91
        0
  0
XRECORD
  5
6B8D
102
{ACAD_REACTORS
330
6B92
102
}
330
6B92
100
AcDbXrecord
280
     1
  1
AcDbDs::TreatedAsObjectDataSchema
  2
AcDbDs::TreatedAsObjectData
280
     1
 91
        0
  0
XRECORD
  5
6B8E
102
{ACAD_REACTORS
330
6B92
102
}
330
6B92
100
AcDbXrecord
280
     1
  1
AcDbDs::LegacySchema
  2
AcDbDs::Legacy
280
     1
 91
        0
  0
XRECORD
  5
6B8F
102
{ACAD_REACTORS
330
6B92
102
}
330
6B92
100
AcDbXrecord
280
     1
  1
AcDbDs::IndexedPropertySchema
  2
AcDs:Indexable
280
     1
 91
        0
  0
XRECORD
  5
6B90
102
{ACAD_REACTORS
330
6B92
102
}
330
6B92
100
AcDbXrecord
280
     1
  1
AcDbDs::HandleAttributeSchema
  2
AcDbDs::HandleAttribute
280
     7
 91
        1
284
     1
  0
XRECORD
  5
6B97
102
{ACAD_REACTORS
330
6B96
102
}
330
6B96
100
AcDbXrecord
280
     1
102
DISPLAYNAME
  1
Metric50
102
FLAGS
 90
        0
  0
XRECORD
  5
1FEA
102
{ACAD_REACTORS
330
1FE8
102
}
330
1FE8
100
AcDbXrecord
280
     1
270
     1
271
     1
  0
XRECORD
  5
1FE9
102
{ACAD_REACTORS
330
1FE8
102
}
330
1FE8
100
AcDbXrecord
280
     1
270
     1
271
     1
  0
XRECORD
  5
1FED
102
{ACAD_REACTORS
330
1FE8
102
}
330
1FE8
100
AcDbXrecord
280
     1
270
     1
271
     1
  0
XRECORD
  5
1FEC
102
{ACAD_REACTORS
330
1FE8
102
}
330
1FE8
100
AcDbXrecord
280
     1
270
     1
271
     1
  0
XRECORD
  5
1FEE
102
{ACAD_REACTORS
330
1FE8
102
}
330
1FE8
100
AcDbXrecord
280
     1
270
     1
271
     1
  0
XRECORD
  5
1FEB
102
{ACAD_REACTORS
330
1FE8
102
}
330
1FE8
100
AcDbXrecord
280
     1
270
     1
271
     1
  0
XRECORD
  5
1FE2
102
{ACAD_REACTORS
330
1FE0
102
}
330
1FE0
100
AcDbXrecord
280
     1
270
     1
271
     1
  0
XRECORD
  5
1FE1
102
{ACAD_REACTORS
330
1FE0
102
}
330
1FE0
100
AcDbXrecord
280
     1
270
     1
271
     1
  0
XRECORD
  5
1FE5
102
{ACAD_REACTORS
330
1FE0
102
}
330
1FE0
100
AcDbXrecord
280
     1
270
     1
271
     1
  0
XRECORD
  5
1FE4
102
{ACAD_REACTORS
330
1FE0
102
}
330
1FE0
100
AcDbXrecord
280
     1
270
     1
271
     1
  0
XRECORD
  5
1FE6
102
{ACAD_REACTORS
330
1FE0
102
}
330
1FE0
100
AcDbXrecord
280
     1
270
     1
271
     1
  0
XRECORD
  5
1FE3
102
{ACAD_REACTORS
330
1FE0
102
}
330
1FE0
100
AcDbXrecord
280
     1
270
     1
271
     1
  0
XRECORD
  5
1FF2
102
{ACAD_REACTORS
330
1FF0
102
}
330
1FF0
100
AcDbXrecord
280
     1
270
     1
271
     1
  0
XRECORD
  5
1FF1
102
{ACAD_REACTORS
330
1FF0
102
}
330
1FF0
100
AcDbXrecord
280
     1
270
     1
271
     1
  0
XRECORD
  5
1FF5
102
{ACAD_REACTORS
330
1FF0
102
}
330
1FF0
100
AcDbXrecord
280
     1
270
     1
271
     1
  0
XRECORD
  5
1FF4
102
{ACAD_REACTORS
330
1FF0
102
}
330
1FF0
100
AcDbXrecord
280
     1
270
     1
271
     1
  0
XRECORD
  5
1FF6
102
{ACAD_REACTORS
330
1FF0
102
}
330
1FF0
100
AcDbXrecord
280
     1
270
     1
271
     1
  0
XRECORD
  5
1FF3
102
{ACAD_REACTORS
330
1FF0
102
}
330
1FF0
100
AcDbXrecord
280
     1
270
     1
271
     1
  0
XRECORD
  5
6B95
102
{ACAD_REACTORS
330
6B94
102
}
330
6B94
100
AcDbXrecord
280
     1
102
DISPLAYNAME
  1
Metric50
102
FLAGS
 90
        0
  0
CELLSTYLEMAP
  5
6B8A
102
{ACAD_REACTORS
330
2054
102
}
330
2054
100
AcDbCellStyleMap
 90
        3
300
CELLSTYLE
  1
TABLEFORMAT_BEGIN
 90
        5
170
     1
 91
        0
 92
    32768
 62
   257
 93
        1
300
CONTENTFORMAT
  1
CONTENTFORMAT_BEGIN
 90
        0
 91
        0
 92
      512
 93
        0
300

 40
0.0
140
1.0
 94
        5
 62
     0
340
11
144
6.0
309
CONTENTFORMAT_END
171
     1
301
MARGIN
  1
CELLMARGIN_BEGIN
 40
1.5
 40
1.5
 40
1.5
 40
1.5
 40
4.5
 40
4.5
309
CELLMARGIN_END
 94
        6
 95
        1
302
GRIDFORMAT
  1
GRIDFORMAT_BEGIN
 90
        0
 91
        1
 62
     0
 92
       -2
340
0
 93
        0
 40
1.125
309
GRIDFORMAT_END
 95
        2
302
GRIDFORMAT
  1
GRIDFORMAT_BEGIN
 90
        0
 91
        1
 62
     0
 92
       -2
340
0
 93
        0
 40
1.125
309
GRIDFORMAT_END
 95
        4
302
GRIDFORMAT
  1
GRIDFORMAT_BEGIN
 90
        0
 91
        1
 62
     0
 92
       -2
340
0
 93
        0
 40
1.125
309
GRIDFORMAT_END
 95
        8
302
GRIDFORMAT
  1
GRIDFORMAT_BEGIN
 90
        0
 91
        1
 62
     0
 92
       -2
340
0
 93
        0
 40
1.125
309
GRIDFORMAT_END
 95
       16
302
GRIDFORMAT
  1
GRIDFORMAT_BEGIN
 90
        0
 91
        1
 62
     0
 92
       -2
340
0
 93
        0
 40
1.125
309
GRIDFORMAT_END
 95
       32
302
GRIDFORMAT
  1
GRIDFORMAT_BEGIN
 90
        0
 91
        1
 62
     0
 92
       -2
340
0
 93
        0
 40
1.125
309
GRIDFORMAT_END
309
TABLEFORMAT_END
  1
CELLSTYLE_BEGIN
 90
        1
 91
        1
300
_TITLE
309
CELLSTYLE_END
300
CELLSTYLE
  1
TABLEFORMAT_BEGIN
 90
        5
170
     1
 91
        0
 92
        0
 62
   257
 93
        1
300
CONTENTFORMAT
  1
CONTENTFORMAT_BEGIN
 90
        0
 91
        0
 92
      512
 93
        0
300

 40
0.0
140
1.0
 94
        5
 62
     0
340
11
144
4.5
309
CONTENTFORMAT_END
171
     1
301
MARGIN
  1
CELLMARGIN_BEGIN
 40
1.5
 40
1.5
 40
1.5
 40
1.5
 40
4.5
 40
4.5
309
CELLMARGIN_END
 94
        6
 95
        1
302
GRIDFORMAT
  1
GRIDFORMAT_BEGIN
 90
        0
 91
        1
 62
     0
 92
       -2
340
0
 93
        0
 40
1.125
309
GRIDFORMAT_END
 95
        2
302
GRIDFORMAT
  1
GRIDFORMAT_BEGIN
 90
        0
 91
        1
 62
     0
 92
       -2
340
0
 93
        0
 40
1.125
309
GRIDFORMAT_END
 95
        4
302
GRIDFORMAT
  1
GRIDFORMAT_BEGIN
 90
        0
 91
        1
 62
     0
 92
       -2
340
0
 93
        0
 40
1.125
309
GRIDFORMAT_END
 95
        8
302
GRIDFORMAT
  1
GRIDFORMAT_BEGIN
 90
        0
 91
        1
 62
     0
 92
       -2
340
0
 93
        0
 40
1.125
309
GRIDFORMAT_END
 95
       16
302
GRIDFORMAT
  1
GRIDFORMAT_BEGIN
 90
        0
 91
        1
 62
     0
 92
       -2
340
0
 93
        0
 40
1.125
309
GRIDFORMAT_END
 95
       32
302
GRIDFORMAT
  1
GRIDFORMAT_BEGIN
 90
        0
 91
        1
 62
     0
 92
       -2
340
0
 93
        0
 40
1.125
309
GRIDFORMAT_END
309
TABLEFORMAT_END
  1
CELLSTYLE_BEGIN
 90
        2
 91
        1
300
_HEADER
309
CELLSTYLE_END
300
CELLSTYLE
  1
TABLEFORMAT_BEGIN
 90
        5
170
     1
 91
        0
 92
        0
 62
   257
 93
        1
300
CONTENTFORMAT
  1
CONTENTFORMAT_BEGIN
 90
        0
 91
        0
 92
      512
 93
        0
300

 40
0.0
140
1.0
 94
        2
 62
     0
340
11
144
4.5
309
CONTENTFORMAT_END
171
     1
301
MARGIN
  1
CELLMARGIN_BEGIN
 40
1.5
 40
1.5
 40
1.5
 40
1.5
 40
4.5
 40
4.5
309
CELLMARGIN_END
 94
        6
 95
        1
302
GRIDFORMAT
  1
GRIDFORMAT_BEGIN
 90
        0
 91
        1
 62
     0
 92
       -2
340
0
 93
        0
 40
1.125
309
GRIDFORMAT_END
 95
        2
302
GRIDFORMAT
  1
GRIDFORMAT_BEGIN
 90
        0
 91
        1
 62
     0
 92
       -2
340
0
 93
        0
 40
1.125
309
GRIDFORMAT_END
 95
        4
302
GRIDFORMAT
  1
GRIDFORMAT_BEGIN
 90
        0
 91
        1
 62
     0
 92
       -2
340
0
 93
        0
 40
1.125
309
GRIDFORMAT_END
 95
        8
302
GRIDFORMAT
  1
GRIDFORMAT_BEGIN
 90
        0
 91
        1
 62
     0
 92
       -2
340
0
 93
        0
 40
1.125
309
GRIDFORMAT_END
 95
       16
302
GRIDFORMAT
  1
GRIDFORMAT_BEGIN
 90
        0
 91
        1
 62
     0
 92
       -2
340
0
 93
        0
 40
1.125
309
GRIDFORMAT_END
 95
       32
302
GRIDFORMAT
  1
GRIDFORMAT_BEGIN
 90
        0
 91
        1
 62
     0
 92
       -2
340
0
 93
        0
 40
1.125
309
GRIDFORMAT_END
309
TABLEFORMAT_END
  1
CELLSTYLE_BEGIN
 90
        3
 91
        2
300
_DATA
309
CELLSTYLE_END
  0
ENDSEC
  0
SECTION
  2
ACDSDATA
 70
     2
 71
     8
  0
ACDSSCHEMA
 90
        0
  1
AcDb_Thumbnail_Schema
  2
AcDbDs::ID
280
    10
 91
        8
  2
Thumbnail_Data
280
    15
 91
        0
101
ACDSRECORD
 95
        0
 90
        1
  2
AcDbDs::TreatedAsObjectData
280
     1
291
     1
101
ACDSRECORD
 95
        0
 90
        2
  2
AcDbDs::Legacy
280
     1
291
     1
101
ACDSRECORD
  1
AcDbDs::ID
 90
        3
  2
AcDs:Indexable
280
     1
291
     1
101
ACDSRECORD
  1
AcDbDs::ID
 90
        4
  2
AcDbDs::HandleAttribute
280
     7
282
     1
  0
ACDSSCHEMA
 90
        1
  1
AcDbDs::TreatedAsObjectDataSchema
  2
AcDbDs::TreatedAsObjectData
280
     1
 91
        0
  0
ACDSSCHEMA
 90
        2
  1
AcDbDs::LegacySchema
  2
AcDbDs::Legacy
280
     1
 91
        0
  0
ACDSSCHEMA
 90
        3
  1
AcDbDs::IndexedPropertySchema
  2
AcDs:Indexable
280
     1
 91
        0
  0
ACDSSCHEMA
 90
        4
  1
AcDbDs::HandleAttributeSchema
  2
AcDbDs::HandleAttribute
280
     7
 91
        1
284
     1
  0
ACDSRECORD
 90
        0
  2
AcDbDs::ID
280
    10
320
22
  2
Thumbnail_Data
280
    15
 94
     1464
310
89504E470D0A1A0A0000000D4948445200000100000000890803000000F46416F000000300504C5445FFFFFFFFFFFFFFFFFF0000000000000000000000000000000000000000000000000000330000660000990000CC0000FF0033000033330033660033990033CC0033FF0066000066330066660066990066CC0066FF0099
310
000099330099660099990099CC0099FF00CC0000CC3300CC6600CC9900CCCC00CCFF00FF0000FF3300FF6600FF9900FFCC00FFFF3300003300333300663300993300CC3300FF3333003333333333663333993333CC3333FF3366003366333366663366993366CC3366FF3399003399333399663399993399CC3399FF33CC00
310
33CC3333CC6633CC9933CCCC33CCFF33FF0033FF3333FF6633FF9933FFCC33FFFF6600006600336600666600996600CC6600FF6633006633336633666633996633CC6633FF6666006666336666666666996666CC6666FF6699006699336699666699996699CC6699FF66CC0066CC3366CC6666CC9966CCCC66CCFF66FF0066
310
FF3366FF6666FF9966FFCC66FFFF9900009900339900669900999900CC9900FF9933009933339933669933999933CC9933FF9966009966339966669966999966CC9966FF9999009999339999669999999999CC9999FF99CC0099CC3399CC6699CC9999CCCC99CCFF99FF0099FF3399FF6699FF9999FFCC99FFFFCC0000CC00
310
33CC0066CC0099CC00CCCC00FFCC3300CC3333CC3366CC3399CC33CCCC33FFCC6600CC6633CC6666CC6699CC66CCCC66FFCC9900CC9933CC9966CC9999CC99CCCC99FFCCCC00CCCC33CCCC66CCCC99CCCCCCCCCCFFCCFF00CCFF33CCFF66CCFF99CCFFCCCCFFFFFF0000FF0033FF0066FF0099FF00CCFF00FFFF3300FF3333
310
FF3366FF3399FF33CCFF33FFFF6600FF6633FF6666FF6699FF66CCFF66FFFF9900FF9933FF9966FF9999FF99CCFF99FFFFCC00FFCC33FFCC66FFCC99FFCCCCFFCCFFFFFF00FFFF33FFFF66FFFF99FFFFCCFFFFFF0000000D0D0D1A1A1A2828283535354343435050505D5D5D6B6B6B787878868686939393A1A1A1AEAEAEBB
310
BBBBC9C9C9D6D6D6E4E4E4F1F1F1FFFFFF000000000000000000000000000000000000000000000000000000000000AD4AB4E4000001574944415478DAEDDD4B128320100540EE7F284EC26A4E128C8889653ECB646CAA54C472F11AC1E594F213AD9DF48E37795B44B47E2CD7B5B7F5C74DA40F7E9FEA25F498F4756C7E01
310
912A6F9933BB07CF0F3092F7406BB47BCA2B00B42D7B2B9704E8E147760000000000000000000000000000000000000000000000000000000000000000000000000000000000000000000000000000000000000000000000000000000000000000000000000000000000000000000000000000000000000000000000000000
310
0000000000000000000000000000000000000000000000000000000000000000000000C0BF00C443C1F554C5D73F01EC55E75F549F8F6400C7E2EBAFAACF97844B209E00E27DF5F95C00DB073D97407CDC04F300CCEC6DCBF9D55F2023C0E91238BBE6DA046B4F52EB0E5047B43E3607F6CD707DF40850FF1CA0D4E598A771
310
3EEBCC81528FEF276E75B672D1F60B0037FF392657F01022400000000049454E44AE426082E1CF01C0AA7D37EAF02700C06D7D34EAF0470320EE7C35EAF04702A0BE5FA071773F0800F9ED1201AB41EC976B1CAF07A0B7908A101140BD332E02A019EE63004C00021080000420000108800EE001EBD357E22163AF5D000000
310
0049454E44AE426082000000F0727E00BB2294E95CE6EE500000000049454E44AE426082EF0B787D2DEB5FCBFBDFA3AAD977FBBA421EAFA5AABAE1266A51B4F9A9925CC02A05D6ADBAC903BD7FF0787FC6DDA2D8E7010000000000000000000000C057F90179DB9C2F57F715DA0000000049454E44AE426082A7CB625EA9A3
310
355944C72A53FDCBC5A96C952FA7401931A61F1A8D4D211B01D6769D3D9E05C0B86D58FBAFAF879D071500C07DE3070C8ADAB2D1B6DB410000000049454E44AE426082
  0
ACDSRECORD
 90
        0
  2
AcDbDs::ID
280
    10
320
275E
  2
Thumbnail_Data
280
    15
 94
     1134
310
89504E470D0A1A0A0000000D4948445200000100000000B408030000004C80028300000300504C5445000000FFFFFF0000000000000000000000000000000000000000000000000000000000330000660000990000CC0000FF0033000033330033660033990033CC0033FF0066000066330066660066990066CC0066FF0099
310
000099330099660099990099CC0099FF00CC0000CC3300CC6600CC9900CCCC00CCFF00FF0000FF3300FF6600FF9900FFCC00FFFF3300003300333300663300993300CC3300FF3333003333333333663333993333CC3333FF3366003366333366663366993366CC3366FF3399003399333399663399993399CC3399FF33CC00
310
33CC3333CC6633CC9933CCCC33CCFF33FF0033FF3333FF6633FF9933FFCC33FFFF6600006600336600666600996600CC6600FF6633006633336633666633996633CC6633FF6666006666336666666666996666CC6666FF6699006699336699666699996699CC6699FF66CC0066CC3366CC6666CC9966CCCC66CCFF66FF0066
310
FF3366FF6666FF9966FFCC66FFFF9900009900339900669900999900CC9900FF9933009933339933669933999933CC9933FF9966009966339966669966999966CC9966FF9999009999339999669999999999CC9999FF99CC0099CC3399CC6699CC9999CCCC99CCFF99FF0099FF3399FF6699FF9999FFCC99FFFFCC0000CC00
310
33CC0066CC0099CC00CCCC00FFCC3300CC3333CC3366CC3399CC33CCCC33FFCC6600CC6633CC6666CC6699CC66CCCC66FFCC9900CC9933CC9966CC9999CC99CCCC99FFCCCC00CCCC33CCCC66CCCC99CCCCCCCCCCFFCCFF00CCFF33CCFF66CCFF99CCFFCCCCFFFFFF0000FF0033FF0066FF0099FF00CCFF00FFFF3300FF3333
310
FF3366FF3399FF33CCFF33FFFF6600FF6633FF6666FF6699FF66CCFF66FFFF9900FF9933FF9966FF9999FF99CCFF99FFFFCC00FFCC33FFCC66FFCC99FFCCCCFFCCFFFFFF00FFFF33FFFF66FFFF99FFFFCCFFFFFF0000000D0D0D1A1A1A2828283535354343435050505D5D5D6B6B6B787878868686939393A1A1A1AEAEAEBB
310
BBBBC9C9C9D6D6D6E4E4E4F1F1F1FFFFFF0000000000000000000000000000000000000000000000000000000000003AE5ACE9000001264944415478DAEDD5210EC0301003C1FCFFA99169784F6A8BCA4B3CA7280F18B05EC9EEBD246B5EEF0100F0029C79734DFF07A0EC0E0000DD11AC07A88FA0150000C00A58012BA001
310
000058012B6005340000002B20820044108008021041002208400401882000110420820044108008021041002208400401882000110420820044108008021041002208400401882000110420820044108008021041002208400401882000110420820044108008021041002208400401882000110420820044108008021041
310
00220840040188200011042082004410800802104100220840040188200011042082004410800802104100220840040188200011042082004410800802104100220840040188200011042082007E8EE05CD9AF0100003C00BBF76E80EEBB00F7C3FEB8DF59A4F10000000049454E44AE426082426082
  0
ENDSEC
  0
EOF
