  0
SECTION
  2
HEADER
  9
$ACADVER
  1
AC1027
  9
$ACADMAINTVER
 70
   125
  9
$DWGCODEPAGE
  3
ANSI_932
  9
$LASTSAVEDBY
  1
TRE7
  9
$REQUIREDVERSIONS
160
                 0
  9
$INSBASE
 10
0.0
 20
0.0
 30
0.0
  9
$EXTMIN
 10
-41.04029233590745
 20
-51.34130798529475
 30
-0.0015258207003583
  9
$EXTMAX
 10
1279.440298484499
 20
181.2172857312067
 30
0.0000000349246037
  9
$LIMMIN
 10
0.0
 20
0.0
  9
$LIMMAX
 10
297.0
 20
210.0
  9
$ORTHOMODE
 70
     0
  9
$REGENMODE
 70
     1
  9
$FILLMODE
 70
     1
  9
$QTEXTMODE
 70
     0
  9
$MIRRTEXT
 70
     1
  9
$LTSCALE
 40
0.5
  9
$ATTMODE
 70
     1
  9
$TEXTSIZE
 40
2.5
  9
$TRACEWID
 40
1.0
  9
$TEXTSTYLE
  7
masaru
  9
$CLAYER
  8
0
  9
$CELTYPE
  6
ByLayer
  9
$CECOLOR
 62
   256
  9
$CELTSCALE
 40
0.5
  9
$DISPSILH
 70
     0
  9
$DIMSCALE
 40
0.0
  9
$DIMASZ
 40
2.5
  9
$DIMEXO
 40
0.5
  9
$DIMDLI
 40
2.0
  9
$DIMRND
 40
0.0
  9
$DIMDLE
 40
0.0
  9
$DIMEXE
 40
1.25
  9
$DIMTP
 40
0.0
  9
$DIMTM
 40
0.0
  9
$DIMTXT
 40
2.5
  9
$DIMCEN
 40
0.0
  9
$DIMTSZ
 40
0.0
  9
$DIMTOL
 70
     0
  9
$DIMLIM
 70
     0
  9
$DIMTIH
 70
     0
  9
$DIMTOH
 70
     0
  9
$DIMSE1
 70
     0
  9
$DIMSE2
 70
     0
  9
$DIMTAD
 70
     1
  9
$DIMZIN
 70
     8
  9
$DIMBLK
  1

  9
$DIMASO
 70
     1
  9
$DIMSHO
 70
     1
  9
$DIMPOST
  1

  9
$DIMAPOST
  1

  9
$DIMALT
 70
     0
  9
$DIMALTD
 70
     3
  9
$DIMALTF
 40
0.03937007874016
  9
$DIMLFAC
 40
1.0
  9
$DIMTOFL
 70
     1
  9
$DIMTVP
 40
0.0
  9
$DIMTIX
 70
     0
  9
$DIMSOXD
 70
     0
  9
$DIMSAH
 70
     0
  9
$DIMBLK1
  1

  9
$DIMBLK2
  1

  9
$DIMSTYLE
  2
1： 1
  9
$DIMCLRD
 70
     0
  9
$DIMCLRE
 70
     0
  9
$DIMCLRT
 70
     0
  9
$DIMTFAC
 40
0.75
  9
$DIMGAP
 40
0.5
  9
$DIMJUST
 70
     0
  9
$DIMSD1
 70
     0
  9
$DIMSD2
 70
     0
  9
$DIMTOLJ
 70
     0
  9
$DIMTZIN
 70
     8
  9
$DIMALTZ
 70
     0
  9
$DIMALTTZ
 70
     0
  9
$DIMUPT
 70
     0
  9
$DIMDEC
 70
     3
  9
$DIMTDEC
 70
     3
  9
$DIMALTU
 70
     2
  9
$DIMALTTD
 70
     3
  9
$DIMTXSTY
  7
masaru
  9
$DIMAUNIT
 70
     0
  9
$DIMADEC
 70
     3
  9
$DIMALTRND
 40
0.0
  9
$DIMAZIN
 70
     2
  9
$DIMDSEP
 70
    46
  9
$DIMATFIT
 70
     3
  9
$DIMFRAC
 70
     0
  9
$DIMLDRBLK
  1

  9
$DIMLUNIT
 70
     2
  9
$DIMLWD
 70
    -2
  9
$DIMLWE
 70
    -2
  9
$DIMTMOVE
 70
     0
  9
$DIMFXL
 40
1.0
  9
$DIMFXLON
 70
     0
  9
$DIMJOGANG
 40
0.7853981633974483
  9
$DIMTFILL
 70
     0
  9
$DIMTFILLCLR
 70
     0
  9
$DIMARCSYM
 70
     0
  9
$DIMLTYPE
  6

  9
$DIMLTEX1
  6

  9
$DIMLTEX2
  6

  9
$DIMTXTDIRECTION
 70
     0
  9
$LUNITS
 70
     2
  9
$LUPREC
 70
     3
  9
$SKETCHINC
 40
1.0
  9
$FILLETRAD
 40
6.0
  9
$AUNITS
 70
     0
  9
$AUPREC
 70
     2
  9
$MENU
  1
.
  9
$ELEVATION
 40
0.0
  9
$PELEVATION
 40
0.0
  9
$THICKNESS
 40
0.0
  9
$LIMCHECK
 70
     0
  9
$CHAMFERA
 40
10.0
  9
$CHAMFERB
 40
10.0
  9
$CHAMFERC
 40
20.0
  9
$CHAMFERD
 40
0.0
  9
$SKPOLY
 70
     0
  9
$TDCREATE
 40
2455874.642673611
  9
$TDUCREATE
 40
2455874.267674641
  9
$TDUPDATE
 40
2460497.627812500
  9
$TDUUPDATE
 40
2460497.252812500
  9
$TDINDWG
 40
0.8775737269
  9
$TDUSRTIMER
 40
0.8775737269
  9
$USRTIMER
 70
     1
  9
$ANGBASE
 50
0.0
  9
$ANGDIR
 70
     0
  9
$PDMODE
 70
     0
  9
$PDSIZE
 40
0.0
  9
$PLINEWID
 40
0.0
  9
$SPLFRAME
 70
     0
  9
$SPLINETYPE
 70
     6
  9
$SPLINESEGS
 70
     8
  9
$HANDSEED
  5
15E34
  9
$SURFTAB1
 70
     6
  9
$SURFTAB2
 70
     6
  9
$SURFTYPE
 70
     6
  9
$SURFU
 70
     6
  9
$SURFV
 70
     6
  9
$UCSBASE
  2

  9
$UCSNAME
  2

  9
$UCSORG
 10
0.0
 20
0.0
 30
0.0
  9
$UCSXDIR
 10
1.0
 20
0.0
 30
0.0
  9
$UCSYDIR
 10
0.0
 20
1.0
 30
0.0
  9
$UCSORTHOREF
  2

  9
$UCSORTHOVIEW
 70
     0
  9
$UCSORGTOP
 10
0.0
 20
0.0
 30
0.0
  9
$UCSORGBOTTOM
 10
0.0
 20
0.0
 30
0.0
  9
$UCSORGLEFT
 10
0.0
 20
0.0
 30
0.0
  9
$UCSORGRIGHT
 10
0.0
 20
0.0
 30
0.0
  9
$UCSORGFRONT
 10
0.0
 20
0.0
 30
0.0
  9
$UCSORGBACK
 10
0.0
 20
0.0
 30
0.0
  9
$PUCSBASE
  2

  9
$PUCSNAME
  2

  9
$PUCSORG
 10
0.0
 20
0.0
 30
0.0
  9
$PUCSXDIR
 10
1.0
 20
0.0
 30
0.0
  9
$PUCSYDIR
 10
0.0
 20
1.0
 30
0.0
  9
$PUCSORTHOREF
  2

  9
$PUCSORTHOVIEW
 70
     0
  9
$PUCSORGTOP
 10
0.0
 20
0.0
 30
0.0
  9
$PUCSORGBOTTOM
 10
0.0
 20
0.0
 30
0.0
  9
$PUCSORGLEFT
 10
0.0
 20
0.0
 30
0.0
  9
$PUCSORGRIGHT
 10
0.0
 20
0.0
 30
0.0
  9
$PUCSORGFRONT
 10
0.0
 20
0.0
 30
0.0
  9
$PUCSORGBACK
 10
0.0
 20
0.0
 30
0.0
  9
$USERI1
 70
     0
  9
$USERI2
 70
     0
  9
$USERI3
 70
     0
  9
$USERI4
 70
     0
  9
$USERI5
 70
     0
  9
$USERR1
 40
0.0
  9
$USERR2
 40
0.0
  9
$USERR3
 40
0.0
  9
$USERR4
 40
0.0
  9
$USERR5
 40
0.0
  9
$WORLDVIEW
 70
     1
  9
$SHADEDGE
 70
     3
  9
$SHADEDIF
 70
    70
  9
$TILEMODE
 70
     1
  9
$MAXACTVP
 70
    64
  9
$PINSBASE
 10
0.0
 20
0.0
 30
0.0
  9
$PLIMCHECK
 70
     0
  9
$PEXTMIN
 10
4.0
 20
2.999999999999886
 30
0.0
  9
$PEXTMAX
 10
279.0
 20
183.0
 30
0.0
  9
$PLIMMIN
 10
-5.873748779296875
 20
-5.873749732971191
  9
$PLIMMAX
 10
291.05224609375
 20
204.0995779037475
  9
$UNITMODE
 70
     0
  9
$VISRETAIN
 70
     1
  9
$PLINEGEN
 70
     0
  9
$PSLTSCALE
 70
     1
  9
$TREEDEPTH
 70
  3020
  9
$CMLSTYLE
  2
Standard
  9
$CMLJUST
 70
     0
  9
$CMLSCALE
 40
20.0
  9
$PROXYGRAPHICS
 70
     1
  9
$MEASUREMENT
 70
     1
  9
$CELWEIGHT
370
    -1
  9
$ENDCAPS
280
     0
  9
$JOINSTYLE
280
     0
  9
$LWDISPLAY
290
     0
  9
$INSUNITS
 70
     4
  9
$HYPERLINKBASE
  1

  9
$STYLESHEET
  1

  9
$XEDIT
290
     1
  9
$CEPSNTYPE
380
     0
  9
$PSTYLEMODE
290
     1
  9
$FINGERPRINTGUID
  2
{B1E89332-690A-4892-8556-7C251736CF60}
  9
$VERSIONGUID
  2
{49625485-D852-7949-93F0-EC6D6547E8AF}
  9
$EXTNAMES
290
     1
  9
$PSVPSCALE
 40
1.0
  9
$OLESTARTUP
290
     0
  9
$SORTENTS
280
    96
  9
$INDEXCTL
280
     0
  9
$HIDETEXT
280
     0
  9
$XCLIPFRAME
280
     0
  9
$HALOGAP
280
     0
  9
$OBSCOLOR
 70
   257
  9
$OBSLTYPE
280
     0
  9
$INTERSECTIONDISPLAY
280
     0
  9
$INTERSECTIONCOLOR
 70
   257
  9
$DIMASSOC
280
     1
  9
$PROJECTNAME
  1

  9
$CAMERADISPLAY
290
     0
  9
$LENSLENGTH
 40
50.0
  9
$CAMERAHEIGHT
 40
0.0
  9
$STEPSPERSEC
 40
2.0
  9
$STEPSIZE
 40
6.0
  9
$3DDWFPREC
 40
2.0
  9
$PSOLWIDTH
 40
0.25
  9
$PSOLHEIGHT
 40
4.0
  9
$LOFTANG1
 40
1.570796326794896
  9
$LOFTANG2
 40
1.570796326794896
  9
$LOFTMAG1
 40
0.0
  9
$LOFTMAG2
 40
0.0
  9
$LOFTPARAM
 70
     7
  9
$LOFTNORMALS
280
     1
  9
$LATITUDE
 40
37.795
  9
$LONGITUDE
 40
-122.394
  9
$NORTHDIRECTION
 40
0.0
  9
$TIMEZONE
 70
 -8000
  9
$LIGHTGLYPHDISPLAY
280
     1
  9
$TILEMODELIGHTSYNCH
280
     1
  9
$CMATERIAL
347
2267
  9
$SOLIDHIST
280
     0
  9
$SHOWHIST
280
     1
  9
$DWFFRAME
280
     2
  9
$DGNFRAME
280
     0
  9
$REALWORLDSCALE
290
     1
  9
$INTERFERECOLOR
 62
     1
  9
$INTERFEREOBJVS
345
2289
  9
$INTERFEREVPVS
346
2286
  9
$CSHADOW
280
     0
  9
$SHADOWPLANELOCATION
 40
0.0
  0
ENDSEC
  0
SECTION
  2
CLASSES
  0
CLASS
  1
ACDBDICTIONARYWDFLT
  2
AcDbDictionaryWithDefault
  3
ObjectDBX Classes
 90
        0
 91
        1
280
     0
281
     0
  0
CLASS
  1
DICTIONARYVAR
  2
AcDbDictionaryVar
  3
ObjectDBX Classes
 90
        0
 91
       12
280
     0
281
     0
  0
CLASS
  1
MATERIAL
  2
AcDbMaterial
  3
ObjectDBX Classes
 90
     1153
 91
        3
280
     0
281
     0
  0
CLASS
  1
VISUALSTYLE
  2
AcDbVisualStyle
  3
ObjectDBX Classes
 90
     4095
 91
       26
280
     0
281
     0
  0
CLASS
  1
TABLESTYLE
  2
AcDbTableStyle
  3
ObjectDBX Classes
 90
     4095
 91
        1
280
     0
281
     0
  0
CLASS
  1
SCALE
  2
AcDbScale
  3
ObjectDBX Classes
 90
     1153
 91
       37
280
     0
281
     0
  0
CLASS
  1
MLEADERSTYLE
  2
AcDbMLeaderStyle
  3
ACDB_MLEADERSTYLE_CLASS
 90
     4095
 91
        2
280
     0
281
     0
  0
CLASS
  1
CELLSTYLEMAP
  2
AcDbCellStyleMap
  3
ObjectDBX Classes
 90
     1152
 91
        1
280
     0
281
     0
  0
CLASS
  1
SORTENTSTABLE
  2
AcDbSortentsTable
  3
ObjectDBX Classes
 90
        0
 91
        2
280
     0
281
     0
  0
CLASS
  1
MULTILEADER
  2
AcDbMLeader
  3
ACDB_MLEADER_CLASS
 90
     1025
 91
        0
280
     0
281
     1
  0
CLASS
  1
ACDB_MLEADEROBJECTCONTEXTDATA_CLASS
  2
AcDbMLeaderObjectContextData
  3
ObjectDBX Classes
 90
     1153
 91
        0
280
     0
281
     0
  0
CLASS
  1
ACDBSECTIONVIEWSTYLE
  2
AcDbSectionViewStyle
  3
ObjectDBX Classes
 90
     1025
 91
        1
280
     0
281
     0
  0
CLASS
  1
ACDBDETAILVIEWSTYLE
  2
AcDbDetailViewStyle
  3
ObjectDBX Classes
 90
     1025
 91
        1
280
     0
281
     0
  0
ENDSEC
  0
SECTION
  2
TABLES
  0
TABLE
  2
VPORT
  5
8
102
{ACAD_XDICTIONARY
360
89CB
102
}
330
0
100
AcDbSymbolTable
 70
     1
1001
ACAD
1000
DbSaveVer
1071
      252
  0
VPORT
  5
20CE
330
8
100
AcDbSymbolTableRecord
100
AcDbViewportTableRecord
  2
*Active
 70
     0
 10
0.0
 20
0.0
 11
1.0
 21
1.0
 12
619.2000030742958
 22
64.93798887295596
 13
0.0
 23
0.0
 14
10.0
 24
10.0
 15
10.0
 25
10.0
 16
0.0
 26
0.0
 36
1.0
 17
0.0
 27
0.0
 37
0.0
 40
661.0299665012269
 41
2.004848484848484
 42
50.0
 43
0.0
 44
0.0
 50
0.0
 51
0.0
 71
     0
 72
   100
 73
     1
 74
     2
 75
     0
 76
     0
 77
     0
 78
     1
281
     0
 65
     1
110
0.0
120
0.0
130
0.0
111
1.0
121
0.0
131
0.0
112
0.0
122
1.0
132
0.0
 79
     0
146
0.0
348
2285
 60
     3
 61
     5
292
     1
282
     1
141
0.0
142
0.0
 63
   250
421
  3355443
1001
ACAD_NAV_VCDISPLAY
1070
     3
  0
ENDTAB
  0
TABLE
  2
LTYPE
  5
5
330
0
100
AcDbSymbolTable
 70
     2
  0
LTYPE
  5
14
330
5
100
AcDbSymbolTableRecord
100
AcDbLinetypeTableRecord
  2
ByBlock
 70
     0
  3

 72
    65
 73
     0
 40
0.0
  0
LTYPE
  5
15
330
5
100
AcDbSymbolTableRecord
100
AcDbLinetypeTableRecord
  2
ByLayer
 70
     0
  3

 72
    65
 73
     0
 40
0.0
  0
LTYPE
  5
16
330
5
100
AcDbSymbolTableRecord
100
AcDbLinetypeTableRecord
  2
Continuous
 70
     0
  3
Solid line
 72
    65
 73
     0
 40
0.0
  0
LTYPE
  5
2386
330
5
100
AcDbSymbolTableRecord
100
AcDbLinetypeTableRecord
  2
CENTER2
 70
     0
  3
Center (.5x) ___ _ ___ _ ___ _ ___ _ ___ _ ___
 72
    65
 73
     4
 40
28.575
 49
19.05
 74
     0
 49
-3.174999999999999
 74
     0
 49
3.174999999999999
 74
     0
 49
-3.174999999999999
 74
     0
  0
ENDTAB
  0
TABLE
  2
LAYER
  5
2
102
{ACAD_XDICTIONARY
360
2345
102
}
330
0
100
AcDbSymbolTable
 70
     2
  0
LAYER
  5
10
102
{ACAD_XDICTIONARY
360
247D
102
}
330
2
100
AcDbSymbolTableRecord
100
AcDbLayerTableRecord
  2
0
 70
     0
 62
     7
  6
Continuous
370
    -3
390
F
347
2277
348
0
  0
LAYER
  5
1C9
330
2
100
AcDbSymbolTableRecord
100
AcDbLayerTableRecord
  2
Defpoints
 70
     0
 62
     7
  6
Continuous
290
     0
370
    -3
390
F
347
2277
348
0
  0
ENDTAB
  0
TABLE
  2
STYLE
  5
3
330
0
100
AcDbSymbolTable
 70
     2
  0
STYLE
  5
11
330
3
100
AcDbSymbolTableRecord
100
AcDbTextStyleTableRecord
  2
Standard
 70
     0
 40
0.0
 41
1.0
 50
0.0
 71
     0
 42
2.5
  3
romans.shx
  4
extfont2.shx
  0
STYLE
  5
DE0
330
3
100
AcDbSymbolTableRecord
100
AcDbTextStyleTableRecord
  2
masaru
 70
     0
 40
0.0
 41
1.0
 50
0.0
 71
     0
 42
2.5
  3
romans.shx
  4
extfont2.shx
  0
ENDTAB
  0
TABLE
  2
VIEW
  5
6
330
0
100
AcDbSymbolTable
 70
     0
  0
ENDTAB
  0
TABLE
  2
UCS
  5
7
330
0
100
AcDbSymbolTable
 70
     0
  0
ENDTAB
  0
TABLE
  2
APPID
  5
9
330
0
100
AcDbSymbolTable
 70
    14
  0
APPID
  5
12
330
9
100
AcDbSymbolTableRecord
100
AcDbRegAppTableRecord
  2
ACAD
 70
     0
  0
APPID
  5
22B7
330
9
100
AcDbSymbolTableRecord
100
AcDbRegAppTableRecord
  2
ACAD_MLEADERVER
 70
     0
  0
APPID
  5
22C7
330
9
100
AcDbSymbolTableRecord
100
AcDbRegAppTableRecord
  2
ACAD_PSEXT
 70
     0
  0
APPID
  5
2390
330
9
100
AcDbSymbolTableRecord
100
AcDbRegAppTableRecord
  2
ACAD_DSTYLE_DIMJAG
 70
     0
  0
APPID
  5
2391
330
9
100
AcDbSymbolTableRecord
100
AcDbRegAppTableRecord
  2
ACAD_DSTYLE_DIMBREAK
 70
     0
  0
APPID
  5
2392
330
9
100
AcDbSymbolTableRecord
100
AcDbRegAppTableRecord
  2
ACAD_DSTYLE_DIMTALN
 70
     0
  0
APPID
  5
2393
330
9
100
AcDbSymbolTableRecord
100
AcDbRegAppTableRecord
  2
AcadAnnotative
 70
     0
  0
APPID
  5
246E
330
9
100
AcDbSymbolTableRecord
100
AcDbRegAppTableRecord
  2
ACAD_EXEMPT_FROM_CAD_STANDARDS
 70
     0
  0
APPID
  5
24A7
330
9
100
AcDbSymbolTableRecord
100
AcDbRegAppTableRecord
  2
AcAecLayerStandard
 70
     0
  0
APPID
  5
67BC
330
9
100
AcDbSymbolTableRecord
100
AcDbRegAppTableRecord
  2
ACAD_DSTYLE_DIMRADIAL_EXTENSION
 70
     0
  0
APPID
  5
89E7
330
9
100
AcDbSymbolTableRecord
100
AcDbRegAppTableRecord
  2
AcDbAttr
 70
     0
  0
APPID
  5
D5B7
330
9
100
AcDbSymbolTableRecord
100
AcDbRegAppTableRecord
  2
AcadAnnotativeDecomposition
 70
     0
  0
APPID
  5
15DAE
330
9
100
AcDbSymbolTableRecord
100
AcDbRegAppTableRecord
  2
Acad_TC
 70
     0
  0
APPID
  5
15DDE
330
9
100
AcDbSymbolTableRecord
100
AcDbRegAppTableRecord
  2
ACAD_NAV_VCDISPLAY
 70
     0
  0
ENDTAB
  0
TABLE
  2
DIMSTYLE
  5
A
330
0
100
AcDbSymbolTable
 70
     1
100
AcDbDimStyleTable
 71
     1
340
E06
  0
DIMSTYLE
105
E06
330
A
100
AcDbSymbolTableRecord
100
AcDbDimStyleTableRecord
  2
1： 1
 70
     0
 40
0.0
 41
2.5
 42
0.5
 43
2.0
 44
1.25
 73
     0
 74
     0
 77
     1
 78
     8
 79
     2
140
2.5
141
0.0
143
0.03937007874016
146
0.75
147
0.5
171
     3
172
     1
179
     3
271
     3
272
     3
274
     3
283
     0
284
     8
340
DE0
  0
ENDTAB
  0
TABLE
  2
BLOCK_RECORD
  5
1
330
0
100
AcDbSymbolTable
 70
     0
  0
BLOCK_RECORD
  5
1F
102
{ACAD_XDICTIONARY
360
8A39
102
}
330
1
100
AcDbSymbolTableRecord
100
AcDbBlockTableRecord
  2
*Model_Space
340
22
 70
     0
280
     1
281
     0
  0
BLOCK_RECORD
  5
1B
102
{ACAD_XDICTIONARY
360
2343
102
}
330
1
100
AcDbSymbolTableRecord
100
AcDbBlockTableRecord
  2
*Paper_Space
340
1E
 70
     0
280
     1
281
     0
  0
ENDTAB
  0
ENDSEC
  0
SECTION
  2
BLOCKS
  0
BLOCK
  5
20
330
1F
100
AcDbEntity
  8
0
100
AcDbBlockBegin
  2
*Model_Space
 70
     0
 10
0.0
 20
0.0
 30
0.0
  3
*Model_Space
  1

  0
ENDBLK
  5
21
330
1F
100
AcDbEntity
  8
0
100
AcDbBlockEnd
  0
BLOCK
  5
1C
330
1B
100
AcDbEntity
 67
     1
  8
0
100
AcDbBlockBegin
  2
*Paper_Space
 70
     0
 10
0.0
 20
0.0
 30
0.0
  3
*Paper_Space
  1

  0
ENDBLK
  5
1D
330
1B
100
AcDbEntity
 67
     1
  8
0
100
AcDbBlockEnd
  0
ENDSEC
  0
SECTION
  2
ENTITIES
  0
MTEXT
  5
D899
330
1F
100
AcDbEntity
  8
0
  6
Continuous
 62
     1
 48
0.5
370
    -3
100
AcDbMText
 10
177.0881518752587
 20
-7.999999999999591
 30
0.0
 40
2.5
 41
11.42369624948264
 46
0.0
 71
     1
 72
     5
  1
\pi2.2952;1個用
 73
     1
 44
1.0
1001
ACAD
1000
ACAD_MTEXT_COLUMN_INFO_BEGIN
1070
    75
1070
     2
1070
    79
1070
     0
1070
    76
1070
     1
1070
    78
1070
     0
1070
    48
1040
11.42369624948264
1070
    49
1040
12.5
1070
    50
1070
     1
1040
0.0
1000
ACAD_MTEXT_COLUMN_INFO_END
  0
MTEXT
  5
D8A6
330
1F
100
AcDbEntity
  8
0
  6
Continuous
 62
     1
 48
0.5
370
    -3
100
AcDbMText
 10
556.3813922519455
 20
-37.99999999999958
 30
0.0
 40
5.0
 41
125.6372154961093
 46
0.0
 71
     1
 72
     5
  1
\pi45.485;メタルモール\P\pi30.485;スイッチボックス　浅型
 73
     1
 44
1.0
1001
ACAD
1000
ACAD_MTEXT_COLUMN_INFO_BEGIN
1070
    75
1070
     2
1070
    79
1070
     0
1070
    76
1070
     1
1070
    78
1070
     0
1070
    48
1040
125.6372154961093
1070
    49
1040
12.5
1070
    50
1070
     1
1040
0.0
1000
ACAD_MTEXT_COLUMN_INFO_END
  0
MTEXT
  5
D8AF
330
1F
100
AcDbEntity
  8
0
  6
Continuous
 62
     1
 48
0.5
370
    -3
100
AcDbMText
 10
19.64385273231536
 20
-15.99999999999961
 30
0.0
 40
2.5
 41
11.91229453536925
 46
0.0
 71
     1
 72
     5
  1
\pi0.37281;A301□
 73
     1
 44
1.0
1001
ACAD
1000
ACAD_MTEXT_COLUMN_INFO_BEGIN
1070
    75
1070
     2
1070
    79
1070
     0
1070
    76
1070
     1
1070
    78
1070
     0
1070
    48
1040
11.91229453536925
1070
    49
1040
12.5
1070
    50
1070
     1
1040
0.0
1000
ACAD_MTEXT_COLUMN_INFO_END
  0
MTEXT
  5
D8B0
330
1F
100
AcDbEntity
  8
0
  6
Continuous
 62
     1
 48
0.5
370
    -3
100
AcDbMText
 10
175.1467783534011
 20
-15.99999999999962
 30
0.0
 40
2.5
 41
15.30644329319784
 46
0.0
 71
     1
 72
     5
  1
\pi0.81989;AB311□
 73
     1
 44
1.0
1001
ACAD
1000
ACAD_MTEXT_COLUMN_INFO_BEGIN
1070
    75
1070
     2
1070
    79
1070
     0
1070
    76
1070
     1
1070
    78
1070
     0
1070
    48
1040
15.30644329319784
1070
    49
1040
12.5
1070
    50
1070
     1
1040
0.0
1000
ACAD_MTEXT_COLUMN_INFO_END
  0
MTEXT
  5
DB01
330
1F
100
AcDbEntity
  8
0
  6
Continuous
 62
     1
 48
0.5
370
    -3
100
AcDbMText
 10
12.07886315541245
 20
-7.999999999999676
 30
0.0
 40
2.5
 41
27.04227368917509
 46
0.0
 71
     1
 72
     5
  1
\pi2.664;Ａ型専用 1個用
 73
     1
 44
1.0
1001
ACAD
1000
ACAD_MTEXT_COLUMN_INFO_BEGIN
1070
    75
1070
     2
1070
    79
1070
     0
1070
    76
1070
     1
1070
    78
1070
     0
1070
    48
1040
27.04227368917509
1070
    49
1040
12.5
1070
    50
1070
     1
1040
0.0
1000
ACAD_MTEXT_COLUMN_INFO_END
  0
MTEXT
  5
12DF6
330
1F
100
AcDbEntity
  8
0
  6
Continuous
 62
     1
 48
0.5
370
    -3
100
AcDbMText
 10
516.4881518752588
 20
-7.999999999999548
 30
0.0
 40
2.5
 41
11.42369624948264
 46
0.0
 71
     1
 72
     5
  1
\pi2.1166;2個用
 73
     1
 44
1.0
1001
ACAD
1000
ACAD_MTEXT_COLUMN_INFO_BEGIN
1070
    75
1070
     2
1070
    79
1070
     0
1070
    76
1070
     1
1070
    78
1070
     0
1070
    48
1040
11.42369624948264
1070
    49
1040
12.5
1070
    50
1070
     1
1040
0.0
1000
ACAD_MTEXT_COLUMN_INFO_END
  0
MTEXT
  5
12DF7
330
1F
100
AcDbEntity
  8
0
  6
Continuous
 62
     1
 48
0.5
370
    -3
100
AcDbMText
 10
513.8479830209075
 20
-15.99999999999958
 30
0.0
 40
2.5
 41
16.70403395818539
 46
0.0
 71
     1
 72
     5
  1
\pi1.5187;AB312□
 73
     1
 44
1.0
1001
ACAD
1000
ACAD_MTEXT_COLUMN_INFO_BEGIN
1070
    75
1070
     2
1070
    79
1070
     0
1070
    76
1070
     1
1070
    78
1070
     0
1070
    48
1040
16.70403395818539
1070
    49
1040
12.5
1070
    50
1070
     1
1040
0.0
1000
ACAD_MTEXT_COLUMN_INFO_END
  0
LINE
  5
13EE6
330
1F
100
AcDbEntity
  8
0
  6
Continuous
 62
     7
 48
0.5
370
    -3
100
AcDbLine
 10
38.0
 20
140.5
 30
0.0
 11
38.0
 21
178.2000000000001
 31
0.0
  0
LINE
  5
13EE7
330
1F
100
AcDbEntity
  8
0
  6
CENTER2
 62
     2
 48
0.5
370
    -3
100
AcDbLine
 10
-0.0000000000000507
 20
134.0
 30
0.0
 11
0.0000000000000568
 21
181.2
 31
0.0
  0
LINE
  5
13EE8
330
1F
100
AcDbEntity
  8
0
  6
Continuous
 62
     7
 48
0.5
370
    -3
100
AcDbLine
 10
-38.00000000000011
 20
140.4999999999999
 30
0.0
 11
-38.00000000000011
 21
178.2
 31
0.0
  0
LINE
  5
13EFD
330
1F
100
AcDbEntity
  8
0
  6
Continuous
 62
     7
 48
0.5
370
    -3
100
AcDbLine
 10
-38.00000000000011
 20
178.2
 30
0.0
 11
38.0
 21
178.2000000000001
 31
0.0
  0
ARC
  5
13F05
330
1F
100
AcDbEntity
  8
0
  6
Continuous
 62
     7
 48
0.5
370
    -3
100
AcDbCircle
 10
34.5
 20
140.5
 30
0.0
 40
3.5
100
AcDbArc
 50
270.0
 51
0.0
  0
ARC
  5
13F13
330
1F
100
AcDbEntity
  8
0
  6
Continuous
 62
     7
 48
0.5
370
    -3
100
AcDbCircle
 10
-34.50000000000012
 20
140.4999999999999
 30
0.0
 40
3.5
100
AcDbArc
 50
180.0
 51
270.0
  0
LINE
  5
13F14
330
1F
100
AcDbEntity
  8
0
  6
Continuous
 62
     7
 48
0.5
370
    -3
100
AcDbLine
 10
34.5
 20
137.0
 30
0.0
 11
-34.50000000000012
 21
136.9999999999999
 31
0.0
  0
LINE
  5
13F17
330
1F
100
AcDbEntity
  8
0
  6
Continuous
 62
     7
 48
0.5
370
    -3
100
AcDbLine
 10
37.99999999999994
 20
121.0
 30
0.0
 11
38.0
 21
9.0
 31
0.0
  0
ARC
  5
13F18
330
1F
100
AcDbEntity
  8
0
  6
Continuous
 62
     7
 48
0.5
370
    -3
100
AcDbCircle
 10
-0.0000000000000568
 20
106.75
 30
0.0
 40
5.0
100
AcDbArc
 50
180.0
 51
0.0
  0
LINE
  5
13F1A
330
1F
100
AcDbEntity
  8
0
  6
Continuous
 62
     7
 48
0.5
370
    -3
100
AcDbLine
 10
-38.0
 20
9.0
 30
0.0
 11
-38.00000000000006
 21
121.0
 31
0.0
  0
LINE
  5
13F1D
330
1F
100
AcDbEntity
  8
0
  6
Continuous
 62
     7
 48
0.5
370
    -3
100
AcDbLine
 10
32.0
 20
3.0
 30
0.0
 11
-32.0
 21
3.0
 31
0.0
  0
LINE
  5
13F1E
330
1F
100
AcDbEntity
  8
0
  6
Continuous
 62
     7
 48
0.5
370
    -3
100
AcDbLine
 10
23.0
 20
20.0
 30
0.0
 11
7.0
 21
20.0
 31
0.0
  0
LINE
  5
13F23
330
1F
100
AcDbEntity
  8
0
  6
Continuous
 62
     7
 48
0.5
370
    -3
100
AcDbLine
 10
-7.0
 20
20.0
 30
0.0
 11
-23.0
 21
20.0
 31
0.0
  0
LINE
  5
13F24
330
1F
100
AcDbEntity
  8
0
  6
Continuous
 62
     7
 48
0.5
370
    -3
100
AcDbLine
 10
-25.0
 20
22.0
 30
0.0
 11
-25.00000000000011
 21
108.0
 31
0.0
  0
ARC
  5
13F25
330
1F
100
AcDbEntity
  8
0
  6
Continuous
 62
     7
 48
0.5
370
    -3
100
AcDbCircle
 10
-32.0
 20
9.0
 30
0.0
 40
6.0
100
AcDbArc
 50
180.0
 51
270.0
  0
LINE
  5
13F28
330
1F
100
AcDbEntity
  8
0
  6
Continuous
 62
     7
 48
0.5
370
    -3
100
AcDbLine
 10
-25.69999999999999
 20
12.70000000000004
 30
0.0
 11
-25.69999999999993
 21
13.29999999999995
 31
0.0
  0
LINE
  5
13F29
330
1F
100
AcDbEntity
  8
0
  6
Continuous
 62
     7
 48
0.5
370
    -3
100
AcDbLine
 10
-27.69999999999999
 20
10.70000000000004
 30
0.0
 11
-28.30000000000001
 21
10.69999999999993
 31
0.0
  0
ARC
  5
13F2A
330
1F
100
AcDbEntity
  8
0
  6
Continuous
 62
     7
 48
0.5
370
    -3
100
AcDbCircle
 10
-23.0
 20
22.0
 30
0.0
 40
2.0
100
AcDbArc
 50
180.0
 51
270.0
  0
ARC
  5
13F32
330
1F
100
AcDbEntity
  8
0
  6
Continuous
 62
     7
 48
0.5
370
    -3
100
AcDbCircle
 10
0.0
 20
23.25
 30
0.0
 40
5.0
100
AcDbArc
 50
0.0
 51
180.0
  0
LINE
  5
13F34
330
1F
100
AcDbEntity
  8
0
  6
CENTER2
 62
     2
 48
0.5
370
    -3
100
AcDbLine
 10
0.0
 20
0.0
 30
0.0
 11
-0.0000000000000568
 21
130.0
 31
0.0
  0
LINE
  5
13F35
330
1F
100
AcDbEntity
  8
0
  6
Continuous
 62
     7
 48
0.5
370
    -3
100
AcDbLine
 10
-5.0
 20
22.0
 30
0.0
 11
-5.0
 21
23.25
 31
0.0
  0
ARC
  5
13F36
330
1F
100
AcDbEntity
  8
0
  6
Continuous
 62
     7
 48
0.5
370
    -3
100
AcDbCircle
 10
-7.0
 20
22.0
 30
0.0
 40
2.0
100
AcDbArc
 50
270.0
 51
0.0
  0
LINE
  5
13F37
330
1F
100
AcDbEntity
  8
0
  6
Continuous
 62
     7
 48
0.5
370
    -3
100
AcDbLine
 10
5.0
 20
22.0
 30
0.0
 11
5.0
 21
23.25
 31
0.0
  0
ARC
  5
13F38
330
1F
100
AcDbEntity
  8
0
  6
Continuous
 62
     7
 48
0.5
370
    -3
100
AcDbCircle
 10
7.0
 20
22.0
 30
0.0
 40
2.0
100
AcDbArc
 50
180.0
 51
270.0
  0
LINE
  5
13F3A
330
1F
100
AcDbEntity
  8
0
  6
Continuous
 62
     7
 48
0.5
370
    -3
100
AcDbLine
 10
24.99999999999995
 20
108.0
 30
0.0
 11
25.0
 21
22.0
 31
0.0
  0
ARC
  5
13F3B
330
1F
100
AcDbEntity
  8
0
  6
Continuous
 62
     7
 48
0.5
370
    -3
100
AcDbCircle
 10
23.0
 20
22.0
 30
0.0
 40
2.0
100
AcDbArc
 50
270.0
 51
0.0
  0
ARC
  5
13F3C
330
1F
100
AcDbEntity
  8
0
  6
Continuous
 62
     7
 48
0.5
370
    -3
100
AcDbCircle
 10
32.0
 20
9.0
 30
0.0
 40
6.0
100
AcDbArc
 50
270.0
 51
0.0
  0
LINE
  5
13F45
330
1F
100
AcDbEntity
  8
0
  6
Continuous
 62
     7
 48
0.5
370
    -3
100
AcDbLine
 10
-32.00000000000006
 20
127.0
 30
0.0
 11
31.99999999999994
 21
127.0
 31
0.0
  0
LINE
  5
13F47
330
1F
100
AcDbEntity
  8
0
  6
Continuous
 62
     7
 48
0.5
370
    -3
100
AcDbLine
 10
6.999999999999943
 20
110.0
 30
0.0
 11
22.99999999999994
 21
110.0
 31
0.0
  0
LINE
  5
13F49
330
1F
100
AcDbEntity
  8
0
  6
Continuous
 62
     7
 48
0.5
370
    -3
100
AcDbLine
 10
-23.00000000000006
 20
110.0
 30
0.0
 11
-7.000000000000056
 21
110.0
 31
0.0
  0
ARC
  5
13F4A
330
1F
100
AcDbEntity
  8
0
  6
Continuous
 62
     7
 48
0.5
370
    -3
100
AcDbCircle
 10
-32.00000000000006
 20
121.0
 30
0.0
 40
6.0
100
AcDbArc
 50
90.0
 51
180.0
  0
ARC
  5
13F4B
330
1F
100
AcDbEntity
  8
0
  6
Continuous
 62
     7
 48
0.5
370
    -3
100
AcDbCircle
 10
-23.00000000000006
 20
108.0
 30
0.0
 40
2.0
100
AcDbArc
 50
90.0
 51
180.0
  0
LINE
  5
13F4C
330
1F
100
AcDbEntity
  8
0
  6
Continuous
 62
     7
 48
0.5
370
    -3
100
AcDbLine
 10
-5.000000000000056
 20
106.75
 30
0.0
 11
-5.000000000000056
 21
108.0
 31
0.0
  0
ARC
  5
13F4D
330
1F
100
AcDbEntity
  8
0
  6
Continuous
 62
     7
 48
0.5
370
    -3
100
AcDbCircle
 10
-7.000000000000056
 20
108.0
 30
0.0
 40
2.0
100
AcDbArc
 50
0.0
 51
90.0
  0
LINE
  5
13F4E
330
1F
100
AcDbEntity
  8
0
  6
Continuous
 62
     7
 48
0.5
370
    -3
100
AcDbLine
 10
4.999999999999943
 20
106.75
 30
0.0
 11
4.999999999999943
 21
108.0
 31
0.0
  0
ARC
  5
13F4F
330
1F
100
AcDbEntity
  8
0
  6
Continuous
 62
     7
 48
0.5
370
    -3
100
AcDbCircle
 10
6.999999999999943
 20
108.0
 30
0.0
 40
2.0
100
AcDbArc
 50
90.0
 51
180.0
  0
ARC
  5
13F51
330
1F
100
AcDbEntity
  8
0
  6
Continuous
 62
     7
 48
0.5
370
    -3
100
AcDbCircle
 10
22.99999999999994
 20
108.0
 30
0.0
 40
2.0
100
AcDbArc
 50
0.0
 51
90.0
  0
ARC
  5
13F53
330
1F
100
AcDbEntity
  8
0
  6
Continuous
 62
     7
 48
0.5
370
    -3
100
AcDbCircle
 10
31.99999999999994
 20
121.0
 30
0.0
 40
6.0
100
AcDbArc
 50
0.0
 51
90.0
  0
LINE
  5
13F54
330
1F
100
AcDbEntity
  8
0
  6
Continuous
 62
     7
 48
0.5
370
    -3
100
AcDbLine
 10
-30.29999999999996
 20
12.70000000000004
 30
0.0
 11
-30.30000000000001
 21
13.29999999999995
 31
0.0
  0
LINE
  5
13F55
330
1F
100
AcDbEntity
  8
0
  6
Continuous
 62
     7
 48
0.5
370
    -3
100
AcDbLine
 10
-27.69999999999999
 20
15.29999999999995
 30
0.0
 11
-28.30000000000001
 21
15.30000000000007
 31
0.0
  0
ARC
  5
13F56
330
1F
100
AcDbEntity
  8
0
  6
Continuous
 62
     7
 48
0.5
370
    -3
100
AcDbCircle
 10
-25.69999999999999
 20
15.29999999999995
 30
0.0
 40
2.0
100
AcDbArc
 50
180.0
 51
270.0
  0
ARC
  5
13F57
330
1F
100
AcDbEntity
  8
0
  6
Continuous
 62
     7
 48
0.5
370
    -3
100
AcDbCircle
 10
-25.69999999999999
 20
10.70000000000004
 30
0.0
 40
2.0
100
AcDbArc
 50
90.0
 51
180.0
  0
ARC
  5
13F58
330
1F
100
AcDbEntity
  8
0
  6
Continuous
 62
     7
 48
0.5
370
    -3
100
AcDbCircle
 10
-30.30000000000001
 20
10.70000000000004
 30
0.0
 40
2.0
100
AcDbArc
 50
0.0
 51
90.0
  0
ARC
  5
13F59
330
1F
100
AcDbEntity
  8
0
  6
Continuous
 62
     7
 48
0.5
370
    -3
100
AcDbCircle
 10
-30.30000000000001
 20
15.29999999999995
 30
0.0
 40
2.0
100
AcDbArc
 50
270.0
 51
0.0
  0
ARC
  5
13F6C
330
1F
100
AcDbEntity
  8
0
  6
Continuous
 62
     7
 48
0.5
370
    -3
100
AcDbCircle
 10
25.69999999999993
 20
119.2999999999999
 30
0.0
 40
2.0
100
AcDbArc
 50
270.0
 51
0.0
  0
ARC
  5
13F6D
330
1F
100
AcDbEntity
  8
0
  6
Continuous
 62
     7
 48
0.5
370
    -3
100
AcDbCircle
 10
25.69999999999993
 20
114.7
 30
0.0
 40
2.0
100
AcDbArc
 50
0.0
 51
90.0
  0
ARC
  5
13F6E
330
1F
100
AcDbEntity
  8
0
  6
Continuous
 62
     7
 48
0.5
370
    -3
100
AcDbCircle
 10
30.29999999999996
 20
114.7
 30
0.0
 40
2.0
100
AcDbArc
 50
90.0
 51
180.0
  0
ARC
  5
13F6F
330
1F
100
AcDbEntity
  8
0
  6
Continuous
 62
     7
 48
0.5
370
    -3
100
AcDbCircle
 10
30.29999999999996
 20
119.2999999999999
 30
0.0
 40
2.0
100
AcDbArc
 50
180.0
 51
270.0
  0
LINE
  5
13F70
330
1F
100
AcDbEntity
  8
0
  6
Continuous
 62
     7
 48
0.5
370
    -3
100
AcDbLine
 10
28.29999999999996
 20
119.2999999999999
 30
0.0
 11
27.69999999999993
 21
119.3
 31
0.0
  0
LINE
  5
13F71
330
1F
100
AcDbEntity
  8
0
  6
Continuous
 62
     7
 48
0.5
370
    -3
100
AcDbLine
 10
28.29999999999996
 20
114.7
 30
0.0
 11
27.69999999999993
 21
114.6999999999999
 31
0.0
  0
LINE
  5
13F72
330
1F
100
AcDbEntity
  8
0
  6
Continuous
 62
     7
 48
0.5
370
    -3
100
AcDbLine
 10
25.69999999999999
 20
116.7
 30
0.0
 11
25.69999999999988
 21
117.2999999999999
 31
0.0
  0
LINE
  5
13F73
330
1F
100
AcDbEntity
  8
0
  6
Continuous
 62
     7
 48
0.5
370
    -3
100
AcDbLine
 10
30.2999999999999
 20
116.7
 30
0.0
 11
30.30000000000001
 21
117.2999999999999
 31
0.0
  0
CIRCLE
  5
13FA6
330
1F
100
AcDbEntity
  8
0
  6
Continuous
 62
     7
 48
0.5
370
    -3
100
AcDbCircle
 10
-28.0
 20
13.0
 30
0.0
 40
4.0
  0
CIRCLE
  5
13FA9
330
1F
100
AcDbEntity
  8
0
  6
Continuous
 62
     7
 48
0.5
370
    -3
100
AcDbCircle
 10
27.99999999999994
 20
117.0
 30
0.0
 40
4.0
  0
LINE
  5
141C7
330
1F
100
AcDbEntity
  8
0
  6
CENTER2
 62
     2
 48
0.5
370
    -3
100
AcDbLine
 10
44.99999999999997
 20
65.0
 30
0.0
 11
92.20000000000004
 21
64.99999999999994
 31
0.0
  0
LINE
  5
141C9
330
1F
100
AcDbEntity
  8
0
  6
Continuous
 62
     7
 48
0.5
370
    -3
100
AcDbLine
 10
51.49999999999997
 20
3.000000000000056
 30
0.0
 11
89.20000000000005
 21
3.000000000000056
 31
0.0
  0
LINE
  5
141D9
330
1F
100
AcDbEntity
  8
0
  6
Continuous
 62
     7
 48
0.5
370
    -3
100
AcDbLine
 10
47.99999999999997
 20
6.500000000000056
 30
0.0
 11
47.99999999999997
 21
123.4999999999997
 31
0.0
  0
ARC
  5
141DA
330
1F
100
AcDbEntity
  8
0
  6
Continuous
 62
     7
 48
0.5
370
    -3
100
AcDbCircle
 10
51.49999999999997
 20
6.500000000000056
 30
0.0
 40
3.5
100
AcDbArc
 50
180.0
 51
270.0
  0
LINE
  5
141E5
330
1F
100
AcDbEntity
  8
0
  6
Continuous
 62
     7
 48
0.5
370
    -3
100
AcDbLine
 10
89.20000000000005
 20
126.9999999999998
 30
0.0
 11
89.20000000000005
 21
3.000000000000056
 31
0.0
  0
CIRCLE
  5
14276
330
1F
100
AcDbEntity
  8
0
  6
Continuous
 62
     7
 48
0.5
370
    -3
100
AcDbCircle
 10
0.0
 20
65.0
 30
0.0
 40
17.25
  0
LINE
  5
1427F
330
1F
100
AcDbEntity
  8
0
  6
Continuous
 62
     7
 48
0.5
370
    -3
100
AcDbLine
 10
51.49999999999997
 20
126.9999999999998
 30
0.0
 11
89.20000000000005
 21
126.9999999999998
 31
0.0
  0
ARC
  5
14280
330
1F
100
AcDbEntity
  8
0
  6
Continuous
 62
     7
 48
0.5
370
    -3
100
AcDbCircle
 10
51.49999999999997
 20
123.4999999999997
 30
0.0
 40
3.5
100
AcDbArc
 50
90.0
 51
180.0
  0
LINE
  5
1428B
330
1F
100
AcDbEntity
  8
0
  6
CENTER2
 62
     2
 48
0.5
370
    -3
100
AcDbLine
 10
40.99999999999996
 20
65.0
 30
0.0
 11
-41.00000000000003
 21
65.0
 31
0.0
  0
LINE
  5
1428F
330
1F
100
AcDbEntity
  8
0
  6
Continuous
 62
     7
 48
0.5
370
    -3
100
AcDbLine
 10
195.2
 20
140.5000000000001
 30
0.0
 11
195.2
 21
178.2000000000001
 31
0.0
  0
LINE
  5
14290
330
1F
100
AcDbEntity
  8
0
  6
CENTER2
 62
     2
 48
0.5
370
    -3
100
AcDbLine
 10
157.2
 20
134.0
 30
0.0
 11
157.2000000000001
 21
181.2
 31
0.0
  0
LINE
  5
14291
330
1F
100
AcDbEntity
  8
0
  6
Continuous
 62
     7
 48
0.5
370
    -3
100
AcDbLine
 10
119.1999999999999
 20
140.5
 30
0.0
 11
119.1999999999999
 21
178.2
 31
0.0
  0
LINE
  5
14292
330
1F
100
AcDbEntity
  8
0
  6
Continuous
 62
     7
 48
0.5
370
    -3
100
AcDbLine
 10
119.1999999999999
 20
178.2
 30
0.0
 11
195.2
 21
178.2000000000001
 31
0.0
  0
ARC
  5
14298
330
1F
100
AcDbEntity
  8
0
  6
Continuous
 62
     7
 48
0.5
370
    -3
100
AcDbCircle
 10
191.7
 20
140.5000000000001
 30
0.0
 40
3.5
100
AcDbArc
 50
270.0
 51
0.0
  0
ARC
  5
14299
330
1F
100
AcDbEntity
  8
0
  6
Continuous
 62
     7
 48
0.5
370
    -3
100
AcDbCircle
 10
122.6999999999999
 20
140.5
 30
0.0
 40
3.5
100
AcDbArc
 50
180.0
 51
270.0
  0
LINE
  5
1429A
330
1F
100
AcDbEntity
  8
0
  6
Continuous
 62
     7
 48
0.5
370
    -3
100
AcDbLine
 10
191.7
 20
137.0000000000001
 30
0.0
 11
122.6999999999999
 21
137.0
 31
0.0
  0
LINE
  5
1429C
330
1F
100
AcDbEntity
  8
0
  6
Continuous
 62
     7
 48
0.5
370
    -3
100
AcDbLine
 10
195.2
 20
121.0
 30
0.0
 11
195.2
 21
9.000000000000056
 31
0.0
  0
ARC
  5
1429D
330
1F
100
AcDbEntity
  8
0
  6
Continuous
 62
     7
 48
0.5
370
    -3
100
AcDbCircle
 10
157.2
 20
106.75
 30
0.0
 40
5.0
100
AcDbArc
 50
180.0
 51
0.0
  0
LINE
  5
1429E
330
1F
100
AcDbEntity
  8
0
  6
Continuous
 62
     7
 48
0.5
370
    -3
100
AcDbLine
 10
119.2
 20
9.000000000000056
 30
0.0
 11
119.2
 21
121.0
 31
0.0
  0
LINE
  5
1429F
330
1F
100
AcDbEntity
  8
0
  6
Continuous
 62
     7
 48
0.5
370
    -3
100
AcDbLine
 10
189.2
 20
3.000000000000056
 30
0.0
 11
125.2
 21
3.000000000000056
 31
0.0
  0
LINE
  5
142A0
330
1F
100
AcDbEntity
  8
0
  6
Continuous
 62
     7
 48
0.5
370
    -3
100
AcDbLine
 10
180.2
 20
20.00000000000006
 30
0.0
 11
164.2
 21
20.00000000000006
 31
0.0
  0
LINE
  5
142A2
330
1F
100
AcDbEntity
  8
0
  6
Continuous
 62
     7
 48
0.5
370
    -3
100
AcDbLine
 10
150.2
 20
20.00000000000006
 30
0.0
 11
134.2
 21
20.00000000000006
 31
0.0
  0
LINE
  5
142A3
330
1F
100
AcDbEntity
  8
0
  6
Continuous
 62
     7
 48
0.5
370
    -3
100
AcDbLine
 10
132.2
 20
22.00000000000006
 30
0.0
 11
132.1999999999999
 21
108.0
 31
0.0
  0
ARC
  5
142A4
330
1F
100
AcDbEntity
  8
0
  6
Continuous
 62
     7
 48
0.5
370
    -3
100
AcDbCircle
 10
125.2
 20
9.000000000000056
 30
0.0
 40
6.0
100
AcDbArc
 50
180.0
 51
270.0
  0
LINE
  5
142A5
330
1F
100
AcDbEntity
  8
0
  6
Continuous
 62
     7
 48
0.5
370
    -3
100
AcDbLine
 10
131.5
 20
12.7000000000001
 30
0.0
 11
131.5000000000001
 21
13.30000000000001
 31
0.0
  0
LINE
  5
142A6
330
1F
100
AcDbEntity
  8
0
  6
Continuous
 62
     7
 48
0.5
370
    -3
100
AcDbLine
 10
129.5
 20
10.7000000000001
 30
0.0
 11
128.9
 21
10.69999999999999
 31
0.0
  0
ARC
  5
142A7
330
1F
100
AcDbEntity
  8
0
  6
Continuous
 62
     7
 48
0.5
370
    -3
100
AcDbCircle
 10
134.2
 20
22.00000000000006
 30
0.0
 40
2.0
100
AcDbArc
 50
180.0
 51
270.0
  0
ARC
  5
142A8
330
1F
100
AcDbEntity
  8
0
  6
Continuous
 62
     7
 48
0.5
370
    -3
100
AcDbCircle
 10
157.2
 20
23.25000000000006
 30
0.0
 40
5.0
100
AcDbArc
 50
0.0
 51
180.0
  0
LINE
  5
142A9
330
1F
100
AcDbEntity
  8
0
  6
CENTER2
 62
     2
 48
0.5
370
    -3
100
AcDbLine
 10
157.2
 20
0.0000000000000568
 30
0.0
 11
157.2
 21
130.0
 31
0.0
  0
LINE
  5
142AA
330
1F
100
AcDbEntity
  8
0
  6
Continuous
 62
     7
 48
0.5
370
    -3
100
AcDbLine
 10
152.2
 20
22.00000000000006
 30
0.0
 11
152.2
 21
23.25000000000006
 31
0.0
  0
ARC
  5
142AB
330
1F
100
AcDbEntity
  8
0
  6
Continuous
 62
     7
 48
0.5
370
    -3
100
AcDbCircle
 10
150.2
 20
22.00000000000006
 30
0.0
 40
2.0
100
AcDbArc
 50
270.0
 51
0.0
  0
LINE
  5
142AC
330
1F
100
AcDbEntity
  8
0
  6
Continuous
 62
     7
 48
0.5
370
    -3
100
AcDbLine
 10
162.2
 20
22.00000000000006
 30
0.0
 11
162.2
 21
23.25000000000006
 31
0.0
  0
ARC
  5
142AD
330
1F
100
AcDbEntity
  8
0
  6
Continuous
 62
     7
 48
0.5
370
    -3
100
AcDbCircle
 10
164.2
 20
22.00000000000006
 30
0.0
 40
2.0
100
AcDbArc
 50
180.0
 51
270.0
  0
LINE
  5
142AE
330
1F
100
AcDbEntity
  8
0
  6
Continuous
 62
     7
 48
0.5
370
    -3
100
AcDbLine
 10
182.2
 20
108.0
 30
0.0
 11
182.2
 21
22.00000000000006
 31
0.0
  0
ARC
  5
142AF
330
1F
100
AcDbEntity
  8
0
  6
Continuous
 62
     7
 48
0.5
370
    -3
100
AcDbCircle
 10
180.2
 20
22.00000000000006
 30
0.0
 40
2.0
100
AcDbArc
 50
270.0
 51
0.0
  0
ARC
  5
142B0
330
1F
100
AcDbEntity
  8
0
  6
Continuous
 62
     7
 48
0.5
370
    -3
100
AcDbCircle
 10
189.2
 20
9.000000000000056
 30
0.0
 40
6.0
100
AcDbArc
 50
270.0
 51
0.0
  0
LINE
  5
142B1
330
1F
100
AcDbEntity
  8
0
  6
Continuous
 62
     7
 48
0.5
370
    -3
100
AcDbLine
 10
125.2
 20
127.0
 30
0.0
 11
189.2
 21
127.0
 31
0.0
  0
LINE
  5
142B2
330
1F
100
AcDbEntity
  8
0
  6
Continuous
 62
     7
 48
0.5
370
    -3
100
AcDbLine
 10
164.2
 20
110.0
 30
0.0
 11
180.1999999999999
 21
110.0
 31
0.0
  0
LINE
  5
142B3
330
1F
100
AcDbEntity
  8
0
  6
Continuous
 62
     7
 48
0.5
370
    -3
100
AcDbLine
 10
134.2
 20
110.0
 30
0.0
 11
150.2
 21
110.0
 31
0.0
  0
ARC
  5
142B4
330
1F
100
AcDbEntity
  8
0
  6
Continuous
 62
     7
 48
0.5
370
    -3
100
AcDbCircle
 10
125.2
 20
121.0
 30
0.0
 40
6.0
100
AcDbArc
 50
90.0
 51
180.0
  0
ARC
  5
142B5
330
1F
100
AcDbEntity
  8
0
  6
Continuous
 62
     7
 48
0.5
370
    -3
100
AcDbCircle
 10
134.2
 20
108.0
 30
0.0
 40
2.0
100
AcDbArc
 50
90.0
 51
180.0
  0
LINE
  5
142B6
330
1F
100
AcDbEntity
  8
0
  6
Continuous
 62
     7
 48
0.5
370
    -3
100
AcDbLine
 10
152.2
 20
106.75
 30
0.0
 11
152.2
 21
108.0
 31
0.0
  0
ARC
  5
142B7
330
1F
100
AcDbEntity
  8
0
  6
Continuous
 62
     7
 48
0.5
370
    -3
100
AcDbCircle
 10
150.2
 20
108.0
 30
0.0
 40
2.0
100
AcDbArc
 50
0.0
 51
90.0
  0
LINE
  5
142B8
330
1F
100
AcDbEntity
  8
0
  6
Continuous
 62
     7
 48
0.5
370
    -3
100
AcDbLine
 10
162.2
 20
106.75
 30
0.0
 11
162.2
 21
108.0
 31
0.0
  0
ARC
  5
142B9
330
1F
100
AcDbEntity
  8
0
  6
Continuous
 62
     7
 48
0.5
370
    -3
100
AcDbCircle
 10
164.2
 20
108.0
 30
0.0
 40
2.0
100
AcDbArc
 50
90.0
 51
180.0
  0
ARC
  5
142BA
330
1F
100
AcDbEntity
  8
0
  6
Continuous
 62
     7
 48
0.5
370
    -3
100
AcDbCircle
 10
180.1999999999999
 20
108.0
 30
0.0
 40
2.0
100
AcDbArc
 50
0.0
 51
90.0
  0
ARC
  5
142BB
330
1F
100
AcDbEntity
  8
0
  6
Continuous
 62
     7
 48
0.5
370
    -3
100
AcDbCircle
 10
189.2
 20
121.0
 30
0.0
 40
6.0
100
AcDbArc
 50
0.0
 51
90.0
  0
LINE
  5
142BC
330
1F
100
AcDbEntity
  8
0
  6
Continuous
 62
     7
 48
0.5
370
    -3
100
AcDbLine
 10
126.9000000000001
 20
12.7000000000001
 30
0.0
 11
126.9
 21
13.30000000000001
 31
0.0
  0
LINE
  5
142BD
330
1F
100
AcDbEntity
  8
0
  6
Continuous
 62
     7
 48
0.5
370
    -3
100
AcDbLine
 10
129.5
 20
15.30000000000001
 30
0.0
 11
128.9
 21
15.30000000000012
 31
0.0
  0
ARC
  5
142BE
330
1F
100
AcDbEntity
  8
0
  6
Continuous
 62
     7
 48
0.5
370
    -3
100
AcDbCircle
 10
131.5
 20
15.30000000000001
 30
0.0
 40
2.0
100
AcDbArc
 50
180.0
 51
270.0
  0
ARC
  5
142BF
330
1F
100
AcDbEntity
  8
0
  6
Continuous
 62
     7
 48
0.5
370
    -3
100
AcDbCircle
 10
131.5
 20
10.7000000000001
 30
0.0
 40
2.0
100
AcDbArc
 50
90.0
 51
180.0
  0
ARC
  5
142C0
330
1F
100
AcDbEntity
  8
0
  6
Continuous
 62
     7
 48
0.5
370
    -3
100
AcDbCircle
 10
126.9
 20
10.7000000000001
 30
0.0
 40
2.0
100
AcDbArc
 50
0.0
 51
90.0
  0
ARC
  5
142C1
330
1F
100
AcDbEntity
  8
0
  6
Continuous
 62
     7
 48
0.5
370
    -3
100
AcDbCircle
 10
126.9
 20
15.30000000000001
 30
0.0
 40
2.0
100
AcDbArc
 50
270.0
 51
0.0
  0
ARC
  5
142D2
330
1F
100
AcDbEntity
  8
0
  6
Continuous
 62
     7
 48
0.5
370
    -3
100
AcDbCircle
 10
182.8999999999999
 20
119.3
 30
0.0
 40
2.0
100
AcDbArc
 50
270.0
 51
0.0
  0
ARC
  5
142D3
330
1F
100
AcDbEntity
  8
0
  6
Continuous
 62
     7
 48
0.5
370
    -3
100
AcDbCircle
 10
182.8999999999999
 20
114.7000000000001
 30
0.0
 40
2.0
100
AcDbArc
 50
0.0
 51
90.0
  0
ARC
  5
142D4
330
1F
100
AcDbEntity
  8
0
  6
Continuous
 62
     7
 48
0.5
370
    -3
100
AcDbCircle
 10
187.5
 20
114.7000000000001
 30
0.0
 40
2.0
100
AcDbArc
 50
90.0
 51
180.0
  0
ARC
  5
142D5
330
1F
100
AcDbEntity
  8
0
  6
Continuous
 62
     7
 48
0.5
370
    -3
100
AcDbCircle
 10
187.5
 20
119.3
 30
0.0
 40
2.0
100
AcDbArc
 50
180.0
 51
270.0
  0
LINE
  5
142D6
330
1F
100
AcDbEntity
  8
0
  6
Continuous
 62
     7
 48
0.5
370
    -3
100
AcDbLine
 10
185.5
 20
119.3
 30
0.0
 11
184.9
 21
119.3000000000001
 31
0.0
  0
LINE
  5
142D7
330
1F
100
AcDbEntity
  8
0
  6
Continuous
 62
     7
 48
0.5
370
    -3
100
AcDbLine
 10
185.5
 20
114.7000000000001
 30
0.0
 11
184.9
 21
114.7
 31
0.0
  0
LINE
  5
142D8
330
1F
100
AcDbEntity
  8
0
  6
Continuous
 62
     7
 48
0.5
370
    -3
100
AcDbLine
 10
182.9
 20
116.7000000000001
 30
0.0
 11
182.8999999999999
 21
117.3
 31
0.0
  0
LINE
  5
142D9
330
1F
100
AcDbEntity
  8
0
  6
Continuous
 62
     7
 48
0.5
370
    -3
100
AcDbLine
 10
187.4999999999999
 20
116.7000000000001
 30
0.0
 11
187.5
 21
117.3
 31
0.0
  0
CIRCLE
  5
142E3
330
1F
100
AcDbEntity
  8
0
  6
Continuous
 62
     7
 48
0.5
370
    -3
100
AcDbCircle
 10
129.2
 20
13.00000000000006
 30
0.0
 40
4.0
  0
CIRCLE
  5
142E6
330
1F
100
AcDbEntity
  8
0
  6
Continuous
 62
     7
 48
0.5
370
    -3
100
AcDbCircle
 10
185.2
 20
117.0
 30
0.0
 40
4.0
  0
CIRCLE
  5
142F2
330
1F
100
AcDbEntity
  8
0
  6
Continuous
 62
     7
 48
0.5
370
    -3
100
AcDbCircle
 10
157.2
 20
65.00000000000006
 30
0.0
 40
17.25
  0
LINE
  5
142FD
330
1F
100
AcDbEntity
  8
0
  6
CENTER2
 62
     2
 48
0.5
370
    -3
100
AcDbLine
 10
198.2
 20
65.00000000000006
 30
0.0
 11
116.2
 21
65.00000000000006
 31
0.0
  0
LINE
  5
142FF
330
1F
100
AcDbEntity
  8
0
  6
CENTER2
 62
     2
 48
0.5
370
    -3
100
AcDbLine
 10
202.2
 20
65.00000000000006
 30
0.0
 11
249.4000000000001
 21
65.0
 31
0.0
  0
LINE
  5
14300
330
1F
100
AcDbEntity
  8
0
  6
Continuous
 62
     7
 48
0.5
370
    -3
100
AcDbLine
 10
208.7
 20
3.000000000000113
 30
0.0
 11
246.4000000000001
 21
3.000000000000113
 31
0.0
  0
LINE
  5
14306
330
1F
100
AcDbEntity
  8
0
  6
Continuous
 62
     7
 48
0.5
370
    -3
100
AcDbLine
 10
205.2
 20
6.500000000000113
 30
0.0
 11
205.2
 21
123.4999999999998
 31
0.0
  0
ARC
  5
14307
330
1F
100
AcDbEntity
  8
0
  6
Continuous
 62
     7
 48
0.5
370
    -3
100
AcDbCircle
 10
208.7
 20
6.500000000000113
 30
0.0
 40
3.5
100
AcDbArc
 50
180.0
 51
270.0
  0
LINE
  5
14308
330
1F
100
AcDbEntity
  8
0
  6
Continuous
 62
     7
 48
0.5
370
    -3
100
AcDbLine
 10
246.4000000000001
 20
126.9999999999998
 30
0.0
 11
246.4000000000001
 21
3.000000000000113
 31
0.0
  0
LINE
  5
14312
330
1F
100
AcDbEntity
  8
0
  6
Continuous
 62
     7
 48
0.5
370
    -3
100
AcDbLine
 10
208.7
 20
126.9999999999998
 30
0.0
 11
246.4000000000001
 21
126.9999999999998
 31
0.0
  0
ARC
  5
14313
330
1F
100
AcDbEntity
  8
0
  6
Continuous
 62
     7
 48
0.5
370
    -3
100
AcDbCircle
 10
208.7
 20
123.4999999999998
 30
0.0
 40
3.5
100
AcDbArc
 50
90.0
 51
180.0
  0
MTEXT
  5
14331
330
1F
100
AcDbEntity
  8
0
  6
Continuous
 62
     1
 48
0.5
370
    -3
100
AcDbMText
 10
326.3735810276368
 20
-7.999999999999591
 30
0.0
 40
2.5
 41
27.25283794472671
 46
0.0
 71
     1
 72
     5
  1
\pi2.6264;1個用　ノック無
 73
     1
 44
1.0
1001
ACAD
1000
ACAD_MTEXT_COLUMN_INFO_BEGIN
1070
    75
1070
     2
1070
    79
1070
     0
1070
    76
1070
     1
1070
    78
1070
     0
1070
    48
1040
27.25283794472671
1070
    49
1040
12.5
1070
    50
1070
     1
1040
0.0
1000
ACAD_MTEXT_COLUMN_INFO_END
  0
MTEXT
  5
14334
330
1F
100
AcDbEntity
  8
0
  6
Continuous
 62
     1
 48
0.5
370
    -3
100
AcDbMText
 10
331.1488434976974
 20
-15.99999999999953
 30
0.0
 40
2.5
 41
17.70231300460546
 46
0.0
 71
     1
 72
     5
  1
\pi0.7083;ABN311□
 73
     1
 44
1.0
1001
ACAD
1000
ACAD_MTEXT_COLUMN_INFO_BEGIN
1070
    75
1070
     2
1070
    79
1070
     0
1070
    76
1070
     1
1070
    78
1070
     0
1070
    48
1040
17.70231300460546
1070
    49
1040
12.5
1070
    50
1070
     1
1040
0.0
1000
ACAD_MTEXT_COLUMN_INFO_END
  0
LINE
  5
14335
330
1F
100
AcDbEntity
  8
0
  6
Continuous
 62
     7
 48
0.5
370
    -3
100
AcDbLine
 10
352.4000000000001
 20
140.5000000000002
 30
0.0
 11
352.4000000000001
 21
178.2000000000002
 31
0.0
  0
LINE
  5
14336
330
1F
100
AcDbEntity
  8
0
  6
CENTER2
 62
     2
 48
0.5
370
    -3
100
AcDbLine
 10
314.4000000000001
 20
134.0000000000001
 30
0.0
 11
314.4000000000001
 21
181.2000000000001
 31
0.0
  0
LINE
  5
14337
330
1F
100
AcDbEntity
  8
0
  6
Continuous
 62
     7
 48
0.5
370
    -3
100
AcDbLine
 10
276.4
 20
140.5000000000001
 30
0.0
 11
276.4
 21
178.2000000000001
 31
0.0
  0
LINE
  5
14338
330
1F
100
AcDbEntity
  8
0
  6
Continuous
 62
     7
 48
0.5
370
    -3
100
AcDbLine
 10
276.4
 20
178.2000000000001
 30
0.0
 11
352.4000000000001
 21
178.2000000000002
 31
0.0
  0
ARC
  5
1433E
330
1F
100
AcDbEntity
  8
0
  6
Continuous
 62
     7
 48
0.5
370
    -3
100
AcDbCircle
 10
348.9000000000001
 20
140.5000000000002
 30
0.0
 40
3.5
100
AcDbArc
 50
270.0
 51
0.0
  0
ARC
  5
1433F
330
1F
100
AcDbEntity
  8
0
  6
Continuous
 62
     7
 48
0.5
370
    -3
100
AcDbCircle
 10
279.9
 20
140.5000000000001
 30
0.0
 40
3.5
100
AcDbArc
 50
180.0
 51
270.0
  0
LINE
  5
14340
330
1F
100
AcDbEntity
  8
0
  6
Continuous
 62
     7
 48
0.5
370
    -3
100
AcDbLine
 10
348.9000000000001
 20
137.0000000000002
 30
0.0
 11
279.9
 21
137.0
 31
0.0
  0
LINE
  5
14342
330
1F
100
AcDbEntity
  8
0
  6
Continuous
 62
     7
 48
0.5
370
    -3
100
AcDbLine
 10
352.4
 20
121.0000000000001
 30
0.0
 11
352.4000000000001
 21
9.000000000000142
 31
0.0
  0
ARC
  5
14343
330
1F
100
AcDbEntity
  8
0
  6
Continuous
 62
     7
 48
0.5
370
    -3
100
AcDbCircle
 10
314.4000000000001
 20
106.7500000000001
 30
0.0
 40
5.0
100
AcDbArc
 50
180.0
 51
0.0
  0
LINE
  5
14344
330
1F
100
AcDbEntity
  8
0
  6
Continuous
 62
     7
 48
0.5
370
    -3
100
AcDbLine
 10
276.4000000000001
 20
9.000000000000142
 30
0.0
 11
276.4
 21
121.0000000000001
 31
0.0
  0
LINE
  5
14345
330
1F
100
AcDbEntity
  8
0
  6
Continuous
 62
     7
 48
0.5
370
    -3
100
AcDbLine
 10
346.4000000000001
 20
3.000000000000142
 30
0.0
 11
282.4000000000001
 21
3.000000000000142
 31
0.0
  0
LINE
  5
14346
330
1F
100
AcDbEntity
  8
0
  6
Continuous
 62
     7
 48
0.5
370
    -3
100
AcDbLine
 10
337.4000000000001
 20
20.00000000000014
 30
0.0
 11
321.4000000000001
 21
20.00000000000014
 31
0.0
  0
LINE
  5
14348
330
1F
100
AcDbEntity
  8
0
  6
Continuous
 62
     7
 48
0.5
370
    -3
100
AcDbLine
 10
307.4000000000001
 20
20.00000000000014
 30
0.0
 11
291.4000000000001
 21
20.00000000000014
 31
0.0
  0
LINE
  5
14349
330
1F
100
AcDbEntity
  8
0
  6
Continuous
 62
     7
 48
0.5
370
    -3
100
AcDbLine
 10
289.4000000000001
 20
22.00000000000014
 30
0.0
 11
289.4
 21
108.0000000000001
 31
0.0
  0
ARC
  5
1434A
330
1F
100
AcDbEntity
  8
0
  6
Continuous
 62
     7
 48
0.5
370
    -3
100
AcDbCircle
 10
282.4000000000001
 20
9.000000000000142
 30
0.0
 40
6.0
100
AcDbArc
 50
180.0
 51
270.0
  0
LINE
  5
1434B
330
1F
100
AcDbEntity
  8
0
  6
Continuous
 62
     7
 48
0.5
370
    -3
100
AcDbLine
 10
288.7000000000001
 20
12.70000000000019
 30
0.0
 11
288.7000000000002
 21
13.3000000000001
 31
0.0
  0
LINE
  5
1434C
330
1F
100
AcDbEntity
  8
0
  6
Continuous
 62
     7
 48
0.5
370
    -3
100
AcDbLine
 10
286.7000000000001
 20
10.70000000000018
 30
0.0
 11
286.1000000000001
 21
10.70000000000007
 31
0.0
  0
ARC
  5
1434D
330
1F
100
AcDbEntity
  8
0
  6
Continuous
 62
     7
 48
0.5
370
    -3
100
AcDbCircle
 10
291.4000000000001
 20
22.00000000000014
 30
0.0
 40
2.0
100
AcDbArc
 50
180.0
 51
270.0
  0
ARC
  5
1434E
330
1F
100
AcDbEntity
  8
0
  6
Continuous
 62
     7
 48
0.5
370
    -3
100
AcDbCircle
 10
314.4000000000001
 20
23.25000000000014
 30
0.0
 40
5.0
100
AcDbArc
 50
0.0
 51
180.0
  0
LINE
  5
1434F
330
1F
100
AcDbEntity
  8
0
  6
CENTER2
 62
     2
 48
0.5
370
    -3
100
AcDbLine
 10
314.4000000000001
 20
0.0000000000001421
 30
0.0
 11
314.4000000000001
 21
130.0000000000001
 31
0.0
  0
LINE
  5
14350
330
1F
100
AcDbEntity
  8
0
  6
Continuous
 62
     7
 48
0.5
370
    -3
100
AcDbLine
 10
309.4000000000001
 20
22.00000000000014
 30
0.0
 11
309.4000000000001
 21
23.25000000000014
 31
0.0
  0
ARC
  5
14351
330
1F
100
AcDbEntity
  8
0
  6
Continuous
 62
     7
 48
0.5
370
    -3
100
AcDbCircle
 10
307.4000000000001
 20
22.00000000000014
 30
0.0
 40
2.0
100
AcDbArc
 50
270.0
 51
0.0
  0
LINE
  5
14352
330
1F
100
AcDbEntity
  8
0
  6
Continuous
 62
     7
 48
0.5
370
    -3
100
AcDbLine
 10
319.4000000000001
 20
22.00000000000014
 30
0.0
 11
319.4000000000001
 21
23.25000000000014
 31
0.0
  0
ARC
  5
14353
330
1F
100
AcDbEntity
  8
0
  6
Continuous
 62
     7
 48
0.5
370
    -3
100
AcDbCircle
 10
321.4000000000001
 20
22.00000000000014
 30
0.0
 40
2.0
100
AcDbArc
 50
180.0
 51
270.0
  0
LINE
  5
14354
330
1F
100
AcDbEntity
  8
0
  6
Continuous
 62
     7
 48
0.5
370
    -3
100
AcDbLine
 10
339.4000000000001
 20
108.0000000000001
 30
0.0
 11
339.4000000000001
 21
22.00000000000014
 31
0.0
  0
ARC
  5
14355
330
1F
100
AcDbEntity
  8
0
  6
Continuous
 62
     7
 48
0.5
370
    -3
100
AcDbCircle
 10
337.4000000000001
 20
22.00000000000014
 30
0.0
 40
2.0
100
AcDbArc
 50
270.0
 51
0.0
  0
ARC
  5
14356
330
1F
100
AcDbEntity
  8
0
  6
Continuous
 62
     7
 48
0.5
370
    -3
100
AcDbCircle
 10
346.4000000000001
 20
9.000000000000142
 30
0.0
 40
6.0
100
AcDbArc
 50
270.0
 51
0.0
  0
LINE
  5
14357
330
1F
100
AcDbEntity
  8
0
  6
Continuous
 62
     7
 48
0.5
370
    -3
100
AcDbLine
 10
282.4
 20
127.0000000000001
 30
0.0
 11
346.4
 21
127.0000000000001
 31
0.0
  0
LINE
  5
14358
330
1F
100
AcDbEntity
  8
0
  6
Continuous
 62
     7
 48
0.5
370
    -3
100
AcDbLine
 10
321.4
 20
110.0000000000001
 30
0.0
 11
337.4
 21
110.0000000000001
 31
0.0
  0
LINE
  5
14359
330
1F
100
AcDbEntity
  8
0
  6
Continuous
 62
     7
 48
0.5
370
    -3
100
AcDbLine
 10
291.4000000000001
 20
110.0000000000001
 30
0.0
 11
307.4
 21
110.0000000000001
 31
0.0
  0
ARC
  5
1435A
330
1F
100
AcDbEntity
  8
0
  6
Continuous
 62
     7
 48
0.5
370
    -3
100
AcDbCircle
 10
282.4
 20
121.0000000000001
 30
0.0
 40
6.0
100
AcDbArc
 50
90.0
 51
180.0
  0
ARC
  5
1435B
330
1F
100
AcDbEntity
  8
0
  6
Continuous
 62
     7
 48
0.5
370
    -3
100
AcDbCircle
 10
291.4000000000001
 20
108.0000000000001
 30
0.0
 40
2.0
100
AcDbArc
 50
90.0
 51
180.0
  0
LINE
  5
1435C
330
1F
100
AcDbEntity
  8
0
  6
Continuous
 62
     7
 48
0.5
370
    -3
100
AcDbLine
 10
309.4
 20
106.7500000000001
 30
0.0
 11
309.4
 21
108.0000000000001
 31
0.0
  0
ARC
  5
1435D
330
1F
100
AcDbEntity
  8
0
  6
Continuous
 62
     7
 48
0.5
370
    -3
100
AcDbCircle
 10
307.4
 20
108.0000000000001
 30
0.0
 40
2.0
100
AcDbArc
 50
0.0
 51
90.0
  0
LINE
  5
1435E
330
1F
100
AcDbEntity
  8
0
  6
Continuous
 62
     7
 48
0.5
370
    -3
100
AcDbLine
 10
319.4
 20
106.7500000000001
 30
0.0
 11
319.4
 21
108.0000000000001
 31
0.0
  0
ARC
  5
1435F
330
1F
100
AcDbEntity
  8
0
  6
Continuous
 62
     7
 48
0.5
370
    -3
100
AcDbCircle
 10
321.4
 20
108.0000000000001
 30
0.0
 40
2.0
100
AcDbArc
 50
90.0
 51
180.0
  0
ARC
  5
14360
330
1F
100
AcDbEntity
  8
0
  6
Continuous
 62
     7
 48
0.5
370
    -3
100
AcDbCircle
 10
337.4
 20
108.0000000000001
 30
0.0
 40
2.0
100
AcDbArc
 50
0.0
 51
90.0
  0
ARC
  5
14361
330
1F
100
AcDbEntity
  8
0
  6
Continuous
 62
     7
 48
0.5
370
    -3
100
AcDbCircle
 10
346.4
 20
121.0000000000001
 30
0.0
 40
6.0
100
AcDbArc
 50
0.0
 51
90.0
  0
LINE
  5
14362
330
1F
100
AcDbEntity
  8
0
  6
Continuous
 62
     7
 48
0.5
370
    -3
100
AcDbLine
 10
284.1000000000001
 20
12.70000000000019
 30
0.0
 11
284.1000000000001
 21
13.3000000000001
 31
0.0
  0
LINE
  5
14363
330
1F
100
AcDbEntity
  8
0
  6
Continuous
 62
     7
 48
0.5
370
    -3
100
AcDbLine
 10
286.7000000000001
 20
15.3000000000001
 30
0.0
 11
286.1000000000001
 21
15.30000000000021
 31
0.0
  0
ARC
  5
14364
330
1F
100
AcDbEntity
  8
0
  6
Continuous
 62
     7
 48
0.5
370
    -3
100
AcDbCircle
 10
288.7000000000001
 20
15.3000000000001
 30
0.0
 40
2.0
100
AcDbArc
 50
180.0
 51
270.0
  0
ARC
  5
14365
330
1F
100
AcDbEntity
  8
0
  6
Continuous
 62
     7
 48
0.5
370
    -3
100
AcDbCircle
 10
288.7000000000001
 20
10.70000000000018
 30
0.0
 40
2.0
100
AcDbArc
 50
90.0
 51
180.0
  0
ARC
  5
14366
330
1F
100
AcDbEntity
  8
0
  6
Continuous
 62
     7
 48
0.5
370
    -3
100
AcDbCircle
 10
284.1000000000001
 20
10.70000000000018
 30
0.0
 40
2.0
100
AcDbArc
 50
0.0
 51
90.0
  0
ARC
  5
14367
330
1F
100
AcDbEntity
  8
0
  6
Continuous
 62
     7
 48
0.5
370
    -3
100
AcDbCircle
 10
284.1000000000001
 20
15.3000000000001
 30
0.0
 40
2.0
100
AcDbArc
 50
270.0
 51
0.0
  0
ARC
  5
14378
330
1F
100
AcDbEntity
  8
0
  6
Continuous
 62
     7
 48
0.5
370
    -3
100
AcDbCircle
 10
340.1
 20
119.3000000000001
 30
0.0
 40
2.0
100
AcDbArc
 50
270.0
 51
0.0
  0
ARC
  5
14379
330
1F
100
AcDbEntity
  8
0
  6
Continuous
 62
     7
 48
0.5
370
    -3
100
AcDbCircle
 10
340.1
 20
114.7000000000002
 30
0.0
 40
2.0
100
AcDbArc
 50
0.0
 51
90.0
  0
ARC
  5
1437A
330
1F
100
AcDbEntity
  8
0
  6
Continuous
 62
     7
 48
0.5
370
    -3
100
AcDbCircle
 10
344.7
 20
114.7000000000002
 30
0.0
 40
2.0
100
AcDbArc
 50
90.0
 51
180.0
  0
ARC
  5
1437B
330
1F
100
AcDbEntity
  8
0
  6
Continuous
 62
     7
 48
0.5
370
    -3
100
AcDbCircle
 10
344.7
 20
119.3000000000001
 30
0.0
 40
2.0
100
AcDbArc
 50
180.0
 51
270.0
  0
LINE
  5
1437C
330
1F
100
AcDbEntity
  8
0
  6
Continuous
 62
     7
 48
0.5
370
    -3
100
AcDbLine
 10
342.7
 20
119.3000000000001
 30
0.0
 11
342.1
 21
119.3000000000002
 31
0.0
  0
LINE
  5
1437D
330
1F
100
AcDbEntity
  8
0
  6
Continuous
 62
     7
 48
0.5
370
    -3
100
AcDbLine
 10
342.7
 20
114.7000000000002
 30
0.0
 11
342.1
 21
114.7
 31
0.0
  0
LINE
  5
1437E
330
1F
100
AcDbEntity
  8
0
  6
Continuous
 62
     7
 48
0.5
370
    -3
100
AcDbLine
 10
340.1000000000001
 20
116.7000000000002
 30
0.0
 11
340.1
 21
117.3000000000001
 31
0.0
  0
LINE
  5
1437F
330
1F
100
AcDbEntity
  8
0
  6
Continuous
 62
     7
 48
0.5
370
    -3
100
AcDbLine
 10
344.7
 20
116.7000000000002
 30
0.0
 11
344.7000000000001
 21
117.3000000000001
 31
0.0
  0
CIRCLE
  5
14389
330
1F
100
AcDbEntity
  8
0
  6
Continuous
 62
     7
 48
0.5
370
    -3
100
AcDbCircle
 10
286.4000000000001
 20
13.00000000000014
 30
0.0
 40
4.0
  0
CIRCLE
  5
1438C
330
1F
100
AcDbEntity
  8
0
  6
Continuous
 62
     7
 48
0.5
370
    -3
100
AcDbCircle
 10
342.4
 20
117.0000000000001
 30
0.0
 40
4.0
  0
CIRCLE
  5
1438D
330
1F
100
AcDbEntity
  8
0
  6
Continuous
 62
     7
 48
0.5
370
    -3
100
AcDbCircle
 10
314.4000000000001
 20
65.00000000000014
 30
0.0
 40
17.25
  0
LINE
  5
1438E
330
1F
100
AcDbEntity
  8
0
  6
CENTER2
 62
     2
 48
0.5
370
    -3
100
AcDbLine
 10
355.4000000000001
 20
65.00000000000014
 30
0.0
 11
273.4000000000001
 21
65.00000000000014
 31
0.0
  0
LINE
  5
14624
330
1F
100
AcDbEntity
  8
0
  6
Continuous
 62
     7
 48
0.5
370
    -3
100
AcDbLine
 10
610.8000000000002
 20
87.00000000000004
 30
0.0
 11
594.8000000000002
 21
87.00000000000004
 31
0.0
  0
ARC
  5
14629
330
1F
100
AcDbEntity
  8
0
  6
Continuous
 62
     7
 48
0.5
370
    -3
100
AcDbCircle
 10
601.8000000000001
 20
55.25000000000004
 30
0.0
 40
4.5
100
AcDbArc
 50
180.0
 51
270.0
  0
LINE
  5
1462B
330
1F
100
AcDbEntity
  8
0
  6
CENTER2
 62
     2
 48
0.5
370
    -3
100
AcDbLine
 10
566.6000000000001
 20
65.00000000000004
 30
0.0
 11
613.8000000000001
 21
65.00000000000004
 31
0.0
  0
ARC
  5
1462E
330
1F
100
AcDbEntity
  8
0
  6
Continuous
 62
     7
 48
0.5
370
    -3
100
AcDbCircle
 10
601.8000000000001
 20
74.75000000000004
 30
0.0
 40
4.5
100
AcDbArc
 50
90.0
 51
180.0
  0
LINE
  5
1462F
330
1F
100
AcDbEntity
  8
0
  6
Continuous
 62
     7
 48
0.5
370
    -3
100
AcDbLine
 10
573.1000000000001
 20
127.0
 30
0.0
 11
610.8000000000002
 21
127.0
 31
0.0
  0
LINE
  5
14632
330
1F
100
AcDbEntity
  8
0
  6
Continuous
 62
     7
 48
0.5
370
    -3
100
AcDbLine
 10
610.8000000000002
 20
79.25000000000004
 30
0.0
 11
601.8000000000001
 21
79.25000000000004
 31
0.0
  0
LINE
  5
14634
330
1F
100
AcDbEntity
  8
0
  6
Continuous
 62
     7
 48
0.5
370
    -3
100
AcDbLine
 10
601.8000000000001
 20
50.75000000000004
 30
0.0
 11
610.8000000000002
 21
50.75000000000004
 31
0.0
  0
LINE
  5
14639
330
1F
100
AcDbEntity
  8
0
  6
Continuous
 62
     7
 48
0.5
370
    -3
100
AcDbLine
 10
610.8000000000002
 20
3.000000000000042
 30
0.0
 11
610.8000000000002
 21
127.0
 31
0.0
  0
LINE
  5
1464D
330
1F
100
AcDbEntity
  8
0
  6
Continuous
 62
     7
 48
0.5
370
    -3
100
AcDbLine
 10
559.6000000000001
 20
121.0
 30
0.0
 11
559.6000000000001
 21
9.000000000000042
 31
0.0
  0
LINE
  5
1464E
330
1F
100
AcDbEntity
  8
0
  6
Continuous
 62
     7
 48
0.5
370
    -3
100
AcDbLine
 10
547.6000000000001
 20
22.00000000000004
 30
0.0
 11
547.6000000000001
 21
108.0
 31
0.0
  0
ARC
  5
14650
330
1F
100
AcDbEntity
  8
0
  6
Continuous
 62
     7
 48
0.5
370
    -3
100
AcDbCircle
 10
573.1000000000001
 20
123.5
 30
0.0
 40
3.5
100
AcDbArc
 50
90.0
 51
180.0
  0
LINE
  5
14651
330
1F
100
AcDbEntity
  8
0
  6
Continuous
 62
     7
 48
0.5
370
    -3
100
AcDbLine
 10
588.8000000000001
 20
81.00000000000004
 30
0.0
 11
588.8000000000001
 21
49.00000000000004
 31
0.0
  0
LINE
  5
14652
330
1F
100
AcDbEntity
  8
0
  6
Continuous
 62
     7
 48
0.5
370
    -3
100
AcDbLine
 10
597.3000000000001
 20
74.75000000000004
 30
0.0
 11
597.3000000000001
 21
55.25000000000004
 31
0.0
  0
ARC
  5
14653
330
1F
100
AcDbEntity
  8
0
  6
Continuous
 62
     7
 48
0.5
370
    -3
100
AcDbCircle
 10
594.8000000000002
 20
81.00000000000004
 30
0.0
 40
6.0
100
AcDbArc
 50
90.0
 51
180.0
  0
LINE
  5
14656
330
1F
100
AcDbEntity
  8
0
  6
Continuous
 62
     7
 48
0.5
370
    -3
100
AcDbLine
 10
526.6000000000001
 20
110.0
 30
0.0
 11
545.6000000000001
 21
110.0
 31
0.0
  0
ARC
  5
14659
330
1F
100
AcDbEntity
  8
0
  6
Continuous
 62
     7
 48
0.5
370
    -3
100
AcDbCircle
 10
553.6000000000001
 20
121.0
 30
0.0
 40
6.0
100
AcDbArc
 50
0.0
 51
90.0
  0
CIRCLE
  5
1465A
330
1F
100
AcDbEntity
  8
0
  6
Continuous
 62
     7
 48
0.5
370
    -3
100
AcDbCircle
 10
544.1000000000001
 20
115.0
 30
0.0
 40
1.649999999999999
  0
ARC
  5
1465E
330
1F
100
AcDbEntity
  8
0
  6
Continuous
 62
     7
 48
0.5
370
    -3
100
AcDbCircle
 10
545.6000000000001
 20
108.0
 30
0.0
 40
2.0
100
AcDbArc
 50
0.0
 51
90.0
  0
LINE
  5
14661
330
1F
100
AcDbEntity
  8
0
  6
Continuous
 62
     7
 48
0.5
370
    -3
100
AcDbLine
 10
533.8000000000001
 20
114.6
 30
0.0
 11
534.4000000000002
 21
114.5999999999999
 31
0.0
  0
ARC
  5
14662
330
1F
100
AcDbEntity
  8
0
  6
Continuous
 62
     7
 48
0.5
370
    -3
100
AcDbCircle
 10
531.7000000000001
 20
119.4
 30
0.0
 40
2.099999999999994
100
AcDbArc
 50
270.0
 51
0.0
  0
LINE
  5
14663
330
1F
100
AcDbEntity
  8
0
  6
Continuous
 62
     7
 48
0.5
370
    -3
100
AcDbLine
 10
533.8000000000001
 20
119.4
 30
0.0
 11
534.4000000000002
 21
119.4000000000001
 31
0.0
  0
LINE
  5
14664
330
1F
100
AcDbEntity
  8
0
  6
Continuous
 62
     7
 48
0.5
370
    -3
100
AcDbLine
 10
531.7000000000001
 20
117.3
 30
0.0
 11
531.7000000000001
 21
116.7000000000001
 31
0.0
  0
LINE
  5
14665
330
1F
100
AcDbEntity
  8
0
  6
Continuous
 62
     7
 48
0.5
370
    -3
100
AcDbLine
 10
536.5000000000001
 20
117.3
 30
0.0
 11
536.5000000000001
 21
116.7000000000001
 31
0.0
  0
ARC
  5
14666
330
1F
100
AcDbEntity
  8
0
  6
Continuous
 62
     7
 48
0.5
370
    -3
100
AcDbCircle
 10
536.5000000000001
 20
119.4
 30
0.0
 40
2.099999999999994
100
AcDbArc
 50
180.0
 51
270.0
  0
ARC
  5
14667
330
1F
100
AcDbEntity
  8
0
  6
Continuous
 62
     7
 48
0.5
370
    -3
100
AcDbCircle
 10
536.5000000000001
 20
114.6
 30
0.0
 40
2.099999999999994
100
AcDbArc
 50
90.0
 51
180.0
  0
ARC
  5
14668
330
1F
100
AcDbEntity
  8
0
  6
Continuous
 62
     7
 48
0.5
370
    -3
100
AcDbCircle
 10
531.7000000000001
 20
114.6
 30
0.0
 40
2.099999999999994
100
AcDbArc
 50
0.0
 51
90.0
  0
ARC
  5
1466A
330
1F
100
AcDbEntity
  8
0
  6
Continuous
 62
     7
 48
0.5
370
    -3
100
AcDbCircle
 10
519.6000000000001
 20
106.75
 30
0.0
 40
5.0
100
AcDbArc
 50
180.0
 51
0.0
  0
CIRCLE
  5
1466C
330
1F
100
AcDbEntity
  8
0
  6
Continuous
 62
     7
 48
0.5
370
    -3
100
AcDbCircle
 10
534.1000000000001
 20
102.5
 30
0.0
 40
2.5
  0
LINE
  5
1466F
330
1F
100
AcDbEntity
  8
0
  6
Continuous
 62
     7
 48
0.5
370
    -3
100
AcDbLine
 10
524.6000000000001
 20
108.0
 30
0.0
 11
524.6000000000001
 21
106.75
 31
0.0
  0
ARC
  5
14670
330
1F
100
AcDbEntity
  8
0
  6
Continuous
 62
     7
 48
0.5
370
    -3
100
AcDbCircle
 10
526.6000000000001
 20
108.0
 30
0.0
 40
2.0
100
AcDbArc
 50
90.0
 51
180.0
  0
LINE
  5
14671
330
1F
100
AcDbEntity
  8
0
  6
Continuous
 62
     7
 48
0.5
370
    -3
100
AcDbLine
 10
514.6000000000001
 20
108.0
 30
0.0
 11
514.6000000000001
 21
106.75
 31
0.0
  0
ARC
  5
14672
330
1F
100
AcDbEntity
  8
0
  6
Continuous
 62
     7
 48
0.5
370
    -3
100
AcDbCircle
 10
512.6000000000001
 20
108.0
 30
0.0
 40
2.0
100
AcDbArc
 50
0.0
 51
90.0
  0
LINE
  5
14676
330
1F
100
AcDbEntity
  8
0
  6
Continuous
 62
     7
 48
0.5
370
    -3
100
AcDbLine
 10
569.6000000000001
 20
123.5
 30
0.0
 11
569.6000000000001
 21
6.500000000000042
 31
0.0
  0
ARC
  5
1467B
330
1F
100
AcDbEntity
  8
0
  6
Continuous
 62
     7
 48
0.5
370
    -3
100
AcDbCircle
 10
594.8000000000002
 20
49.00000000000004
 30
0.0
 40
6.0
100
AcDbArc
 50
180.0
 51
270.0
  0
ARC
  5
14682
330
1F
100
AcDbEntity
  8
0
  6
Continuous
 62
     7
 48
0.5
370
    -3
100
AcDbCircle
 10
553.6000000000001
 20
9.000000000000042
 30
0.0
 40
6.0
100
AcDbArc
 50
270.0
 51
0.0
  0
LINE
  5
14684
330
1F
100
AcDbEntity
  8
0
  6
Continuous
 62
     7
 48
0.5
370
    -3
100
AcDbLine
 10
526.6000000000001
 20
20.00000000000004
 30
0.0
 11
545.6000000000001
 21
20.00000000000004
 31
0.0
  0
ARC
  5
14686
330
1F
100
AcDbEntity
  8
0
  6
Continuous
 62
     7
 48
0.5
370
    -3
100
AcDbCircle
 10
545.6000000000001
 20
22.00000000000004
 30
0.0
 40
2.0
100
AcDbArc
 50
270.0
 51
0.0
  0
CIRCLE
  5
14688
330
1F
100
AcDbEntity
  8
0
  6
Continuous
 62
     7
 48
0.5
370
    -3
100
AcDbCircle
 10
544.1000000000001
 20
15.00000000000004
 30
0.0
 40
1.649999999999999
  0
CIRCLE
  5
1468B
330
1F
100
AcDbEntity
  8
0
  6
Continuous
 62
     7
 48
0.5
370
    -3
100
AcDbCircle
 10
534.1000000000001
 20
27.50000000000004
 30
0.0
 40
2.5
  0
ARC
  5
1468D
330
1F
100
AcDbEntity
  8
0
  6
Continuous
 62
     7
 48
0.5
370
    -3
100
AcDbCircle
 10
519.6000000000001
 20
23.25000000000004
 30
0.0
 40
5.0
100
AcDbArc
 50
0.0
 51
180.0
  0
LINE
  5
1468E
330
1F
100
AcDbEntity
  8
0
  6
Continuous
 62
     7
 48
0.5
370
    -3
100
AcDbLine
 10
524.6000000000001
 20
23.25000000000004
 30
0.0
 11
524.6000000000001
 21
22.00000000000004
 31
0.0
  0
ARC
  5
1468F
330
1F
100
AcDbEntity
  8
0
  6
Continuous
 62
     7
 48
0.5
370
    -3
100
AcDbCircle
 10
526.6000000000001
 20
22.00000000000004
 30
0.0
 40
2.0
100
AcDbArc
 50
180.0
 51
270.0
  0
LINE
  5
14690
330
1F
100
AcDbEntity
  8
0
  6
Continuous
 62
     7
 48
0.5
370
    -3
100
AcDbLine
 10
514.6000000000001
 20
23.25000000000004
 30
0.0
 11
514.6000000000001
 21
22.00000000000004
 31
0.0
  0
ARC
  5
14691
330
1F
100
AcDbEntity
  8
0
  6
Continuous
 62
     7
 48
0.5
370
    -3
100
AcDbCircle
 10
512.6000000000001
 20
22.00000000000004
 30
0.0
 40
2.0
100
AcDbArc
 50
270.0
 51
0.0
  0
LINE
  5
14694
330
1F
100
AcDbEntity
  8
0
  6
Continuous
 62
     7
 48
0.5
370
    -3
100
AcDbLine
 10
445.6000000000001
 20
22.00000000000016
 30
0.0
 11
445.6000000000001
 21
108.0000000000001
 31
0.0
  0
LINE
  5
14695
330
1F
100
AcDbEntity
  8
0
  6
Continuous
 62
     7
 48
0.5
370
    -3
100
AcDbLine
 10
433.6000000000001
 20
121.0000000000001
 30
0.0
 11
433.6000000000001
 21
9.000000000000156
 31
0.0
  0
LINE
  5
14697
330
1F
100
AcDbEntity
  8
0
  6
Continuous
 62
     7
 48
0.5
370
    -3
100
AcDbLine
 10
553.6000000000001
 20
127.0
 30
0.0
 11
439.6000000000001
 21
127.0000000000001
 31
0.0
  0
LINE
  5
14698
330
1F
100
AcDbEntity
  8
0
  6
Continuous
 62
     7
 48
0.5
370
    -3
100
AcDbLine
 10
496.6000000000001
 20
91.00000000000015
 30
0.0
 11
496.6000000000001
 21
85.00000000000015
 31
0.0
  0
ARC
  5
1469A
330
1F
100
AcDbEntity
  8
0
  6
Continuous
 62
     7
 48
0.5
370
    -3
100
AcDbCircle
 10
473.6000000000001
 20
106.7500000000001
 30
0.0
 40
5.0
100
AcDbArc
 50
180.0
 51
0.0
  0
LINE
  5
1469C
330
1F
100
AcDbEntity
  8
0
  6
Continuous
 62
     7
 48
0.5
370
    -3
100
AcDbLine
 10
480.6000000000001
 20
110.0000000000001
 30
0.0
 11
512.6000000000001
 21
110.0
 31
0.0
  0
LINE
  5
1469D
330
1F
100
AcDbEntity
  8
0
  6
Continuous
 62
     7
 48
0.5
370
    -3
100
AcDbLine
 10
499.1000000000001
 20
98.00000000000016
 30
0.0
 11
496.6000000000001
 21
102.0000000000001
 31
0.0
  0
LINE
  5
1469E
330
1F
100
AcDbEntity
  8
0
  6
Continuous
 62
     7
 48
0.5
370
    -3
100
AcDbLine
 10
496.6000000000001
 20
102.0000000000001
 30
0.0
 11
494.1000000000001
 21
98.00000000000016
 31
0.0
  0
LINE
  5
146A1
330
1F
100
AcDbEntity
  8
0
  6
Continuous
 62
     7
 48
0.5
370
    -3
100
AcDbLine
 10
493.1000000000001
 20
106.7500000000001
 30
0.0
 11
493.1000000000001
 21
106.7500000000001
 31
0.0
  0
LINE
  5
146A2
330
1F
100
AcDbEntity
  8
0
  6
Continuous
 62
     7
 48
0.5
370
    -3
100
AcDbLine
 10
495.6000000000001
 20
104.2500000000001
 30
0.0
 11
497.6000000000001
 21
104.2500000000001
 31
0.0
  0
ARC
  5
146A3
330
1F
100
AcDbEntity
  8
0
  6
Continuous
 62
     7
 48
0.5
370
    -3
100
AcDbCircle
 10
495.6000000000001
 20
106.7500000000001
 30
0.0
 40
2.5
100
AcDbArc
 50
90.0
 51
270.0
  0
ARC
  5
146A4
330
1F
100
AcDbEntity
  8
0
  6
Continuous
 62
     7
 48
0.5
370
    -3
100
AcDbCircle
 10
497.6000000000001
 20
106.7500000000001
 30
0.0
 40
2.5
100
AcDbArc
 50
270.0
 51
90.0
  0
LINE
  5
146A6
330
1F
100
AcDbEntity
  8
0
  6
Continuous
 62
     7
 48
0.5
370
    -3
100
AcDbLine
 10
500.1000000000001
 20
106.7500000000001
 30
0.0
 11
500.1000000000001
 21
106.7500000000001
 31
0.0
  0
LINE
  5
146A8
330
1F
100
AcDbEntity
  8
0
  6
Continuous
 62
     7
 48
0.5
370
    -3
100
AcDbLine
 10
497.6000000000001
 20
98.00000000000016
 30
0.0
 11
499.1000000000001
 21
98.00000000000016
 31
0.0
  0
LINE
  5
146A9
330
1F
100
AcDbEntity
  8
0
  6
Continuous
 62
     7
 48
0.5
370
    -3
100
AcDbLine
 10
497.6000000000001
 20
92.00000000000015
 30
0.0
 11
497.6000000000001
 21
98.00000000000016
 31
0.0
  0
LINE
  5
146AA
330
1F
100
AcDbEntity
  8
0
  6
Continuous
 62
     7
 48
0.5
370
    -3
100
AcDbLine
 10
495.6000000000001
 20
92.00000000000015
 30
0.0
 11
497.6000000000001
 21
92.00000000000015
 31
0.0
  0
LINE
  5
146AB
330
1F
100
AcDbEntity
  8
0
  6
Continuous
 62
     7
 48
0.5
370
    -3
100
AcDbLine
 10
495.6000000000001
 20
98.00000000000016
 30
0.0
 11
495.6000000000001
 21
92.00000000000015
 31
0.0
  0
LINE
  5
146AC
330
1F
100
AcDbEntity
  8
0
  6
Continuous
 62
     7
 48
0.5
370
    -3
100
AcDbLine
 10
494.1000000000001
 20
98.00000000000016
 30
0.0
 11
495.6000000000001
 21
98.00000000000016
 31
0.0
  0
ARC
  5
146AD
330
1F
100
AcDbEntity
  8
0
  6
Continuous
 62
     7
 48
0.5
370
    -3
100
AcDbCircle
 10
480.6000000000001
 20
108.0000000000001
 30
0.0
 40
2.0
100
AcDbArc
 50
90.0
 51
180.0
  0
LINE
  5
146AE
330
1F
100
AcDbEntity
  8
0
  6
Continuous
 62
     7
 48
0.5
370
    -3
100
AcDbLine
 10
478.6000000000001
 20
108.0000000000001
 30
0.0
 11
478.6000000000001
 21
106.7500000000001
 31
0.0
  0
CIRCLE
  5
146B1
330
1F
100
AcDbEntity
  8
0
  6
Continuous
 62
     7
 48
0.5
370
    -3
100
AcDbCircle
 10
449.1000000000001
 20
115.0000000000001
 30
0.0
 40
1.649999999999999
  0
CIRCLE
  5
146B3
330
1F
100
AcDbEntity
  8
0
  6
Continuous
 62
     7
 48
0.5
370
    -3
100
AcDbCircle
 10
459.1000000000001
 20
102.5000000000001
 30
0.0
 40
2.5
  0
LINE
  5
146B4
330
1F
100
AcDbEntity
  8
0
  6
Continuous
 62
     7
 48
0.5
370
    -3
100
AcDbLine
 10
466.6000000000001
 20
110.0000000000001
 30
0.0
 11
447.6000000000001
 21
110.0000000000001
 31
0.0
  0
ARC
  5
146B5
330
1F
100
AcDbEntity
  8
0
  6
Continuous
 62
     7
 48
0.5
370
    -3
100
AcDbCircle
 10
466.6000000000001
 20
108.0000000000001
 30
0.0
 40
2.0
100
AcDbArc
 50
0.0
 51
90.0
  0
LINE
  5
146B6
330
1F
100
AcDbEntity
  8
0
  6
Continuous
 62
     7
 48
0.5
370
    -3
100
AcDbLine
 10
468.6000000000001
 20
108.0000000000001
 30
0.0
 11
468.6000000000001
 21
106.7500000000001
 31
0.0
  0
ARC
  5
146B8
330
1F
100
AcDbEntity
  8
0
  6
Continuous
 62
     7
 48
0.5
370
    -3
100
AcDbCircle
 10
447.6000000000001
 20
108.0000000000001
 30
0.0
 40
2.0
100
AcDbArc
 50
90.0
 51
180.0
  0
LINE
  5
146B9
330
1F
100
AcDbEntity
  8
0
  6
Continuous
 62
     7
 48
0.5
370
    -3
100
AcDbLine
 10
494.1000000000001
 20
85.00000000000015
 30
0.0
 11
499.1000000000001
 21
85.00000000000015
 31
0.0
  0
LINE
  5
146BA
330
1F
100
AcDbEntity
  8
0
  6
Continuous
 62
     7
 48
0.5
370
    -3
100
AcDbLine
 10
498.6000000000001
 20
88.50000000000015
 30
0.0
 11
496.6000000000001
 21
88.50000000000015
 31
0.0
  0
ARC
  5
146BB
330
1F
100
AcDbEntity
  8
0
  6
Continuous
 62
     7
 48
0.5
370
    -3
100
AcDbCircle
 10
439.6000000000001
 20
121.0000000000001
 30
0.0
 40
6.0
100
AcDbArc
 50
90.0
 51
180.0
  0
LINE
  5
146BD
330
1F
100
AcDbEntity
  8
0
  6
Continuous
 62
     7
 48
0.5
370
    -3
100
AcDbLine
 10
439.6000000000001
 20
3.000000000000156
 30
0.0
 11
553.6000000000001
 21
3.000000000000042
 31
0.0
  0
ARC
  5
146C1
330
1F
100
AcDbEntity
  8
0
  6
Continuous
 62
     7
 48
0.5
370
    -3
100
AcDbCircle
 10
473.6000000000001
 20
23.25000000000016
 30
0.0
 40
5.0
100
AcDbArc
 50
0.0
 51
180.0
  0
LINE
  5
146C3
330
1F
100
AcDbEntity
  8
0
  6
Continuous
 62
     7
 48
0.5
370
    -3
100
AcDbLine
 10
480.6000000000001
 20
20.00000000000015
 30
0.0
 11
512.6000000000001
 21
20.00000000000004
 31
0.0
  0
LINE
  5
146C6
330
1F
100
AcDbEntity
  8
0
  6
Continuous
 62
     7
 48
0.5
370
    -3
100
AcDbLine
 10
500.1000000000001
 20
23.25000000000016
 30
0.0
 11
500.1000000000001
 21
23.25000000000016
 31
0.0
  0
ARC
  5
146C8
330
1F
100
AcDbEntity
  8
0
  6
Continuous
 62
     7
 48
0.5
370
    -3
100
AcDbCircle
 10
497.6000000000001
 20
23.25000000000016
 30
0.0
 40
2.5
100
AcDbArc
 50
270.0
 51
90.0
  0
ARC
  5
146C9
330
1F
100
AcDbEntity
  8
0
  6
Continuous
 62
     7
 48
0.5
370
    -3
100
AcDbCircle
 10
495.6000000000001
 20
23.25000000000016
 30
0.0
 40
2.5
100
AcDbArc
 50
90.0
 51
270.0
  0
LINE
  5
146CA
330
1F
100
AcDbEntity
  8
0
  6
Continuous
 62
     7
 48
0.5
370
    -3
100
AcDbLine
 10
495.6000000000001
 20
25.75000000000016
 30
0.0
 11
497.6000000000001
 21
25.75000000000016
 31
0.0
  0
LINE
  5
146CB
330
1F
100
AcDbEntity
  8
0
  6
Continuous
 62
     7
 48
0.5
370
    -3
100
AcDbLine
 10
493.1000000000001
 20
23.25000000000016
 30
0.0
 11
493.1000000000001
 21
23.25000000000016
 31
0.0
  0
LINE
  5
146CC
330
1F
100
AcDbEntity
  8
0
  6
Continuous
 62
     7
 48
0.5
370
    -3
100
AcDbLine
 10
497.6000000000001
 20
20.75000000000016
 30
0.0
 11
495.6000000000001
 21
20.75000000000016
 31
0.0
  0
ARC
  5
146CD
330
1F
100
AcDbEntity
  8
0
  6
Continuous
 62
     7
 48
0.5
370
    -3
100
AcDbCircle
 10
480.6000000000001
 20
22.00000000000016
 30
0.0
 40
2.0
100
AcDbArc
 50
180.0
 51
270.0
  0
LINE
  5
146CE
330
1F
100
AcDbEntity
  8
0
  6
Continuous
 62
     7
 48
0.5
370
    -3
100
AcDbLine
 10
478.6000000000001
 20
23.25000000000016
 30
0.0
 11
478.6000000000001
 21
22.00000000000016
 31
0.0
  0
CIRCLE
  5
146D1
330
1F
100
AcDbEntity
  8
0
  6
Continuous
 62
     7
 48
0.5
370
    -3
100
AcDbCircle
 10
459.1000000000001
 20
27.50000000000016
 30
0.0
 40
2.5
  0
ARC
  5
146D3
330
1F
100
AcDbEntity
  8
0
  6
Continuous
 62
     7
 48
0.5
370
    -3
100
AcDbCircle
 10
461.5000000000001
 20
15.40000000000013
 30
0.0
 40
2.099999999999994
100
AcDbArc
 50
180.0
 51
270.0
  0
ARC
  5
146D4
330
1F
100
AcDbEntity
  8
0
  6
Continuous
 62
     7
 48
0.5
370
    -3
100
AcDbCircle
 10
461.5000000000001
 20
10.60000000000018
 30
0.0
 40
2.099999999999994
100
AcDbArc
 50
90.0
 51
180.0
  0
LINE
  5
146D7
330
1F
100
AcDbEntity
  8
0
  6
Continuous
 62
     7
 48
0.5
370
    -3
100
AcDbLine
 10
466.6000000000001
 20
20.00000000000015
 30
0.0
 11
447.6000000000001
 21
20.00000000000015
 31
0.0
  0
ARC
  5
146DA
330
1F
100
AcDbEntity
  8
0
  6
Continuous
 62
     7
 48
0.5
370
    -3
100
AcDbCircle
 10
466.6000000000001
 20
22.00000000000016
 30
0.0
 40
2.0
100
AcDbArc
 50
270.0
 51
0.0
  0
LINE
  5
146DB
330
1F
100
AcDbEntity
  8
0
  6
Continuous
 62
     7
 48
0.5
370
    -3
100
AcDbLine
 10
468.6000000000001
 20
23.25000000000016
 30
0.0
 11
468.6000000000001
 21
22.00000000000016
 31
0.0
  0
LINE
  5
146DC
330
1F
100
AcDbEntity
  8
0
  6
Continuous
 62
     7
 48
0.5
370
    -3
100
AcDbLine
 10
461.5000000000001
 20
13.30000000000022
 30
0.0
 11
461.5000000000001
 21
12.7000000000002
 31
0.0
  0
ARC
  5
146E0
330
1F
100
AcDbEntity
  8
0
  6
Continuous
 62
     7
 48
0.5
370
    -3
100
AcDbCircle
 10
447.6000000000001
 20
22.00000000000016
 30
0.0
 40
2.0
100
AcDbArc
 50
180.0
 51
270.0
  0
LINE
  5
146E1
330
1F
100
AcDbEntity
  8
0
  6
Continuous
 62
     7
 48
0.5
370
    -3
100
AcDbLine
 10
458.8000000000001
 20
10.60000000000018
 30
0.0
 11
459.4000000000002
 21
10.60000000000018
 31
0.0
  0
ARC
  5
146E2
330
1F
100
AcDbEntity
  8
0
  6
Continuous
 62
     7
 48
0.5
370
    -3
100
AcDbCircle
 10
456.7000000000001
 20
15.40000000000013
 30
0.0
 40
2.099999999999994
100
AcDbArc
 50
270.0
 51
0.0
  0
LINE
  5
146E3
330
1F
100
AcDbEntity
  8
0
  6
Continuous
 62
     7
 48
0.5
370
    -3
100
AcDbLine
 10
458.8000000000001
 20
15.40000000000013
 30
0.0
 11
459.4000000000002
 21
15.40000000000025
 31
0.0
  0
LINE
  5
146E4
330
1F
100
AcDbEntity
  8
0
  6
Continuous
 62
     7
 48
0.5
370
    -3
100
AcDbLine
 10
456.7000000000001
 20
13.30000000000022
 30
0.0
 11
456.7000000000001
 21
12.7000000000002
 31
0.0
  0
ARC
  5
146E5
330
1F
100
AcDbEntity
  8
0
  6
Continuous
 62
     7
 48
0.5
370
    -3
100
AcDbCircle
 10
456.7000000000001
 20
10.60000000000018
 30
0.0
 40
2.099999999999994
100
AcDbArc
 50
0.0
 51
90.0
  0
CIRCLE
  5
146E6
330
1F
100
AcDbEntity
  8
0
  6
Continuous
 62
     7
 48
0.5
370
    -3
100
AcDbCircle
 10
449.1000000000001
 20
15.00000000000015
 30
0.0
 40
1.649999999999999
  0
ARC
  5
146E8
330
1F
100
AcDbEntity
  8
0
  6
Continuous
 62
     7
 48
0.5
370
    -3
100
AcDbCircle
 10
439.6000000000001
 20
9.000000000000156
 30
0.0
 40
6.0
100
AcDbArc
 50
180.0
 51
270.0
  0
CIRCLE
  5
14749
330
1F
100
AcDbEntity
  8
0
  6
Continuous
 62
     7
 48
0.5
370
    -3
100
AcDbCircle
 10
534.1000000000001
 20
117.0
 30
0.0
 40
4.0
  0
CIRCLE
  5
1474C
330
1F
100
AcDbEntity
  8
0
  6
Continuous
 62
     7
 48
0.5
370
    -3
100
AcDbCircle
 10
459.1000000000001
 20
13.00000000000016
 30
0.0
 40
4.0
  0
LINE
  5
149E8
330
1F
100
AcDbEntity
  8
0
  6
Continuous
 62
     7
 48
0.5
370
    -3
100
AcDbLine
 10
610.8000000000002
 20
43.00000000000004
 30
0.0
 11
594.8000000000002
 21
43.00000000000004
 31
0.0
  0
LINE
  5
149E9
330
1F
100
AcDbEntity
  8
0
  6
Continuous
 62
     7
 48
0.5
370
    -3
100
AcDbLine
 10
573.1000000000001
 20
3.000000000000042
 30
0.0
 11
610.8000000000002
 21
3.000000000000042
 31
0.0
  0
ARC
  5
149EA
330
1F
100
AcDbEntity
  8
0
  6
Continuous
 62
     7
 48
0.5
370
    -3
100
AcDbCircle
 10
573.1000000000001
 20
6.500000000000042
 30
0.0
 40
3.5
100
AcDbArc
 50
180.0
 51
270.0
  0
CIRCLE
  5
14A4C
330
1F
100
AcDbEntity
  8
0
  6
Continuous
 62
     7
 48
0.5
370
    -3
100
AcDbCircle
 10
496.6000000000001
 20
65.00000000000015
 30
0.0
 40
17.25
  0
LINE
  5
14A52
330
1F
100
AcDbEntity
  8
0
  6
Continuous
 62
     7
 48
0.5
370
    -3
100
AcDbLine
 10
495.6000000000001
 20
109.2500000000001
 30
0.0
 11
497.6000000000001
 21
109.2500000000001
 31
0.0
  0
LINE
  5
14A56
330
1F
100
AcDbEntity
  8
0
  6
CENTER2
 62
     2
 48
0.5
370
    -3
100
AcDbLine
 10
496.6000000000001
 20
130.0000000000001
 30
0.0
 11
496.6000000000001
 21
0.0000000000000995
 31
0.0
  0
LINE
  5
14A6D
330
1F
100
AcDbEntity
  8
0
  6
CENTER2
 62
     2
 48
0.5
370
    -3
100
AcDbLine
 10
430.6000000000001
 20
65.00000000000015
 30
0.0
 11
562.6000000000001
 21
65.00000000000004
 31
0.0
  0
ARC
  5
14A6E
330
1F
100
AcDbEntity
  8
0
  6
Continuous
 62
     7
 48
0.5
370
    -3
100
AcDbCircle
 10
506.3500000000002
 20
169.2000000000002
 30
0.0
 40
4.5
100
AcDbArc
 50
270.0
 51
0.0
  0
ARC
  5
14A6F
330
1F
100
AcDbEntity
  8
0
  6
Continuous
 62
     7
 48
0.5
370
    -3
100
AcDbCircle
 10
512.6000000000001
 20
162.2000000000002
 30
0.0
 40
6.0
100
AcDbArc
 50
270.0
 51
0.0
  0
LINE
  5
14A70
330
1F
100
AcDbEntity
  8
0
  6
Continuous
 62
     7
 48
0.5
370
    -3
100
AcDbLine
 10
559.6000000000001
 20
140.5000000000002
 30
0.0
 11
559.6000000000001
 21
178.2000000000002
 31
0.0
  0
ARC
  5
14A71
330
1F
100
AcDbEntity
  8
0
  6
Continuous
 62
     7
 48
0.5
370
    -3
100
AcDbCircle
 10
556.1000000000001
 20
140.5000000000002
 30
0.0
 40
3.5
100
AcDbArc
 50
270.0
 51
0.0
  0
LINE
  5
14A72
330
1F
100
AcDbEntity
  8
0
  6
Continuous
 62
     7
 48
0.5
370
    -3
100
AcDbLine
 10
510.8500000000002
 20
178.2000000000001
 30
0.0
 11
510.8500000000002
 21
169.2000000000002
 31
0.0
  0
LINE
  5
14A73
330
1F
100
AcDbEntity
  8
0
  6
Continuous
 62
     7
 48
0.5
370
    -3
100
AcDbLine
 10
518.6000000000001
 20
178.2000000000001
 30
0.0
 11
518.6000000000001
 21
162.2000000000002
 31
0.0
  0
LINE
  5
14A74
330
1F
100
AcDbEntity
  8
0
  6
Continuous
 62
     7
 48
0.5
370
    -3
100
AcDbLine
 10
556.1000000000001
 20
137.0000000000002
 30
0.0
 11
437.1000000000002
 21
137.0
 31
0.0
  0
LINE
  5
14A75
330
1F
100
AcDbEntity
  8
0
  6
Continuous
 62
     7
 48
0.5
370
    -3
100
AcDbLine
 10
433.6000000000002
 20
178.2000000000001
 30
0.0
 11
559.6000000000001
 21
178.2000000000002
 31
0.0
  0
LINE
  5
14A76
330
1F
100
AcDbEntity
  8
0
  6
CENTER2
 62
     2
 48
0.5
370
    -3
100
AcDbLine
 10
496.6000000000001
 20
134.0000000000001
 30
0.0
 11
496.6000000000001
 21
181.2000000000001
 31
0.0
  0
ARC
  5
14A77
330
1F
100
AcDbEntity
  8
0
  6
Continuous
 62
     7
 48
0.5
370
    -3
100
AcDbCircle
 10
480.6000000000001
 20
162.2000000000001
 30
0.0
 40
6.0
100
AcDbArc
 50
180.0
 51
270.0
  0
LINE
  5
14A78
330
1F
100
AcDbEntity
  8
0
  6
Continuous
 62
     7
 48
0.5
370
    -3
100
AcDbLine
 10
480.6000000000001
 20
156.2000000000001
 30
0.0
 11
512.6000000000001
 21
156.2000000000002
 31
0.0
  0
LINE
  5
14A79
330
1F
100
AcDbEntity
  8
0
  6
Continuous
 62
     7
 48
0.5
370
    -3
100
AcDbLine
 10
486.8500000000001
 20
164.7000000000001
 30
0.0
 11
506.3500000000002
 21
164.7000000000002
 31
0.0
  0
LINE
  5
14A7A
330
1F
100
AcDbEntity
  8
0
  6
Continuous
 62
     7
 48
0.5
370
    -3
100
AcDbLine
 10
482.3500000000001
 20
178.2000000000001
 30
0.0
 11
482.3500000000001
 21
169.2000000000001
 31
0.0
  0
ARC
  5
14A7B
330
1F
100
AcDbEntity
  8
0
  6
Continuous
 62
     7
 48
0.5
370
    -3
100
AcDbCircle
 10
486.8500000000001
 20
169.2000000000001
 30
0.0
 40
4.5
100
AcDbArc
 50
180.0
 51
270.0
  0
LINE
  5
14A7C
330
1F
100
AcDbEntity
  8
0
  6
Continuous
 62
     7
 48
0.5
370
    -3
100
AcDbLine
 10
474.6000000000002
 20
178.2000000000001
 30
0.0
 11
474.6000000000002
 21
162.2000000000001
 31
0.0
  0
LINE
  5
14A7D
330
1F
100
AcDbEntity
  8
0
  6
Continuous
 62
     7
 48
0.5
370
    -3
100
AcDbLine
 10
433.6000000000002
 20
140.5
 30
0.0
 11
433.6000000000002
 21
178.2000000000001
 31
0.0
  0
ARC
  5
14A7E
330
1F
100
AcDbEntity
  8
0
  6
Continuous
 62
     7
 48
0.5
370
    -3
100
AcDbCircle
 10
437.1000000000002
 20
140.5
 30
0.0
 40
3.5
100
AcDbArc
 50
180.0
 51
270.0
  0
LINE
  5
14AA9
330
1F
100
AcDbEntity
  8
0
  6
Continuous
 62
     7
 48
0.5
370
    -3
100
AcDbLine
 10
974.0000000000001
 20
120.9999999999998
 30
0.0
 11
974.0000000000001
 21
8.999999999999786
 31
0.0
  0
LINE
  5
14AAA
330
1F
100
AcDbEntity
  8
0
  6
Continuous
 62
     7
 48
0.5
370
    -3
100
AcDbLine
 10
962.0000000000002
 20
21.99999999999979
 30
0.0
 11
962.0000000000002
 21
107.9999999999998
 31
0.0
  0
LINE
  5
14AAC
330
1F
100
AcDbEntity
  8
0
  6
Continuous
 62
     7
 48
0.5
370
    -3
100
AcDbLine
 10
941.0000000000001
 20
109.9999999999998
 30
0.0
 11
960.0000000000003
 21
109.9999999999998
 31
0.0
  0
ARC
  5
14AAD
330
1F
100
AcDbEntity
  8
0
  6
Continuous
 62
     7
 48
0.5
370
    -3
100
AcDbCircle
 10
968.0000000000003
 20
120.9999999999998
 30
0.0
 40
6.0
100
AcDbArc
 50
0.0
 51
90.0
  0
CIRCLE
  5
14AAE
330
1F
100
AcDbEntity
  8
0
  6
Continuous
 62
     7
 48
0.5
370
    -3
100
AcDbCircle
 10
958.5000000000002
 20
114.9999999999998
 30
0.0
 40
1.649999999999999
  0
ARC
  5
14AAF
330
1F
100
AcDbEntity
  8
0
  6
Continuous
 62
     7
 48
0.5
370
    -3
100
AcDbCircle
 10
960.0000000000003
 20
107.9999999999998
 30
0.0
 40
2.0
100
AcDbArc
 50
0.0
 51
90.0
  0
LINE
  5
14AB0
330
1F
100
AcDbEntity
  8
0
  6
Continuous
 62
     7
 48
0.5
370
    -3
100
AcDbLine
 10
948.2000000000002
 20
114.5999999999998
 30
0.0
 11
948.8000000000004
 21
114.5999999999997
 31
0.0
  0
ARC
  5
14AB1
330
1F
100
AcDbEntity
  8
0
  6
Continuous
 62
     7
 48
0.5
370
    -3
100
AcDbCircle
 10
946.1000000000002
 20
119.3999999999997
 30
0.0
 40
2.099999999999994
100
AcDbArc
 50
270.0
 51
0.0
  0
LINE
  5
14AB2
330
1F
100
AcDbEntity
  8
0
  6
Continuous
 62
     7
 48
0.5
370
    -3
100
AcDbLine
 10
948.2000000000002
 20
119.3999999999997
 30
0.0
 11
948.8000000000004
 21
119.3999999999999
 31
0.0
  0
LINE
  5
14AB3
330
1F
100
AcDbEntity
  8
0
  6
Continuous
 62
     7
 48
0.5
370
    -3
100
AcDbLine
 10
946.1000000000002
 20
117.2999999999997
 30
0.0
 11
946.1000000000002
 21
116.6999999999998
 31
0.0
  0
LINE
  5
14AB4
330
1F
100
AcDbEntity
  8
0
  6
Continuous
 62
     7
 48
0.5
370
    -3
100
AcDbLine
 10
950.9000000000003
 20
117.2999999999997
 30
0.0
 11
950.9000000000003
 21
116.6999999999998
 31
0.0
  0
ARC
  5
14AB5
330
1F
100
AcDbEntity
  8
0
  6
Continuous
 62
     7
 48
0.5
370
    -3
100
AcDbCircle
 10
950.9000000000003
 20
119.3999999999997
 30
0.0
 40
2.099999999999994
100
AcDbArc
 50
180.0
 51
270.0
  0
ARC
  5
14AB6
330
1F
100
AcDbEntity
  8
0
  6
Continuous
 62
     7
 48
0.5
370
    -3
100
AcDbCircle
 10
950.9000000000003
 20
114.5999999999998
 30
0.0
 40
2.099999999999994
100
AcDbArc
 50
90.0
 51
180.0
  0
ARC
  5
14AB7
330
1F
100
AcDbEntity
  8
0
  6
Continuous
 62
     7
 48
0.5
370
    -3
100
AcDbCircle
 10
946.1000000000002
 20
114.5999999999998
 30
0.0
 40
2.099999999999994
100
AcDbArc
 50
0.0
 51
90.0
  0
ARC
  5
14AB8
330
1F
100
AcDbEntity
  8
0
  6
Continuous
 62
     7
 48
0.5
370
    -3
100
AcDbCircle
 10
934.0000000000001
 20
106.7499999999998
 30
0.0
 40
5.0
100
AcDbArc
 50
180.0
 51
0.0
  0
CIRCLE
  5
14AB9
330
1F
100
AcDbEntity
  8
0
  6
Continuous
 62
     7
 48
0.5
370
    -3
100
AcDbCircle
 10
948.5000000000002
 20
102.4999999999998
 30
0.0
 40
2.5
  0
LINE
  5
14ABA
330
1F
100
AcDbEntity
  8
0
  6
Continuous
 62
     7
 48
0.5
370
    -3
100
AcDbLine
 10
939.0000000000002
 20
107.9999999999998
 30
0.0
 11
939.0000000000002
 21
106.7499999999998
 31
0.0
  0
ARC
  5
14ABB
330
1F
100
AcDbEntity
  8
0
  6
Continuous
 62
     7
 48
0.5
370
    -3
100
AcDbCircle
 10
941.0000000000001
 20
107.9999999999998
 30
0.0
 40
2.0
100
AcDbArc
 50
90.0
 51
180.0
  0
LINE
  5
14ABC
330
1F
100
AcDbEntity
  8
0
  6
Continuous
 62
     7
 48
0.5
370
    -3
100
AcDbLine
 10
929.0000000000002
 20
107.9999999999998
 30
0.0
 11
929.0000000000002
 21
106.7499999999998
 31
0.0
  0
ARC
  5
14ABD
330
1F
100
AcDbEntity
  8
0
  6
Continuous
 62
     7
 48
0.5
370
    -3
100
AcDbCircle
 10
927.0000000000003
 20
107.9999999999998
 30
0.0
 40
2.0
100
AcDbArc
 50
0.0
 51
90.0
  0
ARC
  5
14ABF
330
1F
100
AcDbEntity
  8
0
  6
Continuous
 62
     7
 48
0.5
370
    -3
100
AcDbCircle
 10
968.0000000000003
 20
8.999999999999786
 30
0.0
 40
6.0
100
AcDbArc
 50
270.0
 51
0.0
  0
LINE
  5
14AC0
330
1F
100
AcDbEntity
  8
0
  6
Continuous
 62
     7
 48
0.5
370
    -3
100
AcDbLine
 10
941.0000000000001
 20
19.99999999999978
 30
0.0
 11
960.0000000000003
 21
19.99999999999978
 31
0.0
  0
ARC
  5
14AC1
330
1F
100
AcDbEntity
  8
0
  6
Continuous
 62
     7
 48
0.5
370
    -3
100
AcDbCircle
 10
960.0000000000003
 20
21.99999999999979
 30
0.0
 40
2.0
100
AcDbArc
 50
270.0
 51
0.0
  0
CIRCLE
  5
14AC2
330
1F
100
AcDbEntity
  8
0
  6
Continuous
 62
     7
 48
0.5
370
    -3
100
AcDbCircle
 10
958.5000000000002
 20
14.99999999999978
 30
0.0
 40
1.649999999999999
  0
CIRCLE
  5
14AC3
330
1F
100
AcDbEntity
  8
0
  6
Continuous
 62
     7
 48
0.5
370
    -3
100
AcDbCircle
 10
948.5000000000002
 20
27.49999999999979
 30
0.0
 40
2.5
  0
ARC
  5
14AC4
330
1F
100
AcDbEntity
  8
0
  6
Continuous
 62
     7
 48
0.5
370
    -3
100
AcDbCircle
 10
934.0000000000001
 20
23.24999999999979
 30
0.0
 40
5.0
100
AcDbArc
 50
0.0
 51
180.0
  0
LINE
  5
14AC5
330
1F
100
AcDbEntity
  8
0
  6
Continuous
 62
     7
 48
0.5
370
    -3
100
AcDbLine
 10
939.0000000000002
 20
23.24999999999979
 30
0.0
 11
939.0000000000002
 21
21.99999999999979
 31
0.0
  0
ARC
  5
14AC6
330
1F
100
AcDbEntity
  8
0
  6
Continuous
 62
     7
 48
0.5
370
    -3
100
AcDbCircle
 10
941.0000000000001
 20
21.99999999999979
 30
0.0
 40
2.0
100
AcDbArc
 50
180.0
 51
270.0
  0
LINE
  5
14AC7
330
1F
100
AcDbEntity
  8
0
  6
Continuous
 62
     7
 48
0.5
370
    -3
100
AcDbLine
 10
929.0000000000002
 20
23.24999999999979
 30
0.0
 11
929.0000000000002
 21
21.99999999999979
 31
0.0
  0
ARC
  5
14AC8
330
1F
100
AcDbEntity
  8
0
  6
Continuous
 62
     7
 48
0.5
370
    -3
100
AcDbCircle
 10
927.0000000000003
 20
21.99999999999979
 30
0.0
 40
2.0
100
AcDbArc
 50
270.0
 51
0.0
  0
LINE
  5
14AC9
330
1F
100
AcDbEntity
  8
0
  6
Continuous
 62
     7
 48
0.5
370
    -3
100
AcDbLine
 10
860.0000000000003
 20
21.9999999999999
 30
0.0
 11
860.0000000000003
 21
107.9999999999999
 31
0.0
  0
LINE
  5
14ACA
330
1F
100
AcDbEntity
  8
0
  6
Continuous
 62
     7
 48
0.5
370
    -3
100
AcDbLine
 10
848.0000000000002
 20
120.9999999999999
 30
0.0
 11
848.0000000000002
 21
8.9999999999999
 31
0.0
  0
LINE
  5
14ACB
330
1F
100
AcDbEntity
  8
0
  6
Continuous
 62
     7
 48
0.5
370
    -3
100
AcDbLine
 10
968.0000000000003
 20
126.9999999999998
 30
0.0
 11
854.0000000000002
 21
126.9999999999999
 31
0.0
  0
LINE
  5
14ACC
330
1F
100
AcDbEntity
  8
0
  6
Continuous
 62
     7
 48
0.5
370
    -3
100
AcDbLine
 10
911.0000000000002
 20
90.9999999999999
 30
0.0
 11
911.0000000000002
 21
84.99999999999991
 31
0.0
  0
ARC
  5
14ACD
330
1F
100
AcDbEntity
  8
0
  6
Continuous
 62
     7
 48
0.5
370
    -3
100
AcDbCircle
 10
888.0000000000002
 20
106.7499999999999
 30
0.0
 40
5.0
100
AcDbArc
 50
180.0
 51
0.0
  0
LINE
  5
14ACE
330
1F
100
AcDbEntity
  8
0
  6
Continuous
 62
     7
 48
0.5
370
    -3
100
AcDbLine
 10
895.0000000000002
 20
109.9999999999999
 30
0.0
 11
927.0000000000003
 21
109.9999999999998
 31
0.0
  0
LINE
  5
14ACF
330
1F
100
AcDbEntity
  8
0
  6
Continuous
 62
     7
 48
0.5
370
    -3
100
AcDbLine
 10
913.5000000000003
 20
97.9999999999999
 30
0.0
 11
911.0000000000002
 21
101.9999999999999
 31
0.0
  0
LINE
  5
14AD0
330
1F
100
AcDbEntity
  8
0
  6
Continuous
 62
     7
 48
0.5
370
    -3
100
AcDbLine
 10
911.0000000000002
 20
101.9999999999999
 30
0.0
 11
908.5000000000002
 21
97.9999999999999
 31
0.0
  0
LINE
  5
14AD1
330
1F
100
AcDbEntity
  8
0
  6
Continuous
 62
     7
 48
0.5
370
    -3
100
AcDbLine
 10
907.5000000000002
 20
106.7499999999999
 30
0.0
 11
907.5000000000002
 21
106.7499999999999
 31
0.0
  0
LINE
  5
14AD2
330
1F
100
AcDbEntity
  8
0
  6
Continuous
 62
     7
 48
0.5
370
    -3
100
AcDbLine
 10
910.0000000000003
 20
104.2499999999999
 30
0.0
 11
912.0000000000002
 21
104.2499999999999
 31
0.0
  0
ARC
  5
14AD3
330
1F
100
AcDbEntity
  8
0
  6
Continuous
 62
     7
 48
0.5
370
    -3
100
AcDbCircle
 10
910.0000000000003
 20
106.7499999999999
 30
0.0
 40
2.5
100
AcDbArc
 50
90.0
 51
270.0
  0
ARC
  5
14AD4
330
1F
100
AcDbEntity
  8
0
  6
Continuous
 62
     7
 48
0.5
370
    -3
100
AcDbCircle
 10
912.0000000000002
 20
106.7499999999999
 30
0.0
 40
2.5
100
AcDbArc
 50
270.0
 51
90.0
  0
LINE
  5
14AD5
330
1F
100
AcDbEntity
  8
0
  6
Continuous
 62
     7
 48
0.5
370
    -3
100
AcDbLine
 10
914.5000000000003
 20
106.7499999999999
 30
0.0
 11
914.5000000000003
 21
106.7499999999999
 31
0.0
  0
LINE
  5
14AD6
330
1F
100
AcDbEntity
  8
0
  6
Continuous
 62
     7
 48
0.5
370
    -3
100
AcDbLine
 10
912.0000000000002
 20
97.9999999999999
 30
0.0
 11
913.5000000000003
 21
97.9999999999999
 31
0.0
  0
LINE
  5
14AD7
330
1F
100
AcDbEntity
  8
0
  6
Continuous
 62
     7
 48
0.5
370
    -3
100
AcDbLine
 10
912.0000000000002
 20
91.9999999999999
 30
0.0
 11
912.0000000000002
 21
97.9999999999999
 31
0.0
  0
LINE
  5
14AD8
330
1F
100
AcDbEntity
  8
0
  6
Continuous
 62
     7
 48
0.5
370
    -3
100
AcDbLine
 10
910.0000000000003
 20
91.9999999999999
 30
0.0
 11
912.0000000000002
 21
91.9999999999999
 31
0.0
  0
LINE
  5
14AD9
330
1F
100
AcDbEntity
  8
0
  6
Continuous
 62
     7
 48
0.5
370
    -3
100
AcDbLine
 10
910.0000000000003
 20
97.9999999999999
 30
0.0
 11
910.0000000000003
 21
91.9999999999999
 31
0.0
  0
LINE
  5
14ADA
330
1F
100
AcDbEntity
  8
0
  6
Continuous
 62
     7
 48
0.5
370
    -3
100
AcDbLine
 10
908.5000000000002
 20
97.9999999999999
 30
0.0
 11
910.0000000000003
 21
97.9999999999999
 31
0.0
  0
ARC
  5
14ADB
330
1F
100
AcDbEntity
  8
0
  6
Continuous
 62
     7
 48
0.5
370
    -3
100
AcDbCircle
 10
895.0000000000002
 20
107.9999999999999
 30
0.0
 40
2.0
100
AcDbArc
 50
90.0
 51
180.0
  0
LINE
  5
14ADC
330
1F
100
AcDbEntity
  8
0
  6
Continuous
 62
     7
 48
0.5
370
    -3
100
AcDbLine
 10
893.0000000000003
 20
107.9999999999999
 30
0.0
 11
893.0000000000003
 21
106.7499999999999
 31
0.0
  0
CIRCLE
  5
14ADD
330
1F
100
AcDbEntity
  8
0
  6
Continuous
 62
     7
 48
0.5
370
    -3
100
AcDbCircle
 10
863.5000000000003
 20
114.9999999999999
 30
0.0
 40
1.649999999999999
  0
CIRCLE
  5
14ADE
330
1F
100
AcDbEntity
  8
0
  6
Continuous
 62
     7
 48
0.5
370
    -3
100
AcDbCircle
 10
873.5000000000002
 20
102.4999999999999
 30
0.0
 40
2.5
  0
LINE
  5
14ADF
330
1F
100
AcDbEntity
  8
0
  6
Continuous
 62
     7
 48
0.5
370
    -3
100
AcDbLine
 10
881.0000000000002
 20
109.9999999999999
 30
0.0
 11
862.0000000000002
 21
109.9999999999999
 31
0.0
  0
ARC
  5
14AE0
330
1F
100
AcDbEntity
  8
0
  6
Continuous
 62
     7
 48
0.5
370
    -3
100
AcDbCircle
 10
881.0000000000002
 20
107.9999999999999
 30
0.0
 40
2.0
100
AcDbArc
 50
0.0
 51
90.0
  0
LINE
  5
14AE1
330
1F
100
AcDbEntity
  8
0
  6
Continuous
 62
     7
 48
0.5
370
    -3
100
AcDbLine
 10
883.0000000000001
 20
107.9999999999999
 30
0.0
 11
883.0000000000001
 21
106.7499999999999
 31
0.0
  0
ARC
  5
14AE2
330
1F
100
AcDbEntity
  8
0
  6
Continuous
 62
     7
 48
0.5
370
    -3
100
AcDbCircle
 10
862.0000000000002
 20
107.9999999999999
 30
0.0
 40
2.0
100
AcDbArc
 50
90.0
 51
180.0
  0
LINE
  5
14AE3
330
1F
100
AcDbEntity
  8
0
  6
Continuous
 62
     7
 48
0.5
370
    -3
100
AcDbLine
 10
908.5000000000002
 20
84.99999999999991
 30
0.0
 11
913.5000000000003
 21
84.99999999999991
 31
0.0
  0
LINE
  5
14AE4
330
1F
100
AcDbEntity
  8
0
  6
Continuous
 62
     7
 48
0.5
370
    -3
100
AcDbLine
 10
913.0000000000002
 20
88.4999999999999
 30
0.0
 11
911.0000000000002
 21
88.4999999999999
 31
0.0
  0
ARC
  5
14AE5
330
1F
100
AcDbEntity
  8
0
  6
Continuous
 62
     7
 48
0.5
370
    -3
100
AcDbCircle
 10
854.0000000000002
 20
120.9999999999999
 30
0.0
 40
6.0
100
AcDbArc
 50
90.0
 51
180.0
  0
LINE
  5
14AE6
330
1F
100
AcDbEntity
  8
0
  6
Continuous
 62
     7
 48
0.5
370
    -3
100
AcDbLine
 10
854.0000000000002
 20
2.9999999999999
 30
0.0
 11
968.0000000000003
 21
2.999999999999786
 31
0.0
  0
ARC
  5
14AE7
330
1F
100
AcDbEntity
  8
0
  6
Continuous
 62
     7
 48
0.5
370
    -3
100
AcDbCircle
 10
888.0000000000002
 20
23.2499999999999
 30
0.0
 40
5.0
100
AcDbArc
 50
0.0
 51
180.0
  0
LINE
  5
14AE8
330
1F
100
AcDbEntity
  8
0
  6
Continuous
 62
     7
 48
0.5
370
    -3
100
AcDbLine
 10
895.0000000000002
 20
19.9999999999999
 30
0.0
 11
927.0000000000003
 21
19.99999999999978
 31
0.0
  0
LINE
  5
14AE9
330
1F
100
AcDbEntity
  8
0
  6
Continuous
 62
     7
 48
0.5
370
    -3
100
AcDbLine
 10
914.5000000000003
 20
23.2499999999999
 30
0.0
 11
914.5000000000003
 21
23.2499999999999
 31
0.0
  0
ARC
  5
14AEA
330
1F
100
AcDbEntity
  8
0
  6
Continuous
 62
     7
 48
0.5
370
    -3
100
AcDbCircle
 10
912.0000000000002
 20
23.2499999999999
 30
0.0
 40
2.5
100
AcDbArc
 50
270.0
 51
90.0
  0
ARC
  5
14AEB
330
1F
100
AcDbEntity
  8
0
  6
Continuous
 62
     7
 48
0.5
370
    -3
100
AcDbCircle
 10
910.0000000000003
 20
23.2499999999999
 30
0.0
 40
2.5
100
AcDbArc
 50
90.0
 51
270.0
  0
LINE
  5
14AEC
330
1F
100
AcDbEntity
  8
0
  6
Continuous
 62
     7
 48
0.5
370
    -3
100
AcDbLine
 10
910.0000000000003
 20
25.7499999999999
 30
0.0
 11
912.0000000000002
 21
25.7499999999999
 31
0.0
  0
LINE
  5
14AED
330
1F
100
AcDbEntity
  8
0
  6
Continuous
 62
     7
 48
0.5
370
    -3
100
AcDbLine
 10
907.5000000000002
 20
23.2499999999999
 30
0.0
 11
907.5000000000002
 21
23.2499999999999
 31
0.0
  0
LINE
  5
14AEE
330
1F
100
AcDbEntity
  8
0
  6
Continuous
 62
     7
 48
0.5
370
    -3
100
AcDbLine
 10
912.0000000000002
 20
20.7499999999999
 30
0.0
 11
910.0000000000003
 21
20.7499999999999
 31
0.0
  0
ARC
  5
14AEF
330
1F
100
AcDbEntity
  8
0
  6
Continuous
 62
     7
 48
0.5
370
    -3
100
AcDbCircle
 10
895.0000000000002
 20
21.9999999999999
 30
0.0
 40
2.0
100
AcDbArc
 50
180.0
 51
270.0
  0
LINE
  5
14AF0
330
1F
100
AcDbEntity
  8
0
  6
Continuous
 62
     7
 48
0.5
370
    -3
100
AcDbLine
 10
893.0000000000003
 20
23.2499999999999
 30
0.0
 11
893.0000000000003
 21
21.9999999999999
 31
0.0
  0
CIRCLE
  5
14AF1
330
1F
100
AcDbEntity
  8
0
  6
Continuous
 62
     7
 48
0.5
370
    -3
100
AcDbCircle
 10
873.5000000000002
 20
27.4999999999999
 30
0.0
 40
2.5
  0
ARC
  5
14AF2
330
1F
100
AcDbEntity
  8
0
  6
Continuous
 62
     7
 48
0.5
370
    -3
100
AcDbCircle
 10
875.9000000000003
 20
15.39999999999988
 30
0.0
 40
2.099999999999994
100
AcDbArc
 50
180.0
 51
270.0
  0
ARC
  5
14AF3
330
1F
100
AcDbEntity
  8
0
  6
Continuous
 62
     7
 48
0.5
370
    -3
100
AcDbCircle
 10
875.9000000000003
 20
10.59999999999992
 30
0.0
 40
2.099999999999994
100
AcDbArc
 50
90.0
 51
180.0
  0
LINE
  5
14AF4
330
1F
100
AcDbEntity
  8
0
  6
Continuous
 62
     7
 48
0.5
370
    -3
100
AcDbLine
 10
881.0000000000002
 20
19.9999999999999
 30
0.0
 11
862.0000000000002
 21
19.9999999999999
 31
0.0
  0
ARC
  5
14AF5
330
1F
100
AcDbEntity
  8
0
  6
Continuous
 62
     7
 48
0.5
370
    -3
100
AcDbCircle
 10
881.0000000000002
 20
21.9999999999999
 30
0.0
 40
2.0
100
AcDbArc
 50
270.0
 51
0.0
  0
LINE
  5
14AF6
330
1F
100
AcDbEntity
  8
0
  6
Continuous
 62
     7
 48
0.5
370
    -3
100
AcDbLine
 10
883.0000000000001
 20
23.2499999999999
 30
0.0
 11
883.0000000000001
 21
21.9999999999999
 31
0.0
  0
LINE
  5
14AF7
330
1F
100
AcDbEntity
  8
0
  6
Continuous
 62
     7
 48
0.5
370
    -3
100
AcDbLine
 10
875.9000000000003
 20
13.29999999999997
 30
0.0
 11
875.9000000000003
 21
12.69999999999994
 31
0.0
  0
ARC
  5
14AF8
330
1F
100
AcDbEntity
  8
0
  6
Continuous
 62
     7
 48
0.5
370
    -3
100
AcDbCircle
 10
862.0000000000002
 20
21.9999999999999
 30
0.0
 40
2.0
100
AcDbArc
 50
180.0
 51
270.0
  0
LINE
  5
14AF9
330
1F
100
AcDbEntity
  8
0
  6
Continuous
 62
     7
 48
0.5
370
    -3
100
AcDbLine
 10
873.2000000000002
 20
10.59999999999992
 30
0.0
 11
873.8000000000004
 21
10.59999999999992
 31
0.0
  0
ARC
  5
14AFA
330
1F
100
AcDbEntity
  8
0
  6
Continuous
 62
     7
 48
0.5
370
    -3
100
AcDbCircle
 10
871.1000000000002
 20
15.39999999999988
 30
0.0
 40
2.099999999999994
100
AcDbArc
 50
270.0
 51
0.0
  0
LINE
  5
14AFB
330
1F
100
AcDbEntity
  8
0
  6
Continuous
 62
     7
 48
0.5
370
    -3
100
AcDbLine
 10
873.2000000000002
 20
15.39999999999988
 30
0.0
 11
873.8000000000004
 21
15.39999999999999
 31
0.0
  0
LINE
  5
14AFC
330
1F
100
AcDbEntity
  8
0
  6
Continuous
 62
     7
 48
0.5
370
    -3
100
AcDbLine
 10
871.1000000000002
 20
13.29999999999997
 30
0.0
 11
871.1000000000002
 21
12.69999999999994
 31
0.0
  0
ARC
  5
14AFD
330
1F
100
AcDbEntity
  8
0
  6
Continuous
 62
     7
 48
0.5
370
    -3
100
AcDbCircle
 10
871.1000000000002
 20
10.59999999999992
 30
0.0
 40
2.099999999999994
100
AcDbArc
 50
0.0
 51
90.0
  0
CIRCLE
  5
14AFE
330
1F
100
AcDbEntity
  8
0
  6
Continuous
 62
     7
 48
0.5
370
    -3
100
AcDbCircle
 10
863.5000000000003
 20
14.9999999999999
 30
0.0
 40
1.649999999999999
  0
ARC
  5
14AFF
330
1F
100
AcDbEntity
  8
0
  6
Continuous
 62
     7
 48
0.5
370
    -3
100
AcDbCircle
 10
854.0000000000002
 20
8.9999999999999
 30
0.0
 40
6.0
100
AcDbArc
 50
180.0
 51
270.0
  0
CIRCLE
  5
14B28
330
1F
100
AcDbEntity
  8
0
  6
Continuous
 62
     7
 48
0.5
370
    -3
100
AcDbCircle
 10
948.5000000000002
 20
116.9999999999998
 30
0.0
 40
4.0
  0
CIRCLE
  5
14B2B
330
1F
100
AcDbEntity
  8
0
  6
Continuous
 62
     7
 48
0.5
370
    -3
100
AcDbCircle
 10
873.5000000000002
 20
12.9999999999999
 30
0.0
 40
4.0
  0
ARC
  5
14B2E
330
1F
100
AcDbEntity
  8
0
  6
Continuous
 62
     7
 48
0.5
370
    -3
100
AcDbCircle
 10
958.5000000000002
 20
114.9999999999998
 30
0.0
 40
2.0
100
AcDbArc
 50
69.99999999999997
 51
340.0000000000011
  0
CIRCLE
  5
14B3A
330
1F
100
AcDbEntity
  8
0
  6
Continuous
 62
     7
 48
0.5
370
    -3
100
AcDbCircle
 10
911.0000000000002
 20
64.9999999999999
 30
0.0
 40
17.25
  0
ARC
  5
14B3B
330
1F
100
AcDbEntity
  8
0
  6
Continuous
 62
     7
 48
0.5
370
    -3
100
AcDbCircle
 10
958.5000000000002
 20
14.99999999999978
 30
0.0
 40
2.0
100
AcDbArc
 50
69.99999999999997
 51
340.0000000000011
  0
ARC
  5
14B3C
330
1F
100
AcDbEntity
  8
0
  6
Continuous
 62
     7
 48
0.5
370
    -3
100
AcDbCircle
 10
863.5000000000003
 20
14.9999999999999
 30
0.0
 40
2.0
100
AcDbArc
 50
69.99999999999997
 51
340.0000000000011
  0
ARC
  5
14B3D
330
1F
100
AcDbEntity
  8
0
  6
Continuous
 62
     7
 48
0.5
370
    -3
100
AcDbCircle
 10
863.5000000000003
 20
114.9999999999999
 30
0.0
 40
2.0
100
AcDbArc
 50
69.99999999999997
 51
340.0000000000011
  0
LINE
  5
14B3E
330
1F
100
AcDbEntity
  8
0
  6
Continuous
 62
     7
 48
0.5
370
    -3
100
AcDbLine
 10
910.0000000000003
 20
109.2499999999999
 30
0.0
 11
912.0000000000002
 21
109.2499999999999
 31
0.0
  0
LINE
  5
14B3F
330
1F
100
AcDbEntity
  8
0
  6
CENTER2
 62
     2
 48
0.5
370
    -3
100
AcDbLine
 10
911.0000000000002
 20
129.9999999999998
 30
0.0
 11
911.0000000000002
 21
-0.0000000000001563
 31
0.0
  0
LINE
  5
14B40
330
1F
100
AcDbEntity
  8
0
  6
CENTER2
 62
     2
 48
0.5
370
    -3
100
AcDbLine
 10
845.0000000000002
 20
64.9999999999999
 30
0.0
 11
977.0000000000003
 21
64.99999999999978
 31
0.0
  0
LINE
  5
14B43
330
1F
100
AcDbEntity
  8
0
  6
Continuous
 62
     7
 48
0.5
370
    -3
100
AcDbLine
 10
974.0000000000001
 20
140.4999999999999
 30
0.0
 11
974.0000000000001
 21
178.2
 31
0.0
  0
ARC
  5
14B44
330
1F
100
AcDbEntity
  8
0
  6
Continuous
 62
     7
 48
0.5
370
    -3
100
AcDbCircle
 10
970.5000000000001
 20
140.4999999999999
 30
0.0
 40
3.5
100
AcDbArc
 50
270.0
 51
0.0
  0
LINE
  5
14B47
330
1F
100
AcDbEntity
  8
0
  6
Continuous
 62
     7
 48
0.5
370
    -3
100
AcDbLine
 10
970.5000000000001
 20
137.0
 30
0.0
 11
851.5000000000002
 21
136.9999999999998
 31
0.0
  0
LINE
  5
14B48
330
1F
100
AcDbEntity
  8
0
  6
Continuous
 62
     7
 48
0.5
370
    -3
100
AcDbLine
 10
848.0000000000002
 20
178.1999999999998
 30
0.0
 11
974.0000000000001
 21
178.2
 31
0.0
  0
LINE
  5
14B49
330
1F
100
AcDbEntity
  8
0
  6
CENTER2
 62
     2
 48
0.5
370
    -3
100
AcDbLine
 10
911.0000000000002
 20
133.9999999999999
 30
0.0
 11
911.0000000000002
 21
181.1999999999999
 31
0.0
  0
LINE
  5
14B50
330
1F
100
AcDbEntity
  8
0
  6
Continuous
 62
     7
 48
0.5
370
    -3
100
AcDbLine
 10
848.0000000000002
 20
140.4999999999998
 30
0.0
 11
848.0000000000002
 21
178.1999999999998
 31
0.0
  0
ARC
  5
14B51
330
1F
100
AcDbEntity
  8
0
  6
Continuous
 62
     7
 48
0.5
370
    -3
100
AcDbCircle
 10
851.5000000000002
 20
140.4999999999998
 30
0.0
 40
3.5
100
AcDbArc
 50
180.0
 51
270.0
  0
MTEXT
  5
14B64
330
1F
100
AcDbEntity
  8
0
  6
Continuous
 62
     1
 48
0.5
370
    -3
100
AcDbMText
 10
921.4463660782904
 20
-7.999999999999801
 30
0.0
 40
2.5
 41
30.30726784341937
 46
0.0
 71
     1
 72
     5
  1
\pi3.9751;2個用　ノック無
 73
     1
 44
1.0
1001
ACAD
1000
ACAD_MTEXT_COLUMN_INFO_BEGIN
1070
    75
1070
     2
1070
    79
1070
     0
1070
    76
1070
     1
1070
    78
1070
     0
1070
    48
1040
30.30726784341937
1070
    49
1040
12.5
1070
    50
1070
     1
1040
0.0
1000
ACAD_MTEXT_COLUMN_INFO_END
  0
MTEXT
  5
14B65
330
1F
100
AcDbEntity
  8
0
  6
Continuous
 62
     1
 48
0.5
370
    -3
100
AcDbMText
 10
927.1498760698454
 20
-15.99999999999983
 30
0.0
 40
2.5
 41
18.90024786030972
 46
0.0
 71
     1
 72
     5
  1
\pi1.3073;ABN312□
 73
     1
 44
1.0
1001
ACAD
1000
ACAD_MTEXT_COLUMN_INFO_BEGIN
1070
    75
1070
     2
1070
    79
1070
     0
1070
    76
1070
     1
1070
    78
1070
     0
1070
    48
1040
18.90024786030972
1070
    49
1040
12.5
1070
    50
1070
     1
1040
0.0
1000
ACAD_MTEXT_COLUMN_INFO_END
  0
LINE
  5
1527B
330
1F
100
AcDbEntity
  8
0
  6
Continuous
 62
     7
 48
0.5
370
    -3
100
AcDbLine
 10
766.8000000000001
 20
120.9999999999999
 30
0.0
 11
766.8000000000001
 21
8.999999999999928
 31
0.0
  0
LINE
  5
1527C
330
1F
100
AcDbEntity
  8
0
  6
Continuous
 62
     7
 48
0.5
370
    -3
100
AcDbLine
 10
754.8000000000001
 20
21.99999999999993
 30
0.0
 11
754.8000000000001
 21
107.9999999999999
 31
0.0
  0
LINE
  5
1527D
330
1F
100
AcDbEntity
  8
0
  6
Continuous
 62
     7
 48
0.5
370
    -3
100
AcDbLine
 10
733.8000000000001
 20
109.9999999999999
 30
0.0
 11
752.8000000000002
 21
109.9999999999999
 31
0.0
  0
ARC
  5
1527E
330
1F
100
AcDbEntity
  8
0
  6
Continuous
 62
     7
 48
0.5
370
    -3
100
AcDbCircle
 10
760.8000000000002
 20
120.9999999999999
 30
0.0
 40
6.0
100
AcDbArc
 50
0.0
 51
90.0
  0
CIRCLE
  5
1527F
330
1F
100
AcDbEntity
  8
0
  6
Continuous
 62
     7
 48
0.5
370
    -3
100
AcDbCircle
 10
751.3000000000001
 20
114.9999999999999
 30
0.0
 40
1.649999999999999
  0
ARC
  5
15280
330
1F
100
AcDbEntity
  8
0
  6
Continuous
 62
     7
 48
0.5
370
    -3
100
AcDbCircle
 10
752.8000000000002
 20
107.9999999999999
 30
0.0
 40
2.0
100
AcDbArc
 50
0.0
 51
90.0
  0
LINE
  5
15281
330
1F
100
AcDbEntity
  8
0
  6
Continuous
 62
     7
 48
0.5
370
    -3
100
AcDbLine
 10
741.0000000000002
 20
114.5999999999999
 30
0.0
 11
741.6000000000001
 21
114.5999999999998
 31
0.0
  0
ARC
  5
15282
330
1F
100
AcDbEntity
  8
0
  6
Continuous
 62
     7
 48
0.5
370
    -3
100
AcDbCircle
 10
738.9000000000002
 20
119.3999999999999
 30
0.0
 40
2.099999999999994
100
AcDbArc
 50
270.0
 51
0.0
  0
LINE
  5
15283
330
1F
100
AcDbEntity
  8
0
  6
Continuous
 62
     7
 48
0.5
370
    -3
100
AcDbLine
 10
741.0000000000002
 20
119.3999999999999
 30
0.0
 11
741.6000000000001
 21
119.4
 31
0.0
  0
LINE
  5
15284
330
1F
100
AcDbEntity
  8
0
  6
Continuous
 62
     7
 48
0.5
370
    -3
100
AcDbLine
 10
738.9000000000002
 20
117.2999999999999
 30
0.0
 11
738.9000000000002
 21
116.7
 31
0.0
  0
LINE
  5
15285
330
1F
100
AcDbEntity
  8
0
  6
Continuous
 62
     7
 48
0.5
370
    -3
100
AcDbLine
 10
743.7
 20
117.2999999999999
 30
0.0
 11
743.7000000000002
 21
116.7
 31
0.0
  0
ARC
  5
15286
330
1F
100
AcDbEntity
  8
0
  6
Continuous
 62
     7
 48
0.5
370
    -3
100
AcDbCircle
 10
743.7
 20
119.3999999999999
 30
0.0
 40
2.099999999999994
100
AcDbArc
 50
180.0
 51
270.0
  0
ARC
  5
15287
330
1F
100
AcDbEntity
  8
0
  6
Continuous
 62
     7
 48
0.5
370
    -3
100
AcDbCircle
 10
743.7
 20
114.5999999999999
 30
0.0
 40
2.099999999999994
100
AcDbArc
 50
90.0
 51
180.0
  0
ARC
  5
15288
330
1F
100
AcDbEntity
  8
0
  6
Continuous
 62
     7
 48
0.5
370
    -3
100
AcDbCircle
 10
738.9000000000002
 20
114.5999999999999
 30
0.0
 40
2.099999999999994
100
AcDbArc
 50
0.0
 51
90.0
  0
ARC
  5
15289
330
1F
100
AcDbEntity
  8
0
  6
Continuous
 62
     7
 48
0.5
370
    -3
100
AcDbCircle
 10
726.8000000000001
 20
106.7499999999999
 30
0.0
 40
5.0
100
AcDbArc
 50
180.0
 51
0.0
  0
CIRCLE
  5
1528A
330
1F
100
AcDbEntity
  8
0
  6
Continuous
 62
     7
 48
0.5
370
    -3
100
AcDbCircle
 10
741.3000000000002
 20
102.4999999999999
 30
0.0
 40
2.5
  0
LINE
  5
1528B
330
1F
100
AcDbEntity
  8
0
  6
Continuous
 62
     7
 48
0.5
370
    -3
100
AcDbLine
 10
731.8000000000002
 20
107.9999999999999
 30
0.0
 11
731.8000000000002
 21
106.7499999999999
 31
0.0
  0
ARC
  5
1528C
330
1F
100
AcDbEntity
  8
0
  6
Continuous
 62
     7
 48
0.5
370
    -3
100
AcDbCircle
 10
733.8000000000001
 20
107.9999999999999
 30
0.0
 40
2.0
100
AcDbArc
 50
90.0
 51
180.0
  0
LINE
  5
1528D
330
1F
100
AcDbEntity
  8
0
  6
Continuous
 62
     7
 48
0.5
370
    -3
100
AcDbLine
 10
721.8000000000001
 20
107.9999999999999
 30
0.0
 11
721.8000000000001
 21
106.7499999999999
 31
0.0
  0
ARC
  5
1528E
330
1F
100
AcDbEntity
  8
0
  6
Continuous
 62
     7
 48
0.5
370
    -3
100
AcDbCircle
 10
719.8000000000002
 20
107.9999999999999
 30
0.0
 40
2.0
100
AcDbArc
 50
0.0
 51
90.0
  0
ARC
  5
1528F
330
1F
100
AcDbEntity
  8
0
  6
Continuous
 62
     7
 48
0.5
370
    -3
100
AcDbCircle
 10
760.8000000000002
 20
8.999999999999928
 30
0.0
 40
6.0
100
AcDbArc
 50
270.0
 51
0.0
  0
LINE
  5
15290
330
1F
100
AcDbEntity
  8
0
  6
Continuous
 62
     7
 48
0.5
370
    -3
100
AcDbLine
 10
733.8000000000001
 20
19.99999999999993
 30
0.0
 11
752.8000000000002
 21
19.99999999999993
 31
0.0
  0
ARC
  5
15291
330
1F
100
AcDbEntity
  8
0
  6
Continuous
 62
     7
 48
0.5
370
    -3
100
AcDbCircle
 10
752.8000000000002
 20
21.99999999999993
 30
0.0
 40
2.0
100
AcDbArc
 50
270.0
 51
0.0
  0
CIRCLE
  5
15292
330
1F
100
AcDbEntity
  8
0
  6
Continuous
 62
     7
 48
0.5
370
    -3
100
AcDbCircle
 10
751.3000000000001
 20
14.99999999999993
 30
0.0
 40
1.649999999999999
  0
CIRCLE
  5
15293
330
1F
100
AcDbEntity
  8
0
  6
Continuous
 62
     7
 48
0.5
370
    -3
100
AcDbCircle
 10
741.3000000000002
 20
27.49999999999993
 30
0.0
 40
2.5
  0
ARC
  5
15294
330
1F
100
AcDbEntity
  8
0
  6
Continuous
 62
     7
 48
0.5
370
    -3
100
AcDbCircle
 10
726.8000000000001
 20
23.24999999999993
 30
0.0
 40
5.0
100
AcDbArc
 50
0.0
 51
180.0
  0
LINE
  5
15295
330
1F
100
AcDbEntity
  8
0
  6
Continuous
 62
     7
 48
0.5
370
    -3
100
AcDbLine
 10
731.8000000000002
 20
23.24999999999993
 30
0.0
 11
731.8000000000002
 21
21.99999999999993
 31
0.0
  0
ARC
  5
15296
330
1F
100
AcDbEntity
  8
0
  6
Continuous
 62
     7
 48
0.5
370
    -3
100
AcDbCircle
 10
733.8000000000001
 20
21.99999999999993
 30
0.0
 40
2.0
100
AcDbArc
 50
180.0
 51
270.0
  0
LINE
  5
15297
330
1F
100
AcDbEntity
  8
0
  6
Continuous
 62
     7
 48
0.5
370
    -3
100
AcDbLine
 10
721.8000000000001
 20
23.24999999999993
 30
0.0
 11
721.8000000000001
 21
21.99999999999993
 31
0.0
  0
ARC
  5
15298
330
1F
100
AcDbEntity
  8
0
  6
Continuous
 62
     7
 48
0.5
370
    -3
100
AcDbCircle
 10
719.8000000000002
 20
21.99999999999993
 30
0.0
 40
2.0
100
AcDbArc
 50
270.0
 51
0.0
  0
LINE
  5
15299
330
1F
100
AcDbEntity
  8
0
  6
Continuous
 62
     7
 48
0.5
370
    -3
100
AcDbLine
 10
652.8000000000002
 20
22.00000000000004
 30
0.0
 11
652.8000000000002
 21
108.0
 31
0.0
  0
LINE
  5
1529A
330
1F
100
AcDbEntity
  8
0
  6
Continuous
 62
     7
 48
0.5
370
    -3
100
AcDbLine
 10
640.8000000000002
 20
121.0
 30
0.0
 11
640.8000000000002
 21
9.000000000000042
 31
0.0
  0
LINE
  5
1529B
330
1F
100
AcDbEntity
  8
0
  6
Continuous
 62
     7
 48
0.5
370
    -3
100
AcDbLine
 10
760.8000000000002
 20
126.9999999999999
 30
0.0
 11
646.8000000000001
 21
127.0
 31
0.0
  0
LINE
  5
1529C
330
1F
100
AcDbEntity
  8
0
  6
Continuous
 62
     7
 48
0.5
370
    -3
100
AcDbLine
 10
703.8000000000002
 20
91.00000000000004
 30
0.0
 11
703.8000000000002
 21
85.00000000000005
 31
0.0
  0
ARC
  5
1529D
330
1F
100
AcDbEntity
  8
0
  6
Continuous
 62
     7
 48
0.5
370
    -3
100
AcDbCircle
 10
680.8000000000001
 20
106.75
 30
0.0
 40
5.0
100
AcDbArc
 50
180.0
 51
0.0
  0
LINE
  5
1529E
330
1F
100
AcDbEntity
  8
0
  6
Continuous
 62
     7
 48
0.5
370
    -3
100
AcDbLine
 10
687.8000000000001
 20
110.0
 30
0.0
 11
719.8000000000002
 21
109.9999999999999
 31
0.0
  0
LINE
  5
1529F
330
1F
100
AcDbEntity
  8
0
  6
Continuous
 62
     7
 48
0.5
370
    -3
100
AcDbLine
 10
706.3000000000002
 20
98.00000000000004
 30
0.0
 11
703.8000000000002
 21
102.0
 31
0.0
  0
LINE
  5
152A0
330
1F
100
AcDbEntity
  8
0
  6
Continuous
 62
     7
 48
0.5
370
    -3
100
AcDbLine
 10
703.8000000000002
 20
102.0
 30
0.0
 11
701.3000000000001
 21
98.00000000000004
 31
0.0
  0
LINE
  5
152A1
330
1F
100
AcDbEntity
  8
0
  6
Continuous
 62
     7
 48
0.5
370
    -3
100
AcDbLine
 10
700.3000000000001
 20
106.75
 30
0.0
 11
700.3000000000001
 21
106.75
 31
0.0
  0
LINE
  5
152A2
330
1F
100
AcDbEntity
  8
0
  6
Continuous
 62
     7
 48
0.5
370
    -3
100
AcDbLine
 10
702.8000000000002
 20
104.25
 30
0.0
 11
704.8000000000001
 21
104.25
 31
0.0
  0
ARC
  5
152A3
330
1F
100
AcDbEntity
  8
0
  6
Continuous
 62
     7
 48
0.5
370
    -3
100
AcDbCircle
 10
702.8000000000002
 20
106.75
 30
0.0
 40
2.5
100
AcDbArc
 50
90.0
 51
270.0
  0
ARC
  5
152A4
330
1F
100
AcDbEntity
  8
0
  6
Continuous
 62
     7
 48
0.5
370
    -3
100
AcDbCircle
 10
704.8000000000001
 20
106.75
 30
0.0
 40
2.5
100
AcDbArc
 50
270.0
 51
90.0
  0
LINE
  5
152A5
330
1F
100
AcDbEntity
  8
0
  6
Continuous
 62
     7
 48
0.5
370
    -3
100
AcDbLine
 10
707.3000000000002
 20
106.75
 30
0.0
 11
707.3000000000002
 21
106.75
 31
0.0
  0
LINE
  5
152A6
330
1F
100
AcDbEntity
  8
0
  6
Continuous
 62
     7
 48
0.5
370
    -3
100
AcDbLine
 10
704.8000000000001
 20
98.00000000000004
 30
0.0
 11
706.3000000000002
 21
98.00000000000004
 31
0.0
  0
LINE
  5
152A7
330
1F
100
AcDbEntity
  8
0
  6
Continuous
 62
     7
 48
0.5
370
    -3
100
AcDbLine
 10
704.8000000000001
 20
92.00000000000004
 30
0.0
 11
704.8000000000001
 21
98.00000000000004
 31
0.0
  0
LINE
  5
152A8
330
1F
100
AcDbEntity
  8
0
  6
Continuous
 62
     7
 48
0.5
370
    -3
100
AcDbLine
 10
702.8000000000002
 20
92.00000000000004
 30
0.0
 11
704.8000000000001
 21
92.00000000000004
 31
0.0
  0
LINE
  5
152A9
330
1F
100
AcDbEntity
  8
0
  6
Continuous
 62
     7
 48
0.5
370
    -3
100
AcDbLine
 10
702.8000000000002
 20
98.00000000000004
 30
0.0
 11
702.8000000000002
 21
92.00000000000004
 31
0.0
  0
LINE
  5
152AA
330
1F
100
AcDbEntity
  8
0
  6
Continuous
 62
     7
 48
0.5
370
    -3
100
AcDbLine
 10
701.3000000000001
 20
98.00000000000004
 30
0.0
 11
702.8000000000002
 21
98.00000000000004
 31
0.0
  0
ARC
  5
152AB
330
1F
100
AcDbEntity
  8
0
  6
Continuous
 62
     7
 48
0.5
370
    -3
100
AcDbCircle
 10
687.8000000000001
 20
108.0
 30
0.0
 40
2.0
100
AcDbArc
 50
90.0
 51
180.0
  0
LINE
  5
152AC
330
1F
100
AcDbEntity
  8
0
  6
Continuous
 62
     7
 48
0.5
370
    -3
100
AcDbLine
 10
685.8000000000002
 20
108.0
 30
0.0
 11
685.8000000000002
 21
106.75
 31
0.0
  0
CIRCLE
  5
152AD
330
1F
100
AcDbEntity
  8
0
  6
Continuous
 62
     7
 48
0.5
370
    -3
100
AcDbCircle
 10
656.3000000000002
 20
115.0
 30
0.0
 40
1.649999999999999
  0
CIRCLE
  5
152AE
330
1F
100
AcDbEntity
  8
0
  6
Continuous
 62
     7
 48
0.5
370
    -3
100
AcDbCircle
 10
666.3000000000002
 20
102.5
 30
0.0
 40
2.5
  0
LINE
  5
152AF
330
1F
100
AcDbEntity
  8
0
  6
Continuous
 62
     7
 48
0.5
370
    -3
100
AcDbLine
 10
673.8000000000002
 20
110.0
 30
0.0
 11
654.8000000000001
 21
110.0
 31
0.0
  0
ARC
  5
152B0
330
1F
100
AcDbEntity
  8
0
  6
Continuous
 62
     7
 48
0.5
370
    -3
100
AcDbCircle
 10
673.8000000000002
 20
108.0
 30
0.0
 40
2.0
100
AcDbArc
 50
0.0
 51
90.0
  0
LINE
  5
152B1
330
1F
100
AcDbEntity
  8
0
  6
Continuous
 62
     7
 48
0.5
370
    -3
100
AcDbLine
 10
675.8000000000001
 20
108.0
 30
0.0
 11
675.8000000000001
 21
106.75
 31
0.0
  0
ARC
  5
152B2
330
1F
100
AcDbEntity
  8
0
  6
Continuous
 62
     7
 48
0.5
370
    -3
100
AcDbCircle
 10
654.8000000000001
 20
108.0
 30
0.0
 40
2.0
100
AcDbArc
 50
90.0
 51
180.0
  0
LINE
  5
152B3
330
1F
100
AcDbEntity
  8
0
  6
Continuous
 62
     7
 48
0.5
370
    -3
100
AcDbLine
 10
701.3000000000001
 20
85.00000000000005
 30
0.0
 11
706.3000000000002
 21
85.00000000000005
 31
0.0
  0
LINE
  5
152B4
330
1F
100
AcDbEntity
  8
0
  6
Continuous
 62
     7
 48
0.5
370
    -3
100
AcDbLine
 10
705.8000000000001
 20
88.50000000000004
 30
0.0
 11
703.8000000000002
 21
88.50000000000004
 31
0.0
  0
ARC
  5
152B5
330
1F
100
AcDbEntity
  8
0
  6
Continuous
 62
     7
 48
0.5
370
    -3
100
AcDbCircle
 10
646.8000000000001
 20
121.0
 30
0.0
 40
6.0
100
AcDbArc
 50
90.0
 51
180.0
  0
LINE
  5
152B6
330
1F
100
AcDbEntity
  8
0
  6
Continuous
 62
     7
 48
0.5
370
    -3
100
AcDbLine
 10
646.8000000000001
 20
3.000000000000042
 30
0.0
 11
760.8000000000002
 21
2.999999999999928
 31
0.0
  0
ARC
  5
152B7
330
1F
100
AcDbEntity
  8
0
  6
Continuous
 62
     7
 48
0.5
370
    -3
100
AcDbCircle
 10
680.8000000000001
 20
23.25000000000004
 30
0.0
 40
5.0
100
AcDbArc
 50
0.0
 51
180.0
  0
LINE
  5
152B8
330
1F
100
AcDbEntity
  8
0
  6
Continuous
 62
     7
 48
0.5
370
    -3
100
AcDbLine
 10
687.8000000000001
 20
20.00000000000004
 30
0.0
 11
719.8000000000002
 21
19.99999999999993
 31
0.0
  0
LINE
  5
152B9
330
1F
100
AcDbEntity
  8
0
  6
Continuous
 62
     7
 48
0.5
370
    -3
100
AcDbLine
 10
707.3000000000002
 20
23.25000000000004
 30
0.0
 11
707.3000000000002
 21
23.25000000000004
 31
0.0
  0
ARC
  5
152BA
330
1F
100
AcDbEntity
  8
0
  6
Continuous
 62
     7
 48
0.5
370
    -3
100
AcDbCircle
 10
704.8000000000001
 20
23.25000000000004
 30
0.0
 40
2.5
100
AcDbArc
 50
270.0
 51
90.0
  0
ARC
  5
152BB
330
1F
100
AcDbEntity
  8
0
  6
Continuous
 62
     7
 48
0.5
370
    -3
100
AcDbCircle
 10
702.8000000000002
 20
23.25000000000004
 30
0.0
 40
2.5
100
AcDbArc
 50
90.0
 51
270.0
  0
LINE
  5
152BC
330
1F
100
AcDbEntity
  8
0
  6
Continuous
 62
     7
 48
0.5
370
    -3
100
AcDbLine
 10
702.8000000000002
 20
25.75000000000005
 30
0.0
 11
704.8000000000001
 21
25.75000000000005
 31
0.0
  0
LINE
  5
152BD
330
1F
100
AcDbEntity
  8
0
  6
Continuous
 62
     7
 48
0.5
370
    -3
100
AcDbLine
 10
700.3000000000001
 20
23.25000000000004
 30
0.0
 11
700.3000000000001
 21
23.25000000000004
 31
0.0
  0
LINE
  5
152BE
330
1F
100
AcDbEntity
  8
0
  6
Continuous
 62
     7
 48
0.5
370
    -3
100
AcDbLine
 10
704.8000000000001
 20
20.75000000000004
 30
0.0
 11
702.8000000000002
 21
20.75000000000004
 31
0.0
  0
ARC
  5
152BF
330
1F
100
AcDbEntity
  8
0
  6
Continuous
 62
     7
 48
0.5
370
    -3
100
AcDbCircle
 10
687.8000000000001
 20
22.00000000000004
 30
0.0
 40
2.0
100
AcDbArc
 50
180.0
 51
270.0
  0
LINE
  5
152C0
330
1F
100
AcDbEntity
  8
0
  6
Continuous
 62
     7
 48
0.5
370
    -3
100
AcDbLine
 10
685.8000000000002
 20
23.25000000000004
 30
0.0
 11
685.8000000000002
 21
22.00000000000004
 31
0.0
  0
CIRCLE
  5
152C1
330
1F
100
AcDbEntity
  8
0
  6
Continuous
 62
     7
 48
0.5
370
    -3
100
AcDbCircle
 10
666.3000000000002
 20
27.50000000000004
 30
0.0
 40
2.5
  0
ARC
  5
152C2
330
1F
100
AcDbEntity
  8
0
  6
Continuous
 62
     7
 48
0.5
370
    -3
100
AcDbCircle
 10
668.7000000000002
 20
15.40000000000002
 30
0.0
 40
2.099999999999994
100
AcDbArc
 50
180.0
 51
270.0
  0
ARC
  5
152C3
330
1F
100
AcDbEntity
  8
0
  6
Continuous
 62
     7
 48
0.5
370
    -3
100
AcDbCircle
 10
668.7000000000002
 20
10.60000000000006
 30
0.0
 40
2.099999999999994
100
AcDbArc
 50
90.0
 51
180.0
  0
LINE
  5
152C4
330
1F
100
AcDbEntity
  8
0
  6
Continuous
 62
     7
 48
0.5
370
    -3
100
AcDbLine
 10
673.8000000000002
 20
20.00000000000004
 30
0.0
 11
654.8000000000001
 21
20.00000000000004
 31
0.0
  0
ARC
  5
152C5
330
1F
100
AcDbEntity
  8
0
  6
Continuous
 62
     7
 48
0.5
370
    -3
100
AcDbCircle
 10
673.8000000000002
 20
22.00000000000004
 30
0.0
 40
2.0
100
AcDbArc
 50
270.0
 51
0.0
  0
LINE
  5
152C6
330
1F
100
AcDbEntity
  8
0
  6
Continuous
 62
     7
 48
0.5
370
    -3
100
AcDbLine
 10
675.8000000000001
 20
23.25000000000004
 30
0.0
 11
675.8000000000001
 21
22.00000000000004
 31
0.0
  0
LINE
  5
152C7
330
1F
100
AcDbEntity
  8
0
  6
Continuous
 62
     7
 48
0.5
370
    -3
100
AcDbLine
 10
668.7000000000002
 20
13.30000000000011
 30
0.0
 11
668.7000000000002
 21
12.70000000000009
 31
0.0
  0
ARC
  5
152C8
330
1F
100
AcDbEntity
  8
0
  6
Continuous
 62
     7
 48
0.5
370
    -3
100
AcDbCircle
 10
654.8000000000001
 20
22.00000000000004
 30
0.0
 40
2.0
100
AcDbArc
 50
180.0
 51
270.0
  0
LINE
  5
152C9
330
1F
100
AcDbEntity
  8
0
  6
Continuous
 62
     7
 48
0.5
370
    -3
100
AcDbLine
 10
666.0000000000002
 20
10.60000000000006
 30
0.0
 11
666.6000000000003
 21
10.60000000000006
 31
0.0
  0
ARC
  5
152CA
330
1F
100
AcDbEntity
  8
0
  6
Continuous
 62
     7
 48
0.5
370
    -3
100
AcDbCircle
 10
663.9000000000002
 20
15.40000000000002
 30
0.0
 40
2.099999999999994
100
AcDbArc
 50
270.0
 51
0.0
  0
LINE
  5
152CB
330
1F
100
AcDbEntity
  8
0
  6
Continuous
 62
     7
 48
0.5
370
    -3
100
AcDbLine
 10
666.0000000000002
 20
15.40000000000002
 30
0.0
 11
666.6000000000003
 21
15.40000000000013
 31
0.0
  0
LINE
  5
152CC
330
1F
100
AcDbEntity
  8
0
  6
Continuous
 62
     7
 48
0.5
370
    -3
100
AcDbLine
 10
663.9000000000002
 20
13.30000000000011
 30
0.0
 11
663.9000000000002
 21
12.70000000000009
 31
0.0
  0
ARC
  5
152CD
330
1F
100
AcDbEntity
  8
0
  6
Continuous
 62
     7
 48
0.5
370
    -3
100
AcDbCircle
 10
663.9000000000002
 20
10.60000000000006
 30
0.0
 40
2.099999999999994
100
AcDbArc
 50
0.0
 51
90.0
  0
CIRCLE
  5
152CE
330
1F
100
AcDbEntity
  8
0
  6
Continuous
 62
     7
 48
0.5
370
    -3
100
AcDbCircle
 10
656.3000000000002
 20
15.00000000000004
 30
0.0
 40
1.649999999999999
  0
ARC
  5
152CF
330
1F
100
AcDbEntity
  8
0
  6
Continuous
 62
     7
 48
0.5
370
    -3
100
AcDbCircle
 10
646.8000000000001
 20
9.000000000000042
 30
0.0
 40
6.0
100
AcDbArc
 50
180.0
 51
270.0
  0
CIRCLE
  5
152F0
330
1F
100
AcDbEntity
  8
0
  6
Continuous
 62
     7
 48
0.5
370
    -3
100
AcDbCircle
 10
741.3000000000002
 20
116.9999999999999
 30
0.0
 40
4.0
  0
CIRCLE
  5
152F3
330
1F
100
AcDbEntity
  8
0
  6
Continuous
 62
     7
 48
0.5
370
    -3
100
AcDbCircle
 10
666.3000000000002
 20
13.00000000000004
 30
0.0
 40
4.0
  0
CIRCLE
  5
152F7
330
1F
100
AcDbEntity
  8
0
  6
Continuous
 62
     7
 48
0.5
370
    -3
100
AcDbCircle
 10
703.8000000000002
 20
65.00000000000004
 30
0.0
 40
17.25
  0
LINE
  5
152FB
330
1F
100
AcDbEntity
  8
0
  6
Continuous
 62
     7
 48
0.5
370
    -3
100
AcDbLine
 10
702.8000000000002
 20
109.25
 30
0.0
 11
704.8000000000001
 21
109.25
 31
0.0
  0
LINE
  5
152FC
330
1F
100
AcDbEntity
  8
0
  6
CENTER2
 62
     2
 48
0.5
370
    -3
100
AcDbLine
 10
703.8000000000002
 20
130.0
 30
0.0
 11
703.8000000000002
 21
-0.0000000000000142
 31
0.0
  0
LINE
  5
152FD
330
1F
100
AcDbEntity
  8
0
  6
CENTER2
 62
     2
 48
0.5
370
    -3
100
AcDbLine
 10
637.8000000000001
 20
65.00000000000004
 30
0.0
 11
769.8000000000002
 21
64.99999999999992
 31
0.0
  0
LINE
  5
152FE
330
1F
100
AcDbEntity
  8
0
  6
Continuous
 62
     7
 48
0.5
370
    -3
100
AcDbLine
 10
766.8000000000001
 20
140.5
 30
0.0
 11
766.8000000000001
 21
178.2000000000001
 31
0.0
  0
ARC
  5
152FF
330
1F
100
AcDbEntity
  8
0
  6
Continuous
 62
     7
 48
0.5
370
    -3
100
AcDbCircle
 10
763.3000000000001
 20
140.5
 30
0.0
 40
3.5
100
AcDbArc
 50
270.0
 51
0.0
  0
LINE
  5
15300
330
1F
100
AcDbEntity
  8
0
  6
Continuous
 62
     7
 48
0.5
370
    -3
100
AcDbLine
 10
763.3000000000001
 20
137.0000000000001
 30
0.0
 11
644.3000000000002
 21
136.9999999999999
 31
0.0
  0
LINE
  5
15301
330
1F
100
AcDbEntity
  8
0
  6
Continuous
 62
     7
 48
0.5
370
    -3
100
AcDbLine
 10
640.8000000000002
 20
178.2
 30
0.0
 11
766.8000000000001
 21
178.2000000000001
 31
0.0
  0
LINE
  5
15302
330
1F
100
AcDbEntity
  8
0
  6
CENTER2
 62
     2
 48
0.5
370
    -3
100
AcDbLine
 10
703.8000000000002
 20
134.0
 30
0.0
 11
703.8000000000002
 21
181.2
 31
0.0
  0
LINE
  5
15303
330
1F
100
AcDbEntity
  8
0
  6
Continuous
 62
     7
 48
0.5
370
    -3
100
AcDbLine
 10
640.8000000000002
 20
140.4999999999999
 30
0.0
 11
640.8000000000002
 21
178.2
 31
0.0
  0
ARC
  5
15304
330
1F
100
AcDbEntity
  8
0
  6
Continuous
 62
     7
 48
0.5
370
    -3
100
AcDbCircle
 10
644.3000000000002
 20
140.4999999999999
 30
0.0
 40
3.5
100
AcDbArc
 50
180.0
 51
270.0
  0
MTEXT
  5
15317
330
1F
100
AcDbEntity
  8
0
  6
Continuous
 62
     1
 48
0.5
370
    -3
100
AcDbMText
 10
713.7942163532464
 20
-7.99999999999966
 30
0.0
 40
2.5
 41
31.21156729350764
 46
0.0
 71
     1
 72
     5
  1
\pi3.4272;2個用　BCノック
 73
     1
 44
1.0
1001
ACAD
1000
ACAD_MTEXT_COLUMN_INFO_BEGIN
1070
    75
1070
     2
1070
    79
1070
     0
1070
    76
1070
     1
1070
    78
1070
     0
1070
    48
1040
31.21156729350764
1070
    49
1040
12.5
1070
    50
1070
     1
1040
0.0
1000
ACAD_MTEXT_COLUMN_INFO_END
  0
MTEXT
  5
15318
330
1F
100
AcDbEntity
  8
0
  6
Continuous
 62
     1
 48
0.5
370
    -3
100
AcDbMText
 10
721.2476388301913
 20
-15.99999999999969
 30
0.0
 40
2.5
 41
16.30472233961791
 46
0.0
 71
     1
 72
     5
  1
\pi1.319;BC312□
 73
     1
 44
1.0
1001
ACAD
1000
ACAD_MTEXT_COLUMN_INFO_BEGIN
1070
    75
1070
     2
1070
    79
1070
     0
1070
    76
1070
     1
1070
    78
1070
     0
1070
    48
1040
16.30472233961791
1070
    49
1040
12.5
1070
    50
1070
     1
1040
0.0
1000
ACAD_MTEXT_COLUMN_INFO_END
  0
LINE
  5
1531A
330
1F
100
AcDbEntity
  8
0
  6
Continuous
 62
     7
 48
0.5
370
    -3
100
AcDbLine
 10
818.0000000000003
 20
86.99999999999993
 30
0.0
 11
802.0000000000003
 21
86.99999999999993
 31
0.0
  0
LINE
  5
1531C
330
1F
100
AcDbEntity
  8
0
  6
CENTER2
 62
     2
 48
0.5
370
    -3
100
AcDbLine
 10
773.8000000000002
 20
64.99999999999992
 30
0.0
 11
821.0000000000002
 21
64.99999999999992
 31
0.0
  0
LINE
  5
1531E
330
1F
100
AcDbEntity
  8
0
  6
Continuous
 62
     7
 48
0.5
370
    -3
100
AcDbLine
 10
780.3000000000001
 20
126.9999999999999
 30
0.0
 11
818.0000000000003
 21
126.9999999999999
 31
0.0
  0
LINE
  5
15321
330
1F
100
AcDbEntity
  8
0
  6
Continuous
 62
     7
 48
0.5
370
    -3
100
AcDbLine
 10
818.0000000000003
 20
2.999999999999928
 30
0.0
 11
818.0000000000003
 21
126.9999999999999
 31
0.0
  0
ARC
  5
15322
330
1F
100
AcDbEntity
  8
0
  6
Continuous
 62
     7
 48
0.5
370
    -3
100
AcDbCircle
 10
780.3000000000001
 20
123.4999999999999
 30
0.0
 40
3.5
100
AcDbArc
 50
90.0
 51
180.0
  0
LINE
  5
15323
330
1F
100
AcDbEntity
  8
0
  6
Continuous
 62
     7
 48
0.5
370
    -3
100
AcDbLine
 10
796.0000000000002
 20
80.99999999999992
 30
0.0
 11
796.0000000000002
 21
48.99999999999993
 31
0.0
  0
ARC
  5
15325
330
1F
100
AcDbEntity
  8
0
  6
Continuous
 62
     7
 48
0.5
370
    -3
100
AcDbCircle
 10
802.0000000000003
 20
80.99999999999992
 30
0.0
 40
6.0
100
AcDbArc
 50
90.0
 51
180.0
  0
LINE
  5
15326
330
1F
100
AcDbEntity
  8
0
  6
Continuous
 62
     7
 48
0.5
370
    -3
100
AcDbLine
 10
776.8000000000001
 20
123.4999999999999
 30
0.0
 11
776.8000000000001
 21
6.499999999999928
 31
0.0
  0
ARC
  5
15327
330
1F
100
AcDbEntity
  8
0
  6
Continuous
 62
     7
 48
0.5
370
    -3
100
AcDbCircle
 10
802.0000000000003
 20
48.99999999999993
 30
0.0
 40
6.0
100
AcDbArc
 50
180.0
 51
270.0
  0
LINE
  5
15331
330
1F
100
AcDbEntity
  8
0
  6
Continuous
 62
     7
 48
0.5
370
    -3
100
AcDbLine
 10
818.0000000000003
 20
42.99999999999992
 30
0.0
 11
802.0000000000003
 21
42.99999999999992
 31
0.0
  0
LINE
  5
15332
330
1F
100
AcDbEntity
  8
0
  6
Continuous
 62
     7
 48
0.5
370
    -3
100
AcDbLine
 10
780.3000000000001
 20
2.999999999999928
 30
0.0
 11
818.0000000000003
 21
2.999999999999928
 31
0.0
  0
ARC
  5
15333
330
1F
100
AcDbEntity
  8
0
  6
Continuous
 62
     7
 48
0.5
370
    -3
100
AcDbCircle
 10
780.3000000000001
 20
6.499999999999928
 30
0.0
 40
3.5
100
AcDbArc
 50
180.0
 51
270.0
  0
LINE
  5
1533E
330
1F
100
AcDbEntity
  8
0
  6
Continuous
 62
     7
 48
0.5
370
    -3
100
AcDbLine
 10
787.4999999999998
 20
40.75000000000004
 30
0.0
 11
787.5000000000002
 21
89.24999999999993
 31
0.0
  0
ARC
  5
15340
330
1F
100
AcDbEntity
  8
0
  6
Continuous
 62
     7
 48
0.5
370
    -3
100
AcDbCircle
 10
793.4999999999997
 20
40.74999999999993
 30
0.0
 40
6.0
100
AcDbArc
 50
180.0
 51
270.0
  0
LINE
  5
15341
330
1F
100
AcDbEntity
  8
0
  6
Continuous
 62
     7
 48
0.5
370
    -3
100
AcDbLine
 10
793.4999999999997
 20
34.74999999999993
 30
0.0
 11
818.0000000000003
 21
34.74999999999993
 31
0.0
  0
LINE
  5
15342
330
1F
100
AcDbEntity
  8
0
  6
Continuous
 62
     7
 48
0.5
370
    -3
100
AcDbLine
 10
793.5000000000002
 20
95.24999999999993
 30
0.0
 11
818.0000000000003
 21
95.24999999999993
 31
0.0
  0
ARC
  5
15343
330
1F
100
AcDbEntity
  8
0
  6
Continuous
 62
     7
 48
0.5
370
    -3
100
AcDbCircle
 10
793.5000000000002
 20
89.24999999999993
 30
0.0
 40
6.0
100
AcDbArc
 50
90.0
 51
180.0
  0
LINE
  5
15344
330
1F
100
AcDbEntity
  8
0
  6
Continuous
 62
     7
 48
0.5
370
    -3
100
AcDbLine
 10
681.8000000000002
 20
178.2
 30
0.0
 11
681.8000000000002
 21
162.2
 31
0.0
  0
LINE
  5
15345
330
1F
100
AcDbEntity
  8
0
  6
Continuous
 62
     7
 48
0.5
370
    -3
100
AcDbLine
 10
687.8000000000001
 20
156.2
 30
0.0
 11
719.8000000000002
 21
156.2
 31
0.0
  0
ARC
  5
15346
330
1F
100
AcDbEntity
  8
0
  6
Continuous
 62
     7
 48
0.5
370
    -3
100
AcDbCircle
 10
687.8000000000001
 20
162.2
 30
0.0
 40
6.0
100
AcDbArc
 50
180.0
 51
270.0
  0
ARC
  5
15347
330
1F
100
AcDbEntity
  8
0
  6
Continuous
 62
     7
 48
0.5
370
    -3
100
AcDbCircle
 10
719.8000000000002
 20
162.2
 30
0.0
 40
6.0
100
AcDbArc
 50
270.0
 51
0.0
  0
LINE
  5
15348
330
1F
100
AcDbEntity
  8
0
  6
Continuous
 62
     7
 48
0.5
370
    -3
100
AcDbLine
 10
725.8000000000001
 20
178.2
 30
0.0
 11
725.8000000000001
 21
162.2
 31
0.0
  0
LINE
  5
15349
330
1F
100
AcDbEntity
  8
0
  6
Continuous
 62
     7
 48
0.5
370
    -3
100
AcDbLine
 10
728.0500000000001
 20
147.6999999999996
 30
0.0
 11
679.5500000000002
 21
147.7
 31
0.0
  0
ARC
  5
1534A
330
1F
100
AcDbEntity
  8
0
  6
Continuous
 62
     7
 48
0.5
370
    -3
100
AcDbCircle
 10
728.0500000000001
 20
153.6999999999996
 30
0.0
 40
6.0
100
AcDbArc
 50
270.0
 51
0.0
  0
LINE
  5
1534B
330
1F
100
AcDbEntity
  8
0
  6
Continuous
 62
     7
 48
0.5
370
    -3
100
AcDbLine
 10
734.0500000000002
 20
153.6999999999996
 30
0.0
 11
734.0500000000002
 21
178.2
 31
0.0
  0
LINE
  5
1534C
330
1F
100
AcDbEntity
  8
0
  6
Continuous
 62
     7
 48
0.5
370
    -3
100
AcDbLine
 10
673.5500000000001
 20
153.7
 30
0.0
 11
673.5500000000001
 21
178.2
 31
0.0
  0
ARC
  5
1534D
330
1F
100
AcDbEntity
  8
0
  6
Continuous
 62
     7
 48
0.5
370
    -3
100
AcDbCircle
 10
679.5500000000002
 20
153.7
 30
0.0
 40
6.0
100
AcDbArc
 50
180.0
 51
270.0
  0
LINE
  5
155F0
330
1F
100
AcDbEntity
  8
0
  6
Continuous
 62
     7
 48
0.5
370
    -3
100
AcDbLine
 10
1061.2
 20
2.999999999999786
 30
0.0
 11
1219.2
 21
2.999999999999786
 31
0.0
  0
ARC
  5
155F1
330
1F
100
AcDbEntity
  8
0
  6
Continuous
 62
     7
 48
0.5
370
    -3
100
AcDbCircle
 10
1061.2
 20
8.999999999999786
 30
0.0
 40
6.0
100
AcDbArc
 50
180.0
 51
270.0
  0
LINE
  5
155F2
330
1F
100
AcDbEntity
  8
0
  6
Continuous
 62
     7
 48
0.5
370
    -3
100
AcDbLine
 10
1225.2
 20
8.999999999999786
 30
0.0
 11
1225.2
 21
120.9999999999998
 31
0.0
  0
ARC
  5
155F3
330
1F
100
AcDbEntity
  8
0
  6
Continuous
 62
     7
 48
0.5
370
    -3
100
AcDbCircle
 10
1219.2
 20
8.999999999999786
 30
0.0
 40
6.0
100
AcDbArc
 50
270.0
 51
0.0
  0
LINE
  5
155F4
330
1F
100
AcDbEntity
  8
0
  6
Continuous
 62
     7
 48
0.5
370
    -3
100
AcDbLine
 10
1219.2
 20
126.9999999999998
 30
0.0
 11
1061.2
 21
126.9999999999998
 31
0.0
  0
ARC
  5
155F5
330
1F
100
AcDbEntity
  8
0
  6
Continuous
 62
     7
 48
0.5
370
    -3
100
AcDbCircle
 10
1219.2
 20
120.9999999999998
 30
0.0
 40
6.0
100
AcDbArc
 50
0.0
 51
90.0
  0
ARC
  5
155F6
330
1F
100
AcDbEntity
  8
0
  6
Continuous
 62
     7
 48
0.5
370
    -3
100
AcDbCircle
 10
1061.2
 20
120.9999999999998
 30
0.0
 40
6.0
100
AcDbArc
 50
90.0
 51
180.0
  0
LINE
  5
155F7
330
1F
100
AcDbEntity
  8
0
  6
Continuous
 62
     7
 48
0.5
370
    -3
100
AcDbLine
 10
1055.2
 20
120.9999999999998
 30
0.0
 11
1055.2
 21
8.999999999999786
 31
0.0
  0
LINE
  5
155FA
330
1F
100
AcDbEntity
  8
0
  6
Continuous
 62
     7
 48
0.5
370
    -3
100
AcDbLine
 10
1147.200000000005
 20
19.99999999999978
 30
0.0
 11
1179.200000000005
 21
19.99999999999979
 31
0.0
  0
LINE
  5
155FE
330
1F
100
AcDbEntity
  8
0
  6
Continuous
 62
     7
 48
0.5
370
    -3
100
AcDbLine
 10
1101.200000000005
 20
19.99999999999978
 30
0.0
 11
1133.200000000005
 21
19.99999999999979
 31
0.0
  0
LINE
  5
15602
330
1F
100
AcDbEntity
  8
0
  6
Continuous
 62
     7
 48
0.5
370
    -3
100
AcDbLine
 10
1070.200000000017
 20
19.99999999999978
 30
0.0
 11
1087.200000000005
 21
19.99999999999978
 31
0.0
  0
ARC
  5
15603
330
1F
100
AcDbEntity
  8
0
  6
Continuous
 62
     7
 48
0.5
370
    -3
100
AcDbCircle
 10
1070.199999999999
 20
21.99999999999837
 30
0.0
 40
1.999999999998575
100
AcDbArc
 50
180.0
 51
270.0
  0
LINE
  5
15604
330
1F
100
AcDbEntity
  8
0
  6
Continuous
 62
     7
 48
0.5
370
    -3
100
AcDbLine
 10
1068.2
 20
107.9999999999138
 30
0.0
 11
1068.2
 21
22.00000000008579
 31
0.0
  0
ARC
  5
15605
330
1F
100
AcDbEntity
  8
0
  6
Continuous
 62
     7
 48
0.5
370
    -3
100
AcDbCircle
 10
1070.199999999999
 20
108.0000000000011
 30
0.0
 40
1.999999999998631
100
AcDbArc
 50
90.0
 51
180.0
  0
ARC
  5
15613
330
1F
100
AcDbEntity
  8
0
  6
Continuous
 62
     7
 48
0.5
370
    -3
100
AcDbCircle
 10
1210.200000000001
 20
108.0000000000012
 30
0.0
 40
1.999999999998569
100
AcDbArc
 50
0.0
 51
90.0
  0
LINE
  5
15614
330
1F
100
AcDbEntity
  8
0
  6
Continuous
 62
     7
 48
0.5
370
    -3
100
AcDbLine
 10
1212.2
 20
22.00000000008579
 30
0.0
 11
1212.2
 21
107.9999999999138
 31
0.0
  0
ARC
  5
15615
330
1F
100
AcDbEntity
  8
0
  6
Continuous
 62
     7
 48
0.5
370
    -3
100
AcDbCircle
 10
1210.200000000002
 20
21.99999999999837
 30
0.0
 40
1.999999999998555
100
AcDbArc
 50
270.0
 51
0.0
  0
LINE
  5
15616
330
1F
100
AcDbEntity
  8
0
  6
Continuous
 62
     7
 48
0.5
370
    -3
100
AcDbLine
 10
1193.200000000005
 20
19.99999999999978
 30
0.0
 11
1210.199999999983
 21
19.99999999999978
 31
0.0
  0
LINE
  5
15618
330
1F
100
AcDbEntity
  8
0
  6
Continuous
 62
     7
 48
0.5
370
    -3
100
AcDbLine
 10
1276.4
 20
2.999999999999786
 30
0.0
 11
1238.7
 21
2.999999999999786
 31
0.0
  0
ARC
  5
15619
330
1F
100
AcDbEntity
  8
0
  6
Continuous
 62
     7
 48
0.5
370
    -3
100
AcDbCircle
 10
1238.7
 20
6.499999999999786
 30
0.0
 40
3.5
100
AcDbArc
 50
180.0
 51
270.0
  0
LINE
  5
1561A
330
1F
100
AcDbEntity
  8
0
  6
Continuous
 62
     7
 48
0.5
370
    -3
100
AcDbLine
 10
1276.4
 20
126.9999999999998
 30
0.0
 11
1238.7
 21
126.9999999999998
 31
0.0
  0
ARC
  5
1561B
330
1F
100
AcDbEntity
  8
0
  6
Continuous
 62
     7
 48
0.5
370
    -3
100
AcDbCircle
 10
1238.7
 20
123.4999999999997
 30
0.0
 40
3.5
100
AcDbArc
 50
90.0
 51
180.0
  0
LINE
  5
1561C
330
1F
100
AcDbEntity
  8
0
  6
Continuous
 62
     7
 48
0.5
370
    -3
100
AcDbLine
 10
1235.2
 20
6.499999999999786
 30
0.0
 11
1235.2
 21
123.4999999999997
 31
0.0
  0
ARC
  5
15635
330
1F
100
AcDbEntity
  8
0
  6
Continuous
 62
     7
 48
0.5
370
    -3
100
AcDbCircle
 10
1267.400000000044
 20
55.25000000001729
 30
0.0
 40
4.5
100
AcDbArc
 50
180.0000000000586
 51
270.0000000000521
  0
LINE
  5
15636
330
1F
100
AcDbEntity
  8
0
  6
Continuous
 62
     7
 48
0.5
370
    -3
100
AcDbLine
 10
1260.400000000056
 20
43.00000000001047
 30
0.0
 11
1276.4
 21
43.00000000002661
 31
0.0
  0
LINE
  5
15638
330
1F
100
AcDbEntity
  8
0
  6
Continuous
 62
     7
 48
0.5
370
    -3
100
AcDbLine
 10
1267.400000000048
 20
50.75000000001729
 30
0.0
 11
1276.4
 21
50.75000000002713
 31
0.0
  0
ARC
  5
1563A
330
1F
100
AcDbEntity
  8
0
  6
Continuous
 62
     7
 48
0.5
370
    -3
100
AcDbCircle
 10
1260.40000000005
 20
49.00000000001025
 30
0.0
 40
6.0
100
AcDbArc
 50
180.0000000000586
 51
270.0000000000521
  0
ARC
  5
1563B
330
1F
100
AcDbEntity
  8
0
  6
Continuous
 62
     7
 48
0.5
370
    -3
100
AcDbCircle
 10
1260.400000000034
 20
80.9999999999759
 30
0.0
 40
6.0
100
AcDbArc
 50
90.0
 51
180.0
  0
LINE
  5
1563D
330
1F
100
AcDbEntity
  8
0
  6
Continuous
 62
     7
 48
0.5
370
    -3
100
AcDbLine
 10
1267.400000000034
 20
79.24999999997591
 30
0.0
 11
1276.4
 21
79.24999999997512
 31
0.0
  0
LINE
  5
1563F
330
1F
100
AcDbEntity
  8
0
  6
Continuous
 62
     7
 48
0.5
370
    -3
100
AcDbLine
 10
1260.400000000034
 20
86.99999999997592
 30
0.0
 11
1276.4
 21
86.99999999997551
 31
0.0
  0
ARC
  5
15640
330
1F
100
AcDbEntity
  8
0
  6
Continuous
 62
     7
 48
0.5
370
    -3
100
AcDbCircle
 10
1267.400000000034
 20
74.74999999997591
 30
0.0
 40
4.5
100
AcDbArc
 50
90.0
 51
180.0
  0
LINE
  5
15641
330
1F
100
AcDbEntity
  8
0
  6
Continuous
 62
     7
 48
0.5
370
    -3
100
AcDbLine
 10
1254.400000000034
 20
49.00000000001025
 30
0.0
 11
1254.400000000034
 21
80.9999999999759
 31
0.0
  0
LINE
  5
15642
330
1F
100
AcDbEntity
  8
0
  6
Continuous
 62
     7
 48
0.5
370
    -3
100
AcDbLine
 10
1262.900000000034
 20
55.25000000001718
 30
0.0
 11
1262.900000000034
 21
74.74999999997591
 31
0.0
  0
LINE
  5
15690
330
1F
100
AcDbEntity
  8
0
  6
Continuous
 62
     7
 48
0.5
370
    -3
100
AcDbLine
 10
1072.6
 20
13.29999999999974
 30
0.0
 11
1072.6
 21
12.69999999999983
 31
0.0
  0
ARC
  5
15691
330
1F
100
AcDbEntity
  8
0
  6
Continuous
 62
     7
 48
0.5
370
    -3
100
AcDbCircle
 10
1067.8
 20
15.39999999999976
 30
0.0
 40
2.099999999999994
100
AcDbArc
 50
270.0
 51
0.0
  0
LINE
  5
15692
330
1F
100
AcDbEntity
  8
0
  6
Continuous
 62
     7
 48
0.5
370
    -3
100
AcDbLine
 10
1067.8
 20
13.29999999999974
 30
0.0
 11
1067.8
 21
12.69999999999983
 31
0.0
  0
LINE
  5
15693
330
1F
100
AcDbEntity
  8
0
  6
Continuous
 62
     7
 48
0.5
370
    -3
100
AcDbLine
 10
1069.9
 20
15.39999999999976
 30
0.0
 11
1070.5
 21
15.39999999999988
 31
0.0
  0
LINE
  5
15694
330
1F
100
AcDbEntity
  8
0
  6
Continuous
 62
     7
 48
0.5
370
    -3
100
AcDbLine
 10
1069.9
 20
10.59999999999981
 30
0.0
 11
1070.5
 21
10.59999999999969
 31
0.0
  0
ARC
  5
15695
330
1F
100
AcDbEntity
  8
0
  6
Continuous
 62
     7
 48
0.5
370
    -3
100
AcDbCircle
 10
1067.8
 20
10.59999999999981
 30
0.0
 40
2.099999999999994
100
AcDbArc
 50
0.0
 51
90.0
  0
ARC
  5
15696
330
1F
100
AcDbEntity
  8
0
  6
Continuous
 62
     7
 48
0.5
370
    -3
100
AcDbCircle
 10
1072.6
 20
10.59999999999981
 30
0.0
 40
2.099999999999994
100
AcDbArc
 50
90.0
 51
180.0
  0
ARC
  5
15697
330
1F
100
AcDbEntity
  8
0
  6
Continuous
 62
     7
 48
0.5
370
    -3
100
AcDbCircle
 10
1072.6
 20
15.39999999999976
 30
0.0
 40
2.099999999999994
100
AcDbArc
 50
180.0
 51
270.0
  0
CIRCLE
  5
15698
330
1F
100
AcDbEntity
  8
0
  6
Continuous
 62
     7
 48
0.5
370
    -3
100
AcDbCircle
 10
1070.2
 20
12.99999999999978
 30
0.0
 40
4.0
  0
LINE
  5
15699
330
1F
100
AcDbEntity
  8
0
  6
Continuous
 62
     7
 48
0.5
370
    -3
100
AcDbLine
 10
1212.6
 20
13.29999999999974
 30
0.0
 11
1212.6
 21
12.69999999999983
 31
0.0
  0
ARC
  5
1569A
330
1F
100
AcDbEntity
  8
0
  6
Continuous
 62
     7
 48
0.5
370
    -3
100
AcDbCircle
 10
1207.8
 20
15.39999999999976
 30
0.0
 40
2.099999999999994
100
AcDbArc
 50
270.0
 51
0.0
  0
LINE
  5
1569B
330
1F
100
AcDbEntity
  8
0
  6
Continuous
 62
     7
 48
0.5
370
    -3
100
AcDbLine
 10
1207.8
 20
13.29999999999974
 30
0.0
 11
1207.8
 21
12.69999999999983
 31
0.0
  0
LINE
  5
1569C
330
1F
100
AcDbEntity
  8
0
  6
Continuous
 62
     7
 48
0.5
370
    -3
100
AcDbLine
 10
1209.9
 20
15.39999999999976
 30
0.0
 11
1210.5
 21
15.39999999999988
 31
0.0
  0
LINE
  5
1569D
330
1F
100
AcDbEntity
  8
0
  6
Continuous
 62
     7
 48
0.5
370
    -3
100
AcDbLine
 10
1209.9
 20
10.59999999999981
 30
0.0
 11
1210.5
 21
10.59999999999969
 31
0.0
  0
ARC
  5
1569E
330
1F
100
AcDbEntity
  8
0
  6
Continuous
 62
     7
 48
0.5
370
    -3
100
AcDbCircle
 10
1207.8
 20
10.59999999999981
 30
0.0
 40
2.099999999999994
100
AcDbArc
 50
0.0
 51
90.0
  0
ARC
  5
1569F
330
1F
100
AcDbEntity
  8
0
  6
Continuous
 62
     7
 48
0.5
370
    -3
100
AcDbCircle
 10
1212.6
 20
10.59999999999981
 30
0.0
 40
2.099999999999994
100
AcDbArc
 50
90.0
 51
180.0
  0
ARC
  5
156A0
330
1F
100
AcDbEntity
  8
0
  6
Continuous
 62
     7
 48
0.5
370
    -3
100
AcDbCircle
 10
1212.6
 20
15.39999999999976
 30
0.0
 40
2.099999999999994
100
AcDbArc
 50
180.0
 51
270.0
  0
CIRCLE
  5
156A1
330
1F
100
AcDbEntity
  8
0
  6
Continuous
 62
     7
 48
0.5
370
    -3
100
AcDbCircle
 10
1210.2
 20
12.99999999999978
 30
0.0
 40
4.0
  0
LINE
  5
156A2
330
1F
100
AcDbEntity
  8
0
  6
Continuous
 62
     7
 48
0.5
370
    -3
100
AcDbLine
 10
1212.6
 20
117.2999999999997
 30
0.0
 11
1212.6
 21
116.6999999999998
 31
0.0
  0
ARC
  5
156A3
330
1F
100
AcDbEntity
  8
0
  6
Continuous
 62
     7
 48
0.5
370
    -3
100
AcDbCircle
 10
1207.8
 20
119.3999999999997
 30
0.0
 40
2.099999999999994
100
AcDbArc
 50
270.0
 51
0.0
  0
LINE
  5
156A4
330
1F
100
AcDbEntity
  8
0
  6
Continuous
 62
     7
 48
0.5
370
    -3
100
AcDbLine
 10
1207.8
 20
117.2999999999997
 30
0.0
 11
1207.8
 21
116.6999999999998
 31
0.0
  0
LINE
  5
156A5
330
1F
100
AcDbEntity
  8
0
  6
Continuous
 62
     7
 48
0.5
370
    -3
100
AcDbLine
 10
1209.9
 20
119.3999999999997
 30
0.0
 11
1210.5
 21
119.3999999999999
 31
0.0
  0
LINE
  5
156A6
330
1F
100
AcDbEntity
  8
0
  6
Continuous
 62
     7
 48
0.5
370
    -3
100
AcDbLine
 10
1209.9
 20
114.5999999999998
 30
0.0
 11
1210.5
 21
114.5999999999997
 31
0.0
  0
ARC
  5
156A7
330
1F
100
AcDbEntity
  8
0
  6
Continuous
 62
     7
 48
0.5
370
    -3
100
AcDbCircle
 10
1207.8
 20
114.5999999999998
 30
0.0
 40
2.099999999999994
100
AcDbArc
 50
0.0
 51
90.0
  0
ARC
  5
156A8
330
1F
100
AcDbEntity
  8
0
  6
Continuous
 62
     7
 48
0.5
370
    -3
100
AcDbCircle
 10
1212.6
 20
114.5999999999998
 30
0.0
 40
2.099999999999994
100
AcDbArc
 50
90.0
 51
180.0
  0
ARC
  5
156A9
330
1F
100
AcDbEntity
  8
0
  6
Continuous
 62
     7
 48
0.5
370
    -3
100
AcDbCircle
 10
1212.6
 20
119.3999999999997
 30
0.0
 40
2.099999999999994
100
AcDbArc
 50
180.0
 51
270.0
  0
CIRCLE
  5
156AA
330
1F
100
AcDbEntity
  8
0
  6
Continuous
 62
     7
 48
0.5
370
    -3
100
AcDbCircle
 10
1210.2
 20
116.9999999999998
 30
0.0
 40
4.0
  0
LINE
  5
156AB
330
1F
100
AcDbEntity
  8
0
  6
Continuous
 62
     7
 48
0.5
370
    -3
100
AcDbLine
 10
1072.6
 20
117.2999999999997
 30
0.0
 11
1072.6
 21
116.6999999999998
 31
0.0
  0
ARC
  5
156AC
330
1F
100
AcDbEntity
  8
0
  6
Continuous
 62
     7
 48
0.5
370
    -3
100
AcDbCircle
 10
1067.8
 20
119.3999999999997
 30
0.0
 40
2.099999999999994
100
AcDbArc
 50
270.0
 51
0.0
  0
LINE
  5
156AD
330
1F
100
AcDbEntity
  8
0
  6
Continuous
 62
     7
 48
0.5
370
    -3
100
AcDbLine
 10
1067.8
 20
117.2999999999997
 30
0.0
 11
1067.8
 21
116.6999999999998
 31
0.0
  0
LINE
  5
156AE
330
1F
100
AcDbEntity
  8
0
  6
Continuous
 62
     7
 48
0.5
370
    -3
100
AcDbLine
 10
1069.9
 20
119.3999999999997
 30
0.0
 11
1070.5
 21
119.3999999999999
 31
0.0
  0
LINE
  5
156AF
330
1F
100
AcDbEntity
  8
0
  6
Continuous
 62
     7
 48
0.5
370
    -3
100
AcDbLine
 10
1069.9
 20
114.5999999999998
 30
0.0
 11
1070.5
 21
114.5999999999997
 31
0.0
  0
ARC
  5
156B0
330
1F
100
AcDbEntity
  8
0
  6
Continuous
 62
     7
 48
0.5
370
    -3
100
AcDbCircle
 10
1067.8
 20
114.5999999999998
 30
0.0
 40
2.099999999999994
100
AcDbArc
 50
0.0
 51
90.0
  0
ARC
  5
156B1
330
1F
100
AcDbEntity
  8
0
  6
Continuous
 62
     7
 48
0.5
370
    -3
100
AcDbCircle
 10
1072.6
 20
114.5999999999998
 30
0.0
 40
2.099999999999994
100
AcDbArc
 50
90.0
 51
180.0
  0
ARC
  5
156B2
330
1F
100
AcDbEntity
  8
0
  6
Continuous
 62
     7
 48
0.5
370
    -3
100
AcDbCircle
 10
1072.6
 20
119.3999999999997
 30
0.0
 40
2.099999999999994
100
AcDbArc
 50
180.0
 51
270.0
  0
CIRCLE
  5
156B3
330
1F
100
AcDbEntity
  8
0
  6
Continuous
 62
     7
 48
0.5
370
    -3
100
AcDbCircle
 10
1070.2
 20
116.9999999999998
 30
0.0
 40
4.0
  0
CIRCLE
  5
1574F
330
1F
100
AcDbEntity
  8
0
  6
Continuous
 62
     7
 48
0.5
370
    -3
100
AcDbCircle
 10
1200.2
 20
27.50000000000002
 30
0.0
 40
2.5
  0
CIRCLE
  5
15750
330
1F
100
AcDbEntity
  8
0
  6
Continuous
 62
     7
 48
0.5
370
    -3
100
AcDbCircle
 10
1200.2
 20
102.5
 30
0.0
 40
2.5
  0
CIRCLE
  5
15751
330
1F
100
AcDbEntity
  8
0
  6
Continuous
 62
     7
 48
0.5
370
    -3
100
AcDbCircle
 10
1080.2
 20
27.4999999999999
 30
0.0
 40
2.5
  0
CIRCLE
  5
15752
330
1F
100
AcDbEntity
  8
0
  6
Continuous
 62
     7
 48
0.5
370
    -3
100
AcDbCircle
 10
1080.2
 20
102.4999999999999
 30
0.0
 40
2.5
  0
LINE
  5
1575C
330
1F
100
AcDbEntity
  8
0
  6
CENTER2
 62
     2
 48
0.5
370
    -3
100
AcDbLine
 10
1232.2
 20
64.9994360198232
 30
0.0
 11
1279.4
 21
64.99943601982313
 31
0.0
  0
LINE
  5
15764
330
1F
100
AcDbEntity
  8
0
  6
Continuous
 62
     7
 48
0.5
370
    -3
100
AcDbLine
 10
1276.4
 20
126.9999999999998
 30
0.0
 11
1276.4
 21
2.999999999999786
 31
0.0
  0
LINE
  5
1594D
330
1F
100
AcDbEntity
  8
0
  6
Continuous
 62
     7
 48
0.5
370
    -3
100
AcDbLine
 10
1055.199999999998
 20
178.1999999999997
 30
0.0
 11
1055.199999999998
 21
140.4999999999998
 31
0.0
  0
ARC
  5
1594E
330
1F
100
AcDbEntity
  8
0
  6
Continuous
 62
     7
 48
0.5
370
    -3
100
AcDbCircle
 10
1058.699999999998
 20
140.4999999999998
 30
0.0
 40
3.5
100
AcDbArc
 50
180.0
 51
270.0
  0
LINE
  5
1594F
330
1F
100
AcDbEntity
  8
0
  6
Continuous
 62
     7
 48
0.5
370
    -3
100
AcDbLine
 10
1058.699999999998
 20
136.9999999999997
 30
0.0
 11
1221.699999999998
 21
136.9999999999997
 31
0.0
  0
LINE
  5
15960
330
1F
100
AcDbEntity
  8
0
  6
Continuous
 62
     7
 48
0.5
370
    -3
100
AcDbLine
 10
1149.94999999997
 20
164.7000000000241
 30
0.0
 11
1130.450000000012
 21
164.7000000000436
 31
0.0
  0
LINE
  5
15961
330
1F
100
AcDbEntity
  8
0
  6
Continuous
 62
     7
 48
0.5
370
    -3
100
AcDbLine
 10
1156.199999999985
 20
156.2000000000179
 30
0.0
 11
1124.200000000004
 21
156.2000000000498
 31
0.0
  0
ARC
  5
15962
330
1F
100
AcDbEntity
  8
0
  6
Continuous
 62
     7
 48
0.5
370
    -3
100
AcDbCircle
 10
1130.450000000016
 20
169.2000000000436
 30
0.0
 40
4.5
100
AcDbArc
 50
179.9999999999479
 51
269.9999999999349
  0
LINE
  5
15963
330
1F
100
AcDbEntity
  8
0
  6
Continuous
 62
     7
 48
0.5
370
    -3
100
AcDbLine
 10
1118.20000000001
 20
162.2000000000557
 30
0.0
 11
1118.200000000026
 21
178.1999999999997
 31
0.0
  0
LINE
  5
15965
330
1F
100
AcDbEntity
  8
0
  6
Continuous
 62
     7
 48
0.5
370
    -3
100
AcDbLine
 10
1125.950000000016
 20
169.2000000000479
 30
0.0
 11
1125.950000000026
 21
178.1999999999997
 31
0.0
  0
ARC
  5
15967
330
1F
100
AcDbEntity
  8
0
  6
Continuous
 62
     7
 48
0.5
370
    -3
100
AcDbCircle
 10
1124.200000000009
 20
162.2000000000498
 30
0.0
 40
6.0
100
AcDbArc
 50
179.9999999999479
 51
269.9999999999349
  0
LINE
  5
1596A
330
1F
100
AcDbEntity
  8
0
  6
Continuous
 62
     7
 48
0.5
370
    -3
100
AcDbLine
 10
1154.449999999975
 20
169.2000000000339
 30
0.0
 11
1154.449999999975
 21
178.1999999999997
 31
0.0
  0
ARC
  5
1596D
330
1F
100
AcDbEntity
  8
0
  6
Continuous
 62
     7
 48
0.5
370
    -3
100
AcDbCircle
 10
1149.949999999975
 20
169.2000000000339
 30
0.0
 40
4.5
100
AcDbArc
 50
270.0
 51
0.0
  0
LINE
  5
15973
330
1F
100
AcDbEntity
  8
0
  6
CENTER2
 62
     2
 48
0.5
370
    -3
100
AcDbLine
 10
1140.199999999998
 20
133.9999999999998
 30
0.0
 11
1140.2
 21
181.1999999999997
 31
0.0
  0
LINE
  5
1597F
330
1F
100
AcDbEntity
  8
0
  6
Continuous
 62
     7
 48
0.5
370
    -3
100
AcDbLine
 10
1140.2
 20
178.2000000000409
 30
0.0
 11
1214.95
 21
178.2000000000409
 31
0.0
  0
LINE
  5
159FA
330
1F
100
AcDbEntity
  8
0
  6
Continuous
 62
     7
 48
0.5
370
    -3
100
AcDbLine
 10
1055.199999999998
 20
178.1999999999997
 30
0.0
 11
1225.199999999998
 21
178.1999999999997
 31
0.0
  0
LINE
  5
15A9F
330
1F
100
AcDbEntity
  8
0
  6
Continuous
 62
     7
 48
0.5
370
    -3
100
AcDbLine
 10
1225.200000000002
 20
178.1999999999997
 30
0.0
 11
1225.200000000002
 21
140.4999999999998
 31
0.0
  0
ARC
  5
15AA0
330
1F
100
AcDbEntity
  8
0
  6
Continuous
 62
     7
 48
0.5
370
    -3
100
AcDbCircle
 10
1221.700000000002
 20
140.4999999999998
 30
0.0
 40
3.5
100
AcDbArc
 50
270.0
 51
0.0
  0
LINE
  5
15AA1
330
1F
100
AcDbEntity
  8
0
  6
Continuous
 62
     7
 48
0.5
370
    -3
100
AcDbLine
 10
1162.199999999991
 20
162.2000000000557
 30
0.0
 11
1162.199999999975
 21
178.1999999999997
 31
0.0
  0
ARC
  5
15AA2
330
1F
100
AcDbEntity
  8
0
  6
Continuous
 62
     7
 48
0.5
370
    -3
100
AcDbCircle
 10
1156.199999999991
 20
162.2000000000498
 30
0.0
 40
6.0
100
AcDbArc
 50
270.0000000000782
 51
0.0000000000521102
  0
LINE
  5
15AAE
330
1F
100
AcDbEntity
  8
0
  6
CENTER2
 62
     2
 48
0.5
370
    -3
100
AcDbLine
 10
1140.2
 20
129.9999999999998
 30
0.0
 11
1140.2
 21
-0.0000000000002132
 31
0.0
  0
LINE
  5
15AAF
330
1F
100
AcDbEntity
  8
0
  6
CENTER2
 62
     2
 48
0.5
370
    -3
100
AcDbLine
 10
1052.2
 20
64.99999999999978
 30
0.0
 11
1228.2
 21
64.99999999999978
 31
0.0
  0
MTEXT
  5
15AE2
330
1F
100
AcDbEntity
  8
0
  6
Continuous
 62
     1
 48
0.5
370
    -3
100
AcDbMText
 10
1160.088151875259
 20
-7.999999999999861
 30
0.0
 40
2.5
 41
11.42369624948264
 46
0.0
 71
     1
 72
     5
  1
\pi2.1166;3個用
 73
     1
 44
1.0
1001
ACAD
1000
ACAD_MTEXT_COLUMN_INFO_BEGIN
1070
    75
1070
     2
1070
    79
1070
     0
1070
    76
1070
     1
1070
    78
1070
     0
1070
    48
1040
11.42369624948264
1070
    49
1040
12.5
1070
    50
1070
     1
1040
0.0
1000
ACAD_MTEXT_COLUMN_INFO_END
  0
MTEXT
  5
15AE3
330
1F
100
AcDbEntity
  8
0
  6
Continuous
 62
     1
 48
0.5
370
    -3
100
AcDbMText
 10
1158.146778353401
 20
-15.99999999999988
 30
0.0
 40
2.5
 41
15.30644329319784
 46
0.0
 71
     1
 72
     5
  1
\pi0.81989;AB513□
 73
     1
 44
1.0
1001
ACAD
1000
ACAD_MTEXT_COLUMN_INFO_BEGIN
1070
    75
1070
     2
1070
    79
1070
     0
1070
    76
1070
     1
1070
    78
1070
     0
1070
    48
1040
15.30644329319784
1070
    49
1040
12.5
1070
    50
1070
     1
1040
0.0
1000
ACAD_MTEXT_COLUMN_INFO_END
  0
LINE
  5
15BB8
330
1F
100
AcDbEntity
  8
0
  6
CENTER2
 62
     2
 48
0.5
370
    -3
100
AcDbLine
 10
359.4000000000001
 20
65.00000000000014
 30
0.0
 11
406.6000000000001
 21
65.00000000000008
 31
0.0
  0
LINE
  5
15BB9
330
1F
100
AcDbEntity
  8
0
  6
Continuous
 62
     7
 48
0.5
370
    -3
100
AcDbLine
 10
365.9000000000001
 20
3.000000000000198
 30
0.0
 11
403.6000000000001
 21
3.000000000000198
 31
0.0
  0
LINE
  5
15BBE
330
1F
100
AcDbEntity
  8
0
  6
Continuous
 62
     7
 48
0.5
370
    -3
100
AcDbLine
 10
362.4000000000001
 20
6.500000000000198
 30
0.0
 11
362.4000000000001
 21
123.4999999999999
 31
0.0
  0
ARC
  5
15BBF
330
1F
100
AcDbEntity
  8
0
  6
Continuous
 62
     7
 48
0.5
370
    -3
100
AcDbCircle
 10
365.9000000000001
 20
6.500000000000198
 30
0.0
 40
3.5
100
AcDbArc
 50
180.0
 51
270.0
  0
LINE
  5
15BC0
330
1F
100
AcDbEntity
  8
0
  6
Continuous
 62
     7
 48
0.5
370
    -3
100
AcDbLine
 10
403.6000000000001
 20
126.9999999999999
 30
0.0
 11
403.6000000000001
 21
3.000000000000198
 31
0.0
  0
LINE
  5
15BCA
330
1F
100
AcDbEntity
  8
0
  6
Continuous
 62
     7
 48
0.5
370
    -3
100
AcDbLine
 10
365.9000000000001
 20
126.9999999999999
 30
0.0
 11
403.6000000000001
 21
126.9999999999999
 31
0.0
  0
ARC
  5
15BCB
330
1F
100
AcDbEntity
  8
0
  6
Continuous
 62
     7
 48
0.5
370
    -3
100
AcDbCircle
 10
365.9000000000001
 20
123.4999999999999
 30
0.0
 40
3.5
100
AcDbArc
 50
90.0
 51
180.0
  0
LINE
  5
15BDD
330
1F
100
AcDbEntity
  8
0
  6
CENTER2
 62
     2
 48
0.5
370
    -3
100
AcDbLine
 10
981.0000000000002
 20
64.99999999999978
 30
0.0
 11
1028.2
 21
64.99999999999978
 31
0.0
  0
LINE
  5
15BDE
330
1F
100
AcDbEntity
  8
0
  6
Continuous
 62
     7
 48
0.5
370
    -3
100
AcDbLine
 10
987.5000000000001
 20
126.9999999999998
 30
0.0
 11
1025.2
 21
126.9999999999998
 31
0.0
  0
LINE
  5
15BDF
330
1F
100
AcDbEntity
  8
0
  6
Continuous
 62
     7
 48
0.5
370
    -3
100
AcDbLine
 10
1025.2
 20
2.999999999999786
 30
0.0
 11
1025.2
 21
126.9999999999998
 31
0.0
  0
ARC
  5
15BE0
330
1F
100
AcDbEntity
  8
0
  6
Continuous
 62
     7
 48
0.5
370
    -3
100
AcDbCircle
 10
987.5000000000001
 20
123.4999999999998
 30
0.0
 40
3.5
100
AcDbArc
 50
90.0
 51
180.0
  0
LINE
  5
15BE3
330
1F
100
AcDbEntity
  8
0
  6
Continuous
 62
     7
 48
0.5
370
    -3
100
AcDbLine
 10
984.0000000000001
 20
123.4999999999998
 30
0.0
 11
984.0000000000001
 21
6.499999999999786
 31
0.0
  0
LINE
  5
15BEF
330
1F
100
AcDbEntity
  8
0
  6
Continuous
 62
     7
 48
0.5
370
    -3
100
AcDbLine
 10
987.5000000000001
 20
2.999999999999786
 30
0.0
 11
1025.2
 21
2.999999999999786
 31
0.0
  0
ARC
  5
15BF0
330
1F
100
AcDbEntity
  8
0
  6
Continuous
 62
     7
 48
0.5
370
    -3
100
AcDbCircle
 10
987.5000000000001
 20
6.499999999999786
 30
0.0
 40
3.5
100
AcDbArc
 50
180.0
 51
270.0
  0
CIRCLE
  5
15CCD
330
1F
100
AcDbEntity
  8
0
  6
Continuous
 62
     7
 48
0.5
100
AcDbCircle
 10
-0.0000000000000568
 20
106.75
 30
0.0
 40
1.649999999999977
  0
ARC
  5
15CCE
330
1F
100
AcDbEntity
  8
0
  6
Continuous
 62
     7
 48
0.5
100
AcDbCircle
 10
-0.0000000000000568
 20
106.75
 30
0.0
 40
2.0
100
AcDbArc
 50
69.99999999999658
 51
14.9999999999987
  0
CIRCLE
  5
15CCF
330
1F
100
AcDbEntity
  8
0
  6
Continuous
 62
     7
 48
0.5
100
AcDbCircle
 10
0.0
 20
23.25
 30
0.0
 40
1.649999999999977
  0
ARC
  5
15CD0
330
1F
100
AcDbEntity
  8
0
  6
Continuous
 62
     7
 48
0.5
100
AcDbCircle
 10
0.0
 20
23.25
 30
0.0
 40
2.0
100
AcDbArc
 50
69.99999999999663
 51
14.99999999999868
  0
CIRCLE
  5
15CD1
330
1F
100
AcDbEntity
  8
0
  6
Continuous
 62
     7
 48
0.5
100
AcDbCircle
 10
157.2
 20
106.75
 30
0.0
 40
1.649999999999977
  0
ARC
  5
15CD2
330
1F
100
AcDbEntity
  8
0
  6
Continuous
 62
     7
 48
0.5
100
AcDbCircle
 10
157.2
 20
106.75
 30
0.0
 40
2.0
100
AcDbArc
 50
69.9999999999965
 51
14.99999999999882
  0
CIRCLE
  5
15CD3
330
1F
100
AcDbEntity
  8
0
  6
Continuous
 62
     7
 48
0.5
100
AcDbCircle
 10
157.2
 20
23.25000000000006
 30
0.0
 40
1.649999999999977
  0
ARC
  5
15CD4
330
1F
100
AcDbEntity
  8
0
  6
Continuous
 62
     7
 48
0.5
100
AcDbCircle
 10
157.2
 20
23.25000000000006
 30
0.0
 40
2.0
100
AcDbArc
 50
69.9999999999965
 51
14.9999999999988
  0
CIRCLE
  5
15CD5
330
1F
100
AcDbEntity
  8
0
  6
Continuous
 62
     7
 48
0.5
100
AcDbCircle
 10
314.4000000000001
 20
106.7500000000001
 30
0.0
 40
1.649999999999977
  0
ARC
  5
15CD6
330
1F
100
AcDbEntity
  8
0
  6
Continuous
 62
     7
 48
0.5
100
AcDbCircle
 10
314.4000000000001
 20
106.7500000000001
 30
0.0
 40
2.0
100
AcDbArc
 50
69.9999999999965
 51
14.9999999999984
  0
CIRCLE
  5
15CD7
330
1F
100
AcDbEntity
  8
0
  6
Continuous
 62
     7
 48
0.5
100
AcDbCircle
 10
314.4000000000001
 20
23.25000000000014
 30
0.0
 40
1.649999999999977
  0
ARC
  5
15CD8
330
1F
100
AcDbEntity
  8
0
  6
Continuous
 62
     7
 48
0.5
100
AcDbCircle
 10
314.4000000000001
 20
23.25000000000014
 30
0.0
 40
2.0
100
AcDbArc
 50
69.9999999999965
 51
14.99999999999838
  0
LINE
  5
15CD9
330
1F
100
AcDbEntity
  8
0
  6
Continuous
 62
     7
 48
0.5
370
    -3
100
AcDbLine
 10
478.6000000000001
 20
106.7500000000001
 30
0.0
 11
478.6000000000001
 21
108.0000000000001
 31
0.0
  0
CIRCLE
  5
15CDA
330
1F
100
AcDbEntity
  8
0
  6
Continuous
 62
     7
 48
0.5
100
AcDbCircle
 10
473.6000000000001
 20
106.7500000000001
 30
0.0
 40
1.649999999999977
  0
ARC
  5
15CDB
330
1F
100
AcDbEntity
  8
0
  6
Continuous
 62
     7
 48
0.5
100
AcDbCircle
 10
473.6000000000001
 20
106.7500000000001
 30
0.0
 40
2.0
100
AcDbArc
 50
69.9999999999965
 51
14.99999999999854
  0
CIRCLE
  5
15CDC
330
1F
100
AcDbEntity
  8
0
  6
Continuous
 62
     7
 48
0.5
100
AcDbCircle
 10
473.6000000000002
 20
23.25000000000016
 30
0.0
 40
1.649999999999977
  0
ARC
  5
15CDD
330
1F
100
AcDbEntity
  8
0
  6
Continuous
 62
     7
 48
0.5
100
AcDbCircle
 10
473.6000000000002
 20
23.25000000000016
 30
0.0
 40
2.0
100
AcDbArc
 50
69.9999999999965
 51
14.99999999999852
  0
LINE
  5
15CDE
330
1F
100
AcDbEntity
  8
0
  6
Continuous
 62
     7
 48
0.5
370
    -3
100
AcDbLine
 10
524.6000000000001
 20
106.75
 30
0.0
 11
524.6000000000001
 21
108.0
 31
0.0
  0
CIRCLE
  5
15CDF
330
1F
100
AcDbEntity
  8
0
  6
Continuous
 62
     7
 48
0.5
100
AcDbCircle
 10
519.6000000000001
 20
106.75
 30
0.0
 40
1.649999999999977
  0
ARC
  5
15CE0
330
1F
100
AcDbEntity
  8
0
  6
Continuous
 62
     7
 48
0.5
100
AcDbCircle
 10
519.6000000000001
 20
106.75
 30
0.0
 40
2.0
100
AcDbArc
 50
69.9999999999965
 51
14.99999999999854
  0
CIRCLE
  5
15CE1
330
1F
100
AcDbEntity
  8
0
  6
Continuous
 62
     7
 48
0.5
100
AcDbCircle
 10
519.6000000000001
 20
23.25000000000004
 30
0.0
 40
1.649999999999977
  0
ARC
  5
15CE2
330
1F
100
AcDbEntity
  8
0
  6
Continuous
 62
     7
 48
0.5
100
AcDbCircle
 10
519.6000000000001
 20
23.25000000000004
 30
0.0
 40
2.0
100
AcDbArc
 50
69.9999999999965
 51
14.99999999999852
  0
LINE
  5
15CE3
330
1F
100
AcDbEntity
  8
0
  6
Continuous
 62
     7
 48
0.5
370
    -3
100
AcDbLine
 10
685.8000000000002
 20
106.75
 30
0.0
 11
685.8000000000002
 21
108.0
 31
0.0
  0
CIRCLE
  5
15CE4
330
1F
100
AcDbEntity
  8
0
  6
Continuous
 62
     7
 48
0.5
100
AcDbCircle
 10
680.8000000000001
 20
106.75
 30
0.0
 40
1.649999999999977
  0
ARC
  5
15CE5
330
1F
100
AcDbEntity
  8
0
  6
Continuous
 62
     7
 48
0.5
100
AcDbCircle
 10
680.8000000000001
 20
106.75
 30
0.0
 40
2.0
100
AcDbArc
 50
69.9999999999965
 51
14.99999999999812
  0
CIRCLE
  5
15CE6
330
1F
100
AcDbEntity
  8
0
  6
Continuous
 62
     7
 48
0.5
100
AcDbCircle
 10
680.8000000000001
 20
23.25000000000004
 30
0.0
 40
1.649999999999977
  0
ARC
  5
15CE7
330
1F
100
AcDbEntity
  8
0
  6
Continuous
 62
     7
 48
0.5
100
AcDbCircle
 10
680.8000000000001
 20
23.25000000000004
 30
0.0
 40
2.0
100
AcDbArc
 50
69.9999999999965
 51
14.9999999999981
  0
LINE
  5
15CE8
330
1F
100
AcDbEntity
  8
0
  6
Continuous
 62
     7
 48
0.5
370
    -3
100
AcDbLine
 10
731.8000000000002
 20
106.7499999999999
 30
0.0
 11
731.8000000000002
 21
107.9999999999999
 31
0.0
  0
CIRCLE
  5
15CE9
330
1F
100
AcDbEntity
  8
0
  6
Continuous
 62
     7
 48
0.5
100
AcDbCircle
 10
726.8000000000001
 20
106.7499999999999
 30
0.0
 40
1.649999999999977
  0
ARC
  5
15CEA
330
1F
100
AcDbEntity
  8
0
  6
Continuous
 62
     7
 48
0.5
100
AcDbCircle
 10
726.8000000000001
 20
106.7499999999999
 30
0.0
 40
2.0
100
AcDbArc
 50
69.9999999999965
 51
14.99999999999812
  0
CIRCLE
  5
15CEB
330
1F
100
AcDbEntity
  8
0
  6
Continuous
 62
     7
 48
0.5
100
AcDbCircle
 10
726.8000000000001
 20
23.24999999999993
 30
0.0
 40
1.649999999999977
  0
ARC
  5
15CEC
330
1F
100
AcDbEntity
  8
0
  6
Continuous
 62
     7
 48
0.5
100
AcDbCircle
 10
726.8000000000001
 20
23.24999999999993
 30
0.0
 40
2.0
100
AcDbArc
 50
69.9999999999965
 51
14.9999999999981
  0
LINE
  5
15CED
330
1F
100
AcDbEntity
  8
0
  6
Continuous
 62
     7
 48
0.5
370
    -3
100
AcDbLine
 10
893.0000000000003
 20
106.7499999999999
 30
0.0
 11
893.0000000000003
 21
107.9999999999999
 31
0.0
  0
CIRCLE
  5
15CEE
330
1F
100
AcDbEntity
  8
0
  6
Continuous
 62
     7
 48
0.5
100
AcDbCircle
 10
888.0000000000002
 20
106.7499999999999
 30
0.0
 40
1.649999999999977
  0
ARC
  5
15CEF
330
1F
100
AcDbEntity
  8
0
  6
Continuous
 62
     7
 48
0.5
100
AcDbCircle
 10
888.0000000000002
 20
106.7499999999999
 30
0.0
 40
2.0
100
AcDbArc
 50
69.9999999999965
 51
14.99999999999812
  0
CIRCLE
  5
15CF0
330
1F
100
AcDbEntity
  8
0
  6
Continuous
 62
     7
 48
0.5
100
AcDbCircle
 10
888.0000000000002
 20
23.2499999999999
 30
0.0
 40
1.649999999999977
  0
ARC
  5
15CF1
330
1F
100
AcDbEntity
  8
0
  6
Continuous
 62
     7
 48
0.5
100
AcDbCircle
 10
888.0000000000002
 20
23.2499999999999
 30
0.0
 40
2.0
100
AcDbArc
 50
69.9999999999965
 51
14.9999999999981
  0
LINE
  5
15CF2
330
1F
100
AcDbEntity
  8
0
  6
Continuous
 62
     7
 48
0.5
370
    -3
100
AcDbLine
 10
939.0000000000002
 20
106.7499999999998
 30
0.0
 11
939.0000000000002
 21
107.9999999999998
 31
0.0
  0
CIRCLE
  5
15CF3
330
1F
100
AcDbEntity
  8
0
  6
Continuous
 62
     7
 48
0.5
100
AcDbCircle
 10
934.0000000000001
 20
106.7499999999998
 30
0.0
 40
1.649999999999977
  0
ARC
  5
15CF4
330
1F
100
AcDbEntity
  8
0
  6
Continuous
 62
     7
 48
0.5
100
AcDbCircle
 10
934.0000000000001
 20
106.7499999999998
 30
0.0
 40
2.0
100
AcDbArc
 50
69.9999999999965
 51
14.99999999999812
  0
CIRCLE
  5
15CF5
330
1F
100
AcDbEntity
  8
0
  6
Continuous
 62
     7
 48
0.5
100
AcDbCircle
 10
934.0000000000001
 20
23.24999999999979
 30
0.0
 40
1.649999999999977
  0
ARC
  5
15CF6
330
1F
100
AcDbEntity
  8
0
  6
Continuous
 62
     7
 48
0.5
100
AcDbCircle
 10
934.0000000000001
 20
23.24999999999979
 30
0.0
 40
2.0
100
AcDbArc
 50
69.9999999999965
 51
14.9999999999981
  0
CIRCLE
  5
15CF8
330
1F
100
AcDbEntity
  8
0
  6
Continuous
 62
     7
 48
0.5
100
AcDbCircle
 10
1094.200000000006
 20
106.7499999999984
 30
0.0
 40
1.649999999999977
  0
ARC
  5
15CF9
330
1F
100
AcDbEntity
  8
0
  6
Continuous
 62
     7
 48
0.5
100
AcDbCircle
 10
1094.200000000006
 20
106.7499999999984
 30
0.0
 40
2.0
100
AcDbArc
 50
69.9999999999965
 51
14.99999999999812
  0
CIRCLE
  5
15CFA
330
1F
100
AcDbEntity
  8
0
  6
Continuous
 62
     7
 48
0.5
100
AcDbCircle
 10
1094.200000000006
 20
23.24999999999842
 30
0.0
 40
1.649999999999977
  0
ARC
  5
15CFB
330
1F
100
AcDbEntity
  8
0
  6
Continuous
 62
     7
 48
0.5
100
AcDbCircle
 10
1094.200000000006
 20
23.24999999999842
 30
0.0
 40
2.0
100
AcDbArc
 50
69.9999999999965
 51
14.9999999999981
  0
CIRCLE
  5
15CFD
330
1F
100
AcDbEntity
  8
0
  6
Continuous
 62
     7
 48
0.5
100
AcDbCircle
 10
1140.200000000005
 20
106.7499999999984
 30
0.0
 40
1.649999999999977
  0
ARC
  5
15CFE
330
1F
100
AcDbEntity
  8
0
  6
Continuous
 62
     7
 48
0.5
100
AcDbCircle
 10
1140.200000000005
 20
106.7499999999984
 30
0.0
 40
2.0
100
AcDbArc
 50
69.9999999999965
 51
14.99999999999812
  0
CIRCLE
  5
15CFF
330
1F
100
AcDbEntity
  8
0
  6
Continuous
 62
     7
 48
0.5
100
AcDbCircle
 10
1140.200000000005
 20
23.24999999999842
 30
0.0
 40
1.649999999999977
  0
ARC
  5
15D00
330
1F
100
AcDbEntity
  8
0
  6
Continuous
 62
     7
 48
0.5
100
AcDbCircle
 10
1140.200000000005
 20
23.24999999999842
 30
0.0
 40
2.0
100
AcDbArc
 50
69.9999999999965
 51
14.9999999999981
  0
CIRCLE
  5
15D04
330
1F
100
AcDbEntity
  8
0
  6
Continuous
 62
     7
 48
0.5
100
AcDbCircle
 10
1186.200000000005
 20
23.24999999999842
 30
0.0
 40
1.649999999999977
  0
ARC
  5
15D05
330
1F
100
AcDbEntity
  8
0
  6
Continuous
 62
     7
 48
0.5
100
AcDbCircle
 10
1186.200000000005
 20
23.24999999999842
 30
0.0
 40
2.0
100
AcDbArc
 50
69.9999999999965
 51
14.9999999999981
  0
ARC
  5
15D06
330
1F
100
AcDbEntity
  8
0
  6
Continuous
 62
     7
 48
0.5
100
AcDbCircle
 10
751.3000000000001
 20
14.99999999999993
 30
0.0
 40
2.0
100
AcDbArc
 50
69.9999999999965
 51
14.9999999999981
  0
ARC
  5
15D07
330
1F
100
AcDbEntity
  8
0
  6
Continuous
 62
     7
 48
0.5
100
AcDbCircle
 10
656.3000000000002
 20
15.00000000000004
 30
0.0
 40
2.0
100
AcDbArc
 50
69.9999999999965
 51
14.99999999999805
  0
ARC
  5
15D08
330
1F
100
AcDbEntity
  8
0
  6
Continuous
 62
     7
 48
0.5
100
AcDbCircle
 10
656.3000000000002
 20
115.0
 30
0.0
 40
2.0
100
AcDbArc
 50
69.99999999999658
 51
14.99999999999781
  0
ARC
  5
15D09
330
1F
100
AcDbEntity
  8
0
  6
Continuous
 62
     7
 48
0.5
100
AcDbCircle
 10
751.3000000000001
 20
114.9999999999999
 30
0.0
 40
2.0
100
AcDbArc
 50
69.99999999999658
 51
14.99999999999786
  0
ARC
  5
15D0A
330
1F
100
AcDbEntity
  8
0
  6
Continuous
 62
     7
 48
0.5
100
AcDbCircle
 10
544.1000000000001
 20
115.0
 30
0.0
 40
2.0
100
AcDbArc
 50
69.99999999999658
 51
14.99999999999802
  0
ARC
  5
15D0B
330
1F
100
AcDbEntity
  8
0
  6
Continuous
 62
     7
 48
0.5
100
AcDbCircle
 10
449.1000000000001
 20
115.0000000000001
 30
0.0
 40
2.0
100
AcDbArc
 50
69.99999999999658
 51
14.9999999999976
  0
ARC
  5
15D0C
330
1F
100
AcDbEntity
  8
0
  6
Continuous
 62
     7
 48
0.5
100
AcDbCircle
 10
449.1000000000001
 20
15.00000000000015
 30
0.0
 40
2.0
100
AcDbArc
 50
69.9999999999965
 51
14.99999999999784
  0
ARC
  5
15D0D
330
1F
100
AcDbEntity
  8
0
  6
Continuous
 62
     7
 48
0.5
100
AcDbCircle
 10
544.1000000000001
 20
15.00000000000004
 30
0.0
 40
2.0
100
AcDbArc
 50
69.9999999999965
 51
14.99999999999826
  0
ARC
  5
15D15
330
1F
100
AcDbEntity
  8
0
  6
Continuous
 62
     7
 48
0.5
370
    -3
100
AcDbCircle
 10
1186.200000000005
 20
23.24999999999842
 30
0.0
 40
5.0
100
AcDbArc
 50
0.0
 51
180.0
  0
LINE
  5
15D16
330
1F
100
AcDbEntity
  8
0
  6
Continuous
 62
     7
 48
0.5
370
    -3
100
AcDbLine
 10
1191.200000000005
 20
23.24999999999842
 30
0.0
 11
1191.200000000005
 21
21.99999999999842
 31
0.0
  0
ARC
  5
15D17
330
1F
100
AcDbEntity
  8
0
  6
Continuous
 62
     7
 48
0.5
370
    -3
100
AcDbCircle
 10
1193.200000000005
 20
21.99999999999842
 30
0.0
 40
2.0
100
AcDbArc
 50
180.0
 51
270.0
  0
LINE
  5
15D18
330
1F
100
AcDbEntity
  8
0
  6
Continuous
 62
     7
 48
0.5
370
    -3
100
AcDbLine
 10
1181.200000000005
 20
23.24999999999842
 30
0.0
 11
1181.200000000005
 21
21.99999999999842
 31
0.0
  0
ARC
  5
15D19
330
1F
100
AcDbEntity
  8
0
  6
Continuous
 62
     7
 48
0.5
370
    -3
100
AcDbCircle
 10
1179.200000000005
 20
21.99999999999842
 30
0.0
 40
2.0
100
AcDbArc
 50
270.0
 51
0.0
  0
ARC
  5
15D1A
330
1F
100
AcDbEntity
  8
0
  6
Continuous
 62
     7
 48
0.5
370
    -3
100
AcDbCircle
 10
1140.200000000005
 20
23.24999999999842
 30
0.0
 40
5.0
100
AcDbArc
 50
0.0
 51
180.0
  0
LINE
  5
15D1B
330
1F
100
AcDbEntity
  8
0
  6
Continuous
 62
     7
 48
0.5
370
    -3
100
AcDbLine
 10
1145.200000000005
 20
23.24999999999842
 30
0.0
 11
1145.200000000005
 21
21.99999999999842
 31
0.0
  0
ARC
  5
15D1C
330
1F
100
AcDbEntity
  8
0
  6
Continuous
 62
     7
 48
0.5
370
    -3
100
AcDbCircle
 10
1147.200000000005
 20
21.99999999999842
 30
0.0
 40
2.0
100
AcDbArc
 50
180.0
 51
270.0
  0
LINE
  5
15D1D
330
1F
100
AcDbEntity
  8
0
  6
Continuous
 62
     7
 48
0.5
370
    -3
100
AcDbLine
 10
1135.200000000005
 20
23.24999999999842
 30
0.0
 11
1135.200000000005
 21
21.99999999999842
 31
0.0
  0
ARC
  5
15D1E
330
1F
100
AcDbEntity
  8
0
  6
Continuous
 62
     7
 48
0.5
370
    -3
100
AcDbCircle
 10
1133.200000000005
 20
21.99999999999842
 30
0.0
 40
2.0
100
AcDbArc
 50
270.0
 51
0.0
  0
ARC
  5
15D1F
330
1F
100
AcDbEntity
  8
0
  6
Continuous
 62
     7
 48
0.5
370
    -3
100
AcDbCircle
 10
1094.200000000006
 20
23.24999999999842
 30
0.0
 40
5.0
100
AcDbArc
 50
0.0
 51
180.0
  0
LINE
  5
15D20
330
1F
100
AcDbEntity
  8
0
  6
Continuous
 62
     7
 48
0.5
370
    -3
100
AcDbLine
 10
1099.200000000005
 20
23.24999999999842
 30
0.0
 11
1099.200000000005
 21
21.99999999999842
 31
0.0
  0
ARC
  5
15D21
330
1F
100
AcDbEntity
  8
0
  6
Continuous
 62
     7
 48
0.5
370
    -3
100
AcDbCircle
 10
1101.200000000005
 20
21.99999999999842
 30
0.0
 40
2.0
100
AcDbArc
 50
180.0
 51
270.0
  0
LINE
  5
15D22
330
1F
100
AcDbEntity
  8
0
  6
Continuous
 62
     7
 48
0.5
370
    -3
100
AcDbLine
 10
1089.200000000006
 20
23.24999999999842
 30
0.0
 11
1089.200000000006
 21
21.99999999999842
 31
0.0
  0
ARC
  5
15D23
330
1F
100
AcDbEntity
  8
0
  6
Continuous
 62
     7
 48
0.5
370
    -3
100
AcDbCircle
 10
1087.200000000005
 20
21.99999999999842
 30
0.0
 40
2.0
100
AcDbArc
 50
270.0
 51
0.0
  0
LINE
  5
15D27
330
1F
100
AcDbEntity
  8
0
  6
Continuous
 62
     7
 48
0.5
370
    -3
100
AcDbLine
 10
1147.200000000005
 20
109.9999999999998
 30
0.0
 11
1179.200000000005
 21
109.9999999999998
 31
0.0
  0
LINE
  5
15D28
330
1F
100
AcDbEntity
  8
0
  6
Continuous
 62
     7
 48
0.5
370
    -3
100
AcDbLine
 10
1101.200000000005
 20
109.9999999999998
 30
0.0
 11
1133.200000000005
 21
109.9999999999998
 31
0.0
  0
LINE
  5
15D29
330
1F
100
AcDbEntity
  8
0
  6
Continuous
 62
     7
 48
0.5
370
    -3
100
AcDbLine
 10
1070.200000000017
 20
109.9999999999998
 30
0.0
 11
1087.200000000005
 21
109.9999999999998
 31
0.0
  0
LINE
  5
15D2A
330
1F
100
AcDbEntity
  8
0
  6
Continuous
 62
     7
 48
0.5
370
    -3
100
AcDbLine
 10
1193.200000000005
 20
109.9999999999998
 30
0.0
 11
1210.199999999983
 21
109.9999999999998
 31
0.0
  0
ARC
  5
15D2B
330
1F
100
AcDbEntity
  8
0
  6
Continuous
 62
     7
 48
0.5
370
    -3
100
AcDbCircle
 10
1186.200000000005
 20
106.7500000000011
 30
0.0
 40
5.0
100
AcDbArc
 50
180.0
 51
0.0
  0
LINE
  5
15D2C
330
1F
100
AcDbEntity
  8
0
  6
Continuous
 62
     7
 48
0.5
370
    -3
100
AcDbLine
 10
1191.200000000005
 20
106.7500000000011
 30
0.0
 11
1191.200000000005
 21
108.0000000000011
 31
0.0
  0
ARC
  5
15D2D
330
1F
100
AcDbEntity
  8
0
  6
Continuous
 62
     7
 48
0.5
370
    -3
100
AcDbCircle
 10
1193.200000000005
 20
108.0000000000011
 30
0.0
 40
2.0
100
AcDbArc
 50
90.00000000000003
 51
180.0
  0
LINE
  5
15D2E
330
1F
100
AcDbEntity
  8
0
  6
Continuous
 62
     7
 48
0.5
370
    -3
100
AcDbLine
 10
1181.200000000005
 20
106.7500000000011
 30
0.0
 11
1181.200000000005
 21
108.0000000000011
 31
0.0
  0
ARC
  5
15D2F
330
1F
100
AcDbEntity
  8
0
  6
Continuous
 62
     7
 48
0.5
370
    -3
100
AcDbCircle
 10
1179.200000000005
 20
108.0000000000011
 30
0.0
 40
2.0
100
AcDbArc
 50
0.0
 51
90.00000000000003
  0
ARC
  5
15D30
330
1F
100
AcDbEntity
  8
0
  6
Continuous
 62
     7
 48
0.5
370
    -3
100
AcDbCircle
 10
1140.200000000005
 20
106.7500000000011
 30
0.0
 40
5.0
100
AcDbArc
 50
180.0
 51
0.0
  0
LINE
  5
15D31
330
1F
100
AcDbEntity
  8
0
  6
Continuous
 62
     7
 48
0.5
370
    -3
100
AcDbLine
 10
1145.200000000005
 20
106.7500000000011
 30
0.0
 11
1145.200000000005
 21
108.0000000000011
 31
0.0
  0
ARC
  5
15D32
330
1F
100
AcDbEntity
  8
0
  6
Continuous
 62
     7
 48
0.5
370
    -3
100
AcDbCircle
 10
1147.200000000005
 20
108.0000000000011
 30
0.0
 40
2.0
100
AcDbArc
 50
90.00000000000003
 51
180.0
  0
LINE
  5
15D33
330
1F
100
AcDbEntity
  8
0
  6
Continuous
 62
     7
 48
0.5
370
    -3
100
AcDbLine
 10
1135.200000000005
 20
106.7500000000011
 30
0.0
 11
1135.200000000005
 21
108.0000000000011
 31
0.0
  0
ARC
  5
15D34
330
1F
100
AcDbEntity
  8
0
  6
Continuous
 62
     7
 48
0.5
370
    -3
100
AcDbCircle
 10
1133.200000000005
 20
108.0000000000011
 30
0.0
 40
2.0
100
AcDbArc
 50
0.0
 51
90.00000000000003
  0
ARC
  5
15D35
330
1F
100
AcDbEntity
  8
0
  6
Continuous
 62
     7
 48
0.5
370
    -3
100
AcDbCircle
 10
1094.200000000006
 20
106.7500000000011
 30
0.0
 40
5.0
100
AcDbArc
 50
180.0
 51
0.0
  0
LINE
  5
15D36
330
1F
100
AcDbEntity
  8
0
  6
Continuous
 62
     7
 48
0.5
370
    -3
100
AcDbLine
 10
1099.200000000005
 20
106.7500000000011
 30
0.0
 11
1099.200000000005
 21
108.0000000000011
 31
0.0
  0
ARC
  5
15D37
330
1F
100
AcDbEntity
  8
0
  6
Continuous
 62
     7
 48
0.5
370
    -3
100
AcDbCircle
 10
1101.200000000005
 20
108.0000000000011
 30
0.0
 40
2.0
100
AcDbArc
 50
90.00000000000003
 51
180.0
  0
LINE
  5
15D38
330
1F
100
AcDbEntity
  8
0
  6
Continuous
 62
     7
 48
0.5
370
    -3
100
AcDbLine
 10
1089.200000000006
 20
106.7500000000011
 30
0.0
 11
1089.200000000006
 21
108.0000000000011
 31
0.0
  0
ARC
  5
15D39
330
1F
100
AcDbEntity
  8
0
  6
Continuous
 62
     7
 48
0.5
370
    -3
100
AcDbCircle
 10
1087.200000000005
 20
108.0000000000011
 30
0.0
 40
2.0
100
AcDbArc
 50
0.0
 51
90.00000000000003
  0
CIRCLE
  5
15D3A
330
1F
100
AcDbEntity
  8
0
  6
Continuous
 62
     7
 48
0.5
100
AcDbCircle
 10
1186.200000000005
 20
106.7500000000011
 30
0.0
 40
1.649999999999977
  0
ARC
  5
15D3B
330
1F
100
AcDbEntity
  8
0
  6
Continuous
 62
     7
 48
0.5
100
AcDbCircle
 10
1186.200000000005
 20
106.7500000000011
 30
0.0
 40
2.0
100
AcDbArc
 50
69.99999999999658
 51
14.99999999999786
  0
CIRCLE
  5
15D3C
330
1F
100
AcDbEntity
  8
0
  6
Continuous
 62
     7
 48
0.5
370
    -3
100
AcDbCircle
 10
1140.2
 20
64.99999999999985
 30
0.0
 40
17.25
  0
LINE
  5
15DAA
330
1F
100
AcDbEntity
  8
0
 48
0.5
370
    -3
100
AcDbLine
 10
179.2
 20
100.0
 30
0.0
 11
177.1999999999999
 21
100.0
 31
0.0
  0
LINE
  5
15DAB
330
1F
100
AcDbEntity
  8
0
 48
0.5
370
    -3
100
AcDbLine
 10
179.2
 20
95.00000000000005
 30
0.0
 11
177.1999999999999
 21
95.00000000000005
 31
0.0
  0
ARC
  5
15DAF
330
1F
100
AcDbEntity
  8
0
 48
0.5
100
AcDbCircle
 10
179.2
 20
97.50000000000007
 30
0.0
 40
2.5
100
AcDbArc
 50
270.0
 51
90.0
  0
ARC
  5
15DB0
330
1F
100
AcDbEntity
  8
0
 48
0.5
100
AcDbCircle
 10
177.1999999999999
 20
97.50000000000007
 30
0.0
 40
2.5
100
AcDbArc
 50
90.0
 51
270.0
  0
LINE
  5
15DB1
330
1F
100
AcDbEntity
  8
0
 48
0.5
370
    -3
100
AcDbLine
 10
135.2
 20
95.00000000000005
 30
0.0
 11
137.2000000000001
 21
95.00000000000005
 31
0.0
  0
LINE
  5
15DB2
330
1F
100
AcDbEntity
  8
0
 48
0.5
370
    -3
100
AcDbLine
 10
135.2
 20
100.0
 30
0.0
 11
137.2000000000001
 21
100.0
 31
0.0
  0
ARC
  5
15DB3
330
1F
100
AcDbEntity
  8
0
 48
0.5
100
AcDbCircle
 10
135.2
 20
97.50000000000007
 30
0.0
 40
2.5
100
AcDbArc
 50
90.0
 51
270.0
  0
ARC
  5
15DB4
330
1F
100
AcDbEntity
  8
0
 48
0.5
100
AcDbCircle
 10
137.2000000000001
 20
97.50000000000007
 30
0.0
 40
2.5
100
AcDbArc
 50
270.0
 51
90.0
  0
LINE
  5
15DB5
330
1F
100
AcDbEntity
  8
0
 48
0.5
370
    -3
100
AcDbLine
 10
180.7
 20
31.50000000000003
 30
0.0
 11
180.7
 21
33.50000000000008
 31
0.0
  0
LINE
  5
15DB6
330
1F
100
AcDbEntity
  8
0
 48
0.5
370
    -3
100
AcDbLine
 10
175.6999999999999
 20
31.50000000000003
 30
0.0
 11
175.6999999999999
 21
33.50000000000008
 31
0.0
  0
ARC
  5
15DB7
330
1F
100
AcDbEntity
  8
0
 48
0.5
100
AcDbCircle
 10
178.2
 20
31.50000000000003
 30
0.0
 40
2.5
100
AcDbArc
 50
180.0
 51
0.0
  0
ARC
  5
15DB8
330
1F
100
AcDbEntity
  8
0
 48
0.5
100
AcDbCircle
 10
178.2
 20
33.50000000000008
 30
0.0
 40
2.5
100
AcDbArc
 50
0.0
 51
180.0
  0
LINE
  5
15DBA
330
1F
100
AcDbEntity
  8
0
 48
0.5
370
    -3
100
AcDbLine
 10
133.7000000000001
 20
31.50000000000003
 30
0.0
 11
133.7000000000001
 21
33.50000000000008
 31
0.0
  0
LINE
  5
15DBB
330
1F
100
AcDbEntity
  8
0
 48
0.5
370
    -3
100
AcDbLine
 10
138.7000000000001
 20
31.50000000000003
 30
0.0
 11
138.7000000000001
 21
33.50000000000008
 31
0.0
  0
ARC
  5
15DBC
330
1F
100
AcDbEntity
  8
0
 48
0.5
100
AcDbCircle
 10
136.2000000000001
 20
31.50000000000003
 30
0.0
 40
2.5
100
AcDbArc
 50
180.0
 51
0.000000000000007
  0
ARC
  5
15DBD
330
1F
100
AcDbEntity
  8
0
 48
0.5
100
AcDbCircle
 10
136.2000000000001
 20
33.50000000000008
 30
0.0
 40
2.5
100
AcDbArc
 50
0.000000000000007
 51
180.0
  0
LINE
  5
15DBE
330
1F
100
AcDbEntity
  8
0
 48
0.5
370
    -3
100
AcDbLine
 10
21.99999999999997
 20
95.0
 30
0.0
 11
19.99999999999991
 21
95.0
 31
0.0
  0
LINE
  5
15DBF
330
1F
100
AcDbEntity
  8
0
 48
0.5
370
    -3
100
AcDbLine
 10
21.99999999999997
 20
100.0
 30
0.0
 11
19.99999999999991
 21
100.0
 31
0.0
  0
ARC
  5
15DC0
330
1F
100
AcDbEntity
  8
0
 48
0.5
100
AcDbCircle
 10
21.99999999999997
 20
97.5
 30
0.0
 40
2.5
100
AcDbArc
 50
270.0
 51
90.0
  0
ARC
  5
15DC1
330
1F
100
AcDbEntity
  8
0
 48
0.5
100
AcDbCircle
 10
19.99999999999991
 20
97.5
 30
0.0
 40
2.5
100
AcDbArc
 50
90.0
 51
270.0
  0
LINE
  5
15DC2
330
1F
100
AcDbEntity
  8
0
 48
0.5
370
    -3
100
AcDbLine
 10
-21.99999999999997
 20
95.0
 30
0.0
 11
-19.99999999999991
 21
95.0
 31
0.0
  0
LINE
  5
15DC3
330
1F
100
AcDbEntity
  8
0
 48
0.5
370
    -3
100
AcDbLine
 10
-21.99999999999997
 20
100.0
 30
0.0
 11
-19.99999999999991
 21
100.0
 31
0.0
  0
ARC
  5
15DC4
330
1F
100
AcDbEntity
  8
0
 48
0.5
100
AcDbCircle
 10
-21.99999999999997
 20
97.5
 30
0.0
 40
2.5
100
AcDbArc
 50
90.0
 51
270.0
  0
ARC
  5
15DC5
330
1F
100
AcDbEntity
  8
0
 48
0.5
100
AcDbCircle
 10
-19.99999999999991
 20
97.5
 30
0.0
 40
2.5
100
AcDbArc
 50
270.0
 51
90.0
  0
LINE
  5
15DC6
330
1F
100
AcDbEntity
  8
0
 48
0.5
370
    -3
100
AcDbLine
 10
23.49999999999994
 20
31.49999999999997
 30
0.0
 11
23.49999999999994
 21
33.50000000000003
 31
0.0
  0
LINE
  5
15DC7
330
1F
100
AcDbEntity
  8
0
 48
0.5
370
    -3
100
AcDbLine
 10
18.49999999999991
 20
31.49999999999997
 30
0.0
 11
18.49999999999991
 21
33.50000000000003
 31
0.0
  0
ARC
  5
15DC8
330
1F
100
AcDbEntity
  8
0
 48
0.5
100
AcDbCircle
 10
20.99999999999994
 20
31.49999999999997
 30
0.0
 40
2.5
100
AcDbArc
 50
180.0
 51
0.0
  0
ARC
  5
15DC9
330
1F
100
AcDbEntity
  8
0
 48
0.5
100
AcDbCircle
 10
20.99999999999994
 20
33.50000000000003
 30
0.0
 40
2.5
100
AcDbArc
 50
0.0
 51
180.0
  0
LINE
  5
15DCA
330
1F
100
AcDbEntity
  8
0
 48
0.5
370
    -3
100
AcDbLine
 10
-23.49999999999994
 20
31.49999999999997
 30
0.0
 11
-23.49999999999994
 21
33.50000000000003
 31
0.0
  0
LINE
  5
15DCB
330
1F
100
AcDbEntity
  8
0
 48
0.5
370
    -3
100
AcDbLine
 10
-18.49999999999991
 20
31.49999999999997
 30
0.0
 11
-18.49999999999991
 21
33.50000000000003
 31
0.0
  0
ARC
  5
15DCC
330
1F
100
AcDbEntity
  8
0
 48
0.5
100
AcDbCircle
 10
-20.99999999999994
 20
31.49999999999997
 30
0.0
 40
2.5
100
AcDbArc
 50
180.0
 51
0.000000000000007
  0
ARC
  5
15DCD
330
1F
100
AcDbEntity
  8
0
 48
0.5
100
AcDbCircle
 10
-20.99999999999994
 20
33.50000000000003
 30
0.0
 40
2.5
100
AcDbArc
 50
0.000000000000007
 51
180.0
  0
LINE
  5
15DCE
330
1F
100
AcDbEntity
  8
0
 48
0.5
370
    -3
100
AcDbLine
 10
336.4000000000001
 20
95.00000000000014
 30
0.0
 11
334.4
 21
95.00000000000014
 31
0.0
  0
LINE
  5
15DCF
330
1F
100
AcDbEntity
  8
0
 48
0.5
370
    -3
100
AcDbLine
 10
336.4000000000001
 20
100.0000000000001
 30
0.0
 11
334.4
 21
100.0000000000001
 31
0.0
  0
ARC
  5
15DD0
330
1F
100
AcDbEntity
  8
0
 48
0.5
100
AcDbCircle
 10
336.4000000000001
 20
97.50000000000014
 30
0.0
 40
2.5
100
AcDbArc
 50
270.0
 51
90.0
  0
ARC
  5
15DD1
330
1F
100
AcDbEntity
  8
0
 48
0.5
100
AcDbCircle
 10
334.4
 20
97.50000000000014
 30
0.0
 40
2.5
100
AcDbArc
 50
90.0
 51
270.0
  0
LINE
  5
15DD2
330
1F
100
AcDbEntity
  8
0
 48
0.5
370
    -3
100
AcDbLine
 10
292.4000000000001
 20
95.00000000000014
 30
0.0
 11
294.4000000000002
 21
95.00000000000014
 31
0.0
  0
LINE
  5
15DD3
330
1F
100
AcDbEntity
  8
0
 48
0.5
370
    -3
100
AcDbLine
 10
292.4000000000001
 20
100.0000000000001
 30
0.0
 11
294.4000000000002
 21
100.0000000000001
 31
0.0
  0
ARC
  5
15DD4
330
1F
100
AcDbEntity
  8
0
 48
0.5
100
AcDbCircle
 10
292.4000000000001
 20
97.50000000000014
 30
0.0
 40
2.5
100
AcDbArc
 50
90.0
 51
270.0
  0
ARC
  5
15DD5
330
1F
100
AcDbEntity
  8
0
 48
0.5
100
AcDbCircle
 10
294.4000000000002
 20
97.50000000000014
 30
0.0
 40
2.5
100
AcDbArc
 50
270.0
 51
90.0
  0
LINE
  5
15DD6
330
1F
100
AcDbEntity
  8
0
 48
0.5
370
    -3
100
AcDbLine
 10
337.9
 20
31.50000000000011
 30
0.0
 11
337.9
 21
33.50000000000017
 31
0.0
  0
LINE
  5
15DD7
330
1F
100
AcDbEntity
  8
0
 48
0.5
370
    -3
100
AcDbLine
 10
332.9
 20
31.50000000000011
 30
0.0
 11
332.9
 21
33.50000000000017
 31
0.0
  0
ARC
  5
15DD8
330
1F
100
AcDbEntity
  8
0
 48
0.5
100
AcDbCircle
 10
335.4
 20
31.50000000000011
 30
0.0
 40
2.5
100
AcDbArc
 50
180.0
 51
0.0
  0
ARC
  5
15DD9
330
1F
100
AcDbEntity
  8
0
 48
0.5
100
AcDbCircle
 10
335.4
 20
33.50000000000017
 30
0.0
 40
2.5
100
AcDbArc
 50
0.0
 51
180.0
  0
LINE
  5
15DDA
330
1F
100
AcDbEntity
  8
0
 48
0.5
370
    -3
100
AcDbLine
 10
290.9000000000002
 20
31.50000000000011
 30
0.0
 11
290.9000000000002
 21
33.50000000000017
 31
0.0
  0
LINE
  5
15DDB
330
1F
100
AcDbEntity
  8
0
 48
0.5
370
    -3
100
AcDbLine
 10
295.9000000000002
 20
31.50000000000011
 30
0.0
 11
295.9000000000002
 21
33.50000000000017
 31
0.0
  0
ARC
  5
15DDC
330
1F
100
AcDbEntity
  8
0
 48
0.5
100
AcDbCircle
 10
293.4000000000001
 20
31.50000000000011
 30
0.0
 40
2.5
100
AcDbArc
 50
180.0
 51
0.000000000000007
  0
ARC
  5
15DDD
330
1F
100
AcDbEntity
  8
0
 48
0.5
100
AcDbCircle
 10
293.4000000000001
 20
33.50000000000017
 30
0.0
 40
2.5
100
AcDbArc
 50
0.000000000000007
 51
180.0
  0
LINE
  5
15DE3
330
1F
100
AcDbEntity
  8
0
 48
0.5
370
    -3
100
AcDbLine
 10
80.20000000000004
 20
79.49999999999995
 30
0.0
 11
89.20000000000005
 21
79.49999999999994
 31
0.0
  0
LINE
  5
15DE4
330
1F
100
AcDbEntity
  8
0
 48
0.5
370
    -3
100
AcDbLine
 10
80.20000000000004
 20
50.49999999999996
 30
0.0
 11
89.20000000000007
 21
50.49999999999994
 31
0.0
  0
LINE
  5
15DE5
330
1F
100
AcDbEntity
  8
0
  6
Continuous
 62
     7
 48
0.5
370
    -3
100
AcDbLine
 10
75.70000000000004
 20
74.99999999999996
 30
0.0
 11
75.70000000000004
 21
54.99999999999996
 31
0.0
  0
ARC
  5
15DE6
330
1F
100
AcDbEntity
  8
0
 48
0.5
370
    -3
100
AcDbCircle
 10
80.20000000000004
 20
54.99999999999996
 30
0.0
 40
4.5
100
AcDbArc
 50
180.0
 51
269.9999999999999
  0
ARC
  5
15DE7
330
1F
100
AcDbEntity
  8
0
 48
0.5
370
    -3
100
AcDbCircle
 10
80.20000000000004
 20
74.99999999999996
 30
0.0
 40
4.5
100
AcDbArc
 50
89.99999999999992
 51
180.0
  0
LINE
  5
15DE8
330
1F
100
AcDbEntity
  8
0
 48
0.5
370
    -3
100
AcDbLine
 10
14.49999999999988
 20
169.2000000000001
 30
0.0
 11
14.49999999999991
 21
178.2000000000001
 31
0.0
  0
ARC
  5
15DE9
330
1F
100
AcDbEntity
  8
0
 48
0.5
370
    -3
100
AcDbCircle
 10
9.999999999999886
 20
169.2000000000001
 30
0.0
 40
4.5
100
AcDbArc
 50
270.0
 51
0.0
  0
LINE
  5
15DEA
330
1F
100
AcDbEntity
  8
0
 48
0.5
370
    -3
100
AcDbLine
 10
-14.50000000000011
 20
169.2000000000001
 30
0.0
 11
-14.50000000000008
 21
178.2000000000001
 31
0.0
  0
LINE
  5
15DEB
330
1F
100
AcDbEntity
  8
0
  6
Continuous
 62
     7
 48
0.5
370
    -3
100
AcDbLine
 10
-10.00000000000011
 20
164.7000000000001
 30
0.0
 11
9.999999999999886
 21
164.7000000000001
 31
0.0
  0
ARC
  5
15DEC
330
1F
100
AcDbEntity
  8
0
 48
0.5
370
    -3
100
AcDbCircle
 10
-10.00000000000011
 20
169.2000000000001
 30
0.0
 40
4.5
100
AcDbArc
 50
180.0
 51
270.0
  0
LINE
  5
15DED
330
1F
100
AcDbEntity
  8
0
 48
0.5
370
    -3
100
AcDbLine
 10
171.6999999999999
 20
169.2000000000001
 30
0.0
 11
171.6999999999999
 21
178.2000000000001
 31
0.0
  0
ARC
  5
15DEE
330
1F
100
AcDbEntity
  8
0
 48
0.5
370
    -3
100
AcDbCircle
 10
167.1999999999999
 20
169.2000000000001
 30
0.0
 40
4.5
100
AcDbArc
 50
270.0
 51
0.0
  0
LINE
  5
15DEF
330
1F
100
AcDbEntity
  8
0
 48
0.5
370
    -3
100
AcDbLine
 10
142.6999999999999
 20
169.2000000000001
 30
0.0
 11
142.6999999999999
 21
178.2000000000001
 31
0.0
  0
LINE
  5
15DF0
330
1F
100
AcDbEntity
  8
0
  6
Continuous
 62
     7
 48
0.5
370
    -3
100
AcDbLine
 10
147.1999999999999
 20
164.7000000000001
 30
0.0
 11
167.1999999999999
 21
164.7000000000001
 31
0.0
  0
ARC
  5
15DF1
330
1F
100
AcDbEntity
  8
0
 48
0.5
370
    -3
100
AcDbCircle
 10
147.1999999999999
 20
169.2000000000001
 30
0.0
 40
4.5
100
AcDbArc
 50
180.0
 51
270.0
  0
LINE
  5
15DF2
330
1F
100
AcDbEntity
  8
0
 48
0.5
370
    -3
100
AcDbLine
 10
179.9
 20
162.2000000000001
 30
0.0
 11
179.9000000000001
 21
178.2000000000001
 31
0.0
  0
LINE
  5
15DF3
330
1F
100
AcDbEntity
  8
0
 48
0.5
370
    -3
100
AcDbLine
 10
134.5
 20
162.2000000000001
 30
0.0
 11
134.5000000000001
 21
178.2
 31
0.0
  0
LINE
  5
15DF4
330
1F
100
AcDbEntity
  8
0
  6
Continuous
 62
     7
 48
0.5
370
    -3
100
AcDbLine
 10
140.5
 20
156.2
 30
0.0
 11
173.9
 21
156.2000000000001
 31
0.0
  0
ARC
  5
15DF5
330
1F
100
AcDbEntity
  8
0
 48
0.5
370
    -3
100
AcDbCircle
 10
173.9
 20
162.2000000000001
 30
0.0
 40
6.0
100
AcDbArc
 50
270.0000000000001
 51
359.9999999999998
  0
ARC
  5
15DF6
330
1F
100
AcDbEntity
  8
0
 48
0.5
370
    -3
100
AcDbCircle
 10
140.5
 20
162.2
 30
0.0
 40
6.0
100
AcDbArc
 50
179.9999999999998
 51
270.0000000000001
  0
LINE
  5
15DFB
330
1F
100
AcDbEntity
  8
0
 48
0.5
370
    -3
100
AcDbLine
 10
230.4000000000001
 20
87.69999999999994
 30
0.0
 11
246.4
 21
87.6999999999999
 31
0.0
  0
ARC
  5
15DFC
330
1F
100
AcDbEntity
  8
0
 48
0.5
370
    -3
100
AcDbCircle
 10
230.4
 20
81.69999999999992
 30
0.0
 40
6.0
100
AcDbArc
 50
90.0
 51
180.0
  0
LINE
  5
15DFD
330
1F
100
AcDbEntity
  8
0
 48
0.5
370
    -3
100
AcDbLine
 10
230.4000000000001
 20
42.29999999999995
 30
0.0
 11
246.4000000000002
 21
42.29999999999989
 31
0.0
  0
LINE
  5
15DFE
330
1F
100
AcDbEntity
  8
0
  6
Continuous
 62
     7
 48
0.5
370
    -3
100
AcDbLine
 10
224.4
 20
81.69999999999992
 30
0.0
 11
224.4000000000001
 21
48.29999999999995
 31
0.0
  0
ARC
  5
15DFF
330
1F
100
AcDbEntity
  8
0
 48
0.5
370
    -3
100
AcDbCircle
 10
230.4000000000001
 20
48.29999999999995
 30
0.0
 40
6.0
100
AcDbArc
 50
180.0
 51
270.0
  0
LINE
  5
15E00
330
1F
100
AcDbEntity
  8
0
 48
0.5
370
    -3
100
AcDbLine
 10
237.4000000000001
 20
50.50000000000006
 30
0.0
 11
246.4000000000002
 21
50.5
 31
0.0
  0
ARC
  5
15E01
330
1F
100
AcDbEntity
  8
0
 48
0.5
370
    -3
100
AcDbCircle
 10
237.4000000000001
 20
55.00000000000006
 30
0.0
 40
4.5
100
AcDbArc
 50
180.0
 51
270.0
  0
LINE
  5
15E02
330
1F
100
AcDbEntity
  8
0
 48
0.5
370
    -3
100
AcDbLine
 10
237.4000000000001
 20
79.50000000000006
 30
0.0
 11
246.4000000000002
 21
79.50000000000002
 31
0.0
  0
LINE
  5
15E03
330
1F
100
AcDbEntity
  8
0
  6
Continuous
 62
     7
 48
0.5
370
    -3
100
AcDbLine
 10
232.9000000000001
 20
75.00000000000006
 30
0.0
 11
232.9000000000001
 21
55.00000000000006
 31
0.0
  0
ARC
  5
15E04
330
1F
100
AcDbEntity
  8
0
 48
0.5
370
    -3
100
AcDbCircle
 10
237.4000000000001
 20
75.00000000000006
 30
0.0
 40
4.5
100
AcDbArc
 50
90.0
 51
180.0
  0
VIEWPORT
  5
C2
330
1B
100
AcDbEntity
 67
     1
  8
0
100
AcDbViewport
 10
148.2957450192539
 20
110.3605821189192
 30
0.0
 40
408.0990166284733
 41
307.2494167077197
 68
     1
 69
     1
 12
148.2957450192539
 22
110.3605821189192
 13
0.0
 23
0.0
 14
10.0
 24
10.0
 15
10.0
 25
10.0
 16
0.0
 26
0.0
 36
1.0
 17
0.0
 27
0.0
 37
0.0
 42
50.0
 43
0.0
 44
0.0
 45
307.2494167077197
 50
0.0
 51
0.0
 72
   100
 90
    32800
  1

281
     0
 71
     1
 74
     0
110
0.0
120
0.0
130
0.0
111
1.0
121
0.0
131
0.0
112
0.0
122
1.0
132
0.0
 79
     0
146
0.0
170
     0
 61
     5
348
2285
292
     1
282
     1
141
0.0
142
0.0
 63
   250
421
  3355443
  0
ENDSEC
  0
SECTION
  2
OBJECTS
  0
DICTIONARY
  5
C
330
0
100
AcDbDictionary
281
     1
  3
ACAD_CIP_PREVIOUS_PRODUCT_INFO
350
15D8E
  3
ACAD_COLOR
350
2290
  3
ACAD_DETAILVIEWSTYLE
350
15D86
  3
ACAD_GROUP
350
D
  3
ACAD_LAYOUT
350
1A
  3
ACAD_MATERIAL
350
2266
  3
ACAD_MLEADERSTYLE
350
22B5
  3
ACAD_MLINESTYLE
350
17
  3
ACAD_PLOTSETTINGS
350
19
  3
ACAD_PLOTSTYLENAME
350
E
  3
ACAD_SCALELIST
350
2293
  3
ACAD_SECTIONVIEWSTYLE
350
15D84
  3
ACAD_TABLESTYLE
350
2291
  3
ACAD_VISUALSTYLE
350
227F
  3
AcadDim
350
9BD
  3
ACDB_RECOMPOSE_DATA
350
15E27
  3
AcDbVariableDictionary
350
149
  3
AcDsDecomposeData
350
15E2D
  0
DICTIONARY
  5
89CB
330
8
100
AcDbDictionary
280
     1
281
     1
  0
DICTIONARY
  5
2345
330
2
100
AcDbDictionary
280
     1
281
     1
  3
ACAD_LAYERFILTERS
360
2713
  3
ACAD_LAYERSTATES
360
2352
  3
ACLYDICTIONARY
360
2712
  0
DICTIONARY
  5
247D
330
10
100
AcDbDictionary
280
     1
281
     1
  3
ADSK_XREC_LAYER_RECONCILED
360
7EA3
  0
DICTIONARY
  5
8A39
330
1F
100
AcDbDictionary
280
     1
281
     1
  3
ACAD_SORTENTS
360
8A3A
  0
DICTIONARY
  5
2343
330
1B
100
AcDbDictionary
280
     1
281
     1
  3
ACAD_SORTENTS
360
2344
  0
XRECORD
  5
15D8E
102
{ACAD_REACTORS
330
C
102
}
330
C
100
AcDbXrecord
280
     1
300
ACD
300
2022
300

  0
DICTIONARY
  5
2290
102
{ACAD_REACTORS
330
C
102
}
330
C
100
AcDbDictionary
281
     1
  0
DICTIONARY
  5
15D86
102
{ACAD_REACTORS
330
C
102
}
330
C
100
AcDbDictionary
281
     1
  3
Metric50
350
15D87
  0
DICTIONARY
  5
D
102
{ACAD_REACTORS
330
C
102
}
330
C
100
AcDbDictionary
281
     1
  0
DICTIONARY
  5
1A
102
{ACAD_REACTORS
330
C
102
}
330
C
100
AcDbDictionary
281
     1
  3
A4-Xﾚｲｱｳﾄ
350
1E
  3
Model
350
22
  0
DICTIONARY
  5
2266
102
{ACAD_REACTORS
330
C
102
}
330
C
100
AcDbDictionary
281
     1
  3
ByBlock
350
226F
  3
ByLayer
350
2267
  3
Global
350
2277
  0
DICTIONARY
  5
22B5
102
{ACAD_REACTORS
330
C
102
}
330
C
100
AcDbDictionary
281
     1
  3
Standard
350
22B6
  3
文字列
350
2531
  0
DICTIONARY
  5
17
102
{ACAD_REACTORS
330
C
102
}
330
C
100
AcDbDictionary
281
     1
  3
Standard
350
18
  0
DICTIONARY
  5
19
102
{ACAD_REACTORS
330
C
102
}
330
C
100
AcDbDictionary
281
     1
  0
ACDBDICTIONARYWDFLT
  5
E
102
{ACAD_REACTORS
330
C
102
}
330
C
100
AcDbDictionary
281
     1
  3
Normal
350
F
100
AcDbDictionaryWithDefault
340
F
  0
DICTIONARY
  5
2293
102
{ACAD_REACTORS
330
C
102
}
330
C
100
AcDbDictionary
281
     1
  3
*A1
350
8AB4
  3
*A2
350
8AB5
  3
*A3
350
AA4C
  3
*A4
350
AA4D
  3
A0
350
2294
  3
A1
350
2295
  3
A2
350
2296
  3
A3
350
2297
  3
A4
350
2298
  3
A5
350
2299
  3
A6
350
229A
  3
A7
350
229B
  3
A8
350
229C
  3
A9
350
229D
  3
B0
350
229E
  3
B1
350
229F
  3
B2
350
22A0
  3
B3
350
22A1
  3
B4
350
22A2
  3
B5
350
22A3
  3
B6
350
22A4
  3
B7
350
22A5
  3
B8
350
22A6
  3
B9
350
22A7
  3
C0
350
22A8
  3
C1
350
22A9
  3
C2
350
22AA
  3
C3
350
22AB
  3
C4
350
22AC
  3
C5
350
22AD
  3
C6
350
22AE
  3
C7
350
22AF
  3
C8
350
22B0
  3
C9
350
22B1
  3
D0
350
22B2
  3
D1
350
22B3
  3
D2
350
22B4
  0
DICTIONARY
  5
15D84
102
{ACAD_REACTORS
330
C
102
}
330
C
100
AcDbDictionary
281
     1
  3
Metric50
350
15D85
  0
DICTIONARY
  5
2291
102
{ACAD_REACTORS
330
C
102
}
330
C
100
AcDbDictionary
281
     1
  3
Standard
350
2292
  0
DICTIONARY
  5
227F
102
{ACAD_REACTORS
330
C
102
}
330
C
100
AcDbDictionary
281
     1
  3
2dWireframe
350
2285
  3
3D Hidden
350
2287
  3
3dWireframe
350
2286
  3
Basic
350
2284
  3
Brighten
350
228B
  3
ColorChange
350
228F
  3
Conceptual
350
2288
  3
Dim
350
228A
  3
EdgeColorOff
350
15B2C
  3
Facepattern
350
228E
  3
Flat
350
2280
  3
FlatWithEdges
350
2281
  3
Gouraud
350
2282
  3
GouraudWithEdges
350
2283
  3
Hidden
350
15B24
  3
JitterOff
350
15B2A
  3
Linepattern
350
228D
  3
OverhangOff
350
15B2B
  3
Realistic
350
2289
  3
Shaded
350
15B29
  3
Shaded with edges
350
15B28
  3
Shades of Gray
350
15B25
  3
Sketchy
350
15B26
  3
Thicken
350
228C
  3
Wireframe
350
15B23
  3
X-Ray
350
15B27
  0
XRECORD
  5
9BD
102
{ACAD_REACTORS
330
C
102
}
330
C
100
AcDbXrecord
280
     1
 90
   990106
  3

 60
     0
 61
     0
 62
     4
 63
     4
 64
     1
 65
     0
 66
     0
 67
     2
 68
     1
 69
     0
 70
     0
 71
     0
 72
     0
 40
46.64942440925108
170
     2
340
0
  0
XRECORD
  5
15E27
102
{ACAD_REACTORS
330
C
102
}
330
C
100
AcDbXrecord
280
     1
 90
        1
330
2292
330
D899
330
D8A6
330
D8AF
330
D8B0
330
DB01
330
12DF6
330
12DF7
330
14331
330
14334
330
14B64
330
14B65
330
15317
330
15318
330
15AE2
330
15AE3
  0
DICTIONARY
  5
149
102
{ACAD_REACTORS
330
C
102
}
330
C
100
AcDbDictionary
281
     1
  3
CANNOSCALE
350
22CE
  3
CMLEADERSTYLE
350
22CC
  3
CTABLESTYLE
350
22CB
  3
CVIEWDETAILSTYLE
350
15E14
  3
CVIEWSECTIONSTYLE
350
15E15
  3
DIMASSOC
350
4F0
  3
LAYEREVAL
350
15E16
  3
LAYERNOTIFY
350
15E17
  3
LIGHTINGUNITS
350
22CF
  3
MLEADERSCALE
350
15BB0
  3
MSLTSCALE
350
22CD
  3
SORTENTS
350
14A
  0
DICTIONARY
  5
15E2D
102
{ACAD_REACTORS
330
C
102
}
330
C
100
AcDbDictionary
281
     1
  3
AcDsRecords
350
15E2F
  3
AcDsSchemas
350
15E2E
1001
ACAD
1070
     2
  0
DICTIONARY
  5
2713
102
{ACAD_REACTORS
330
2345
102
}
330
2345
100
AcDbDictionary
281
     1
  0
DICTIONARY
  5
2352
102
{ACAD_REACTORS
330
2345
102
}
330
2345
100
AcDbDictionary
281
     1
  0
DICTIONARY
  5
2712
102
{ACAD_REACTORS
330
2345
102
}
330
2345
100
AcDbDictionary
281
     1
1001
ACAD
1000
<All
  0
XRECORD
  5
7EA3
102
{ACAD_REACTORS
330
247D
102
}
330
247D
100
AcDbXrecord
280
     1
290
     1
  0
SORTENTSTABLE
  5
8A3A
102
{ACAD_REACTORS
330
8A39
102
}
330
8A39
100
AcDbSortentsTable
330
1F
331
D899
  5
D8CD
331
D8A6
  5
D8CE
331
D8AF
  5
D8D1
331
D8B0
  5
D8D2
331
DB01
  5
E7D5
331
13F47
  5
13F49
331
13F49
  5
13F4A
331
13F4A
  5
13F4B
331
13F4B
  5
13F4C
331
13F4C
  5
13F4D
331
13F4D
  5
13F4E
331
13F4E
  5
13F4F
331
13F4F
  5
13F51
331
13F51
  5
13F53
331
13F53
  5
13F54
331
13F54
  5
13F55
331
13F55
  5
13F56
331
13F56
  5
13F57
331
13F57
  5
13F58
331
13F58
  5
13F59
331
13F59
  5
13F6C
331
13F6C
  5
13F6D
331
13F6D
  5
13F6E
331
13F6E
  5
13F6F
331
13F6F
  5
13F70
331
13F70
  5
13F71
331
13F71
  5
13F72
331
13F72
  5
13F73
331
13F73
  5
13FA6
331
13FA6
  5
13FA9
331
13FA9
  5
141C7
331
141C7
  5
141C9
331
141C9
  5
14276
331
141D9
  5
1427F
331
141DA
  5
14280
331
141E5
  5
1428A
331
14276
  5
14291
331
1427F
  5
14292
331
14280
  5
14293
331
1428B
  5
14294
331
1428F
  5
14295
331
14290
  5
14296
331
14291
  5
142A0
331
14292
  5
142A1
331
14298
  5
142A5
331
14299
  5
142A6
331
1429A
  5
142A7
331
1429C
  5
142A8
331
1429D
  5
142A9
331
1429E
  5
142AA
331
1429F
  5
142AE
331
142A0
  5
142AF
331
142A2
  5
142B0
331
142A3
  5
142B1
331
142A4
  5
142B2
331
142A5
  5
142B3
331
142A6
  5
142B4
331
142A7
  5
142B5
331
142A8
  5
142B6
331
142A9
  5
142B7
331
142AA
  5
142B8
331
142AB
  5
142B9
331
142AC
  5
142BA
331
142AD
  5
142BB
331
142AE
  5
142BC
331
142AF
  5
142BD
331
142B0
  5
142BE
331
142B1
  5
142BF
331
142B2
  5
142C0
331
142B3
  5
142C1
331
142B4
  5
142D2
331
142B5
  5
142D3
331
142B6
  5
142D4
331
142B7
  5
142D5
331
142B8
  5
142D6
331
142B9
  5
142D7
331
142BA
  5
142D8
331
142BB
  5
142D9
331
142BC
  5
142E3
331
142BD
  5
142E6
331
142BE
  5
142F2
331
142BF
  5
142FD
331
142C0
  5
142FF
331
142C1
  5
14300
331
142D2
  5
14302
331
142D3
  5
14303
331
142D4
  5
14305
331
142D5
  5
14306
331
142D6
  5
14307
331
142D7
  5
14308
331
142D8
  5
14334
331
142D9
  5
14335
331
142E3
  5
14336
331
142E6
  5
14337
331
142F2
  5
14338
331
142FD
  5
1433F
331
142FF
  5
14342
331
14300
  5
14343
331
14306
  5
14344
331
14307
  5
14345
331
14308
  5
14346
331
14312
  5
14347
331
14313
  5
14349
331
14331
  5
1434A
331
14334
  5
1434B
331
14335
  5
1434C
331
14336
  5
1434D
331
14337
  5
1434F
331
14338
  5
14350
331
1433E
  5
14351
331
1433F
  5
14352
331
14340
  5
14353
331
14342
  5
14354
331
14343
  5
14355
331
14344
  5
14356
331
14345
  5
14357
331
14346
  5
14358
331
14348
  5
14359
331
14349
  5
1435A
331
1434A
  5
1435B
331
1434B
  5
1435C
331
1434C
  5
1435D
331
1434D
  5
1435E
331
1434E
  5
1435F
331
1434F
  5
14360
331
14350
  5
14361
331
14351
  5
14362
331
14352
  5
14363
331
14353
  5
14364
331
14354
  5
14365
331
14355
  5
14366
331
14356
  5
14367
331
14357
  5
14378
331
14358
  5
14379
331
14359
  5
1437A
331
1435A
  5
1437B
331
1435B
  5
1437C
331
1435C
  5
1437D
331
1435D
  5
1437E
331
1435E
  5
1437F
331
1435F
  5
14389
331
14360
  5
1438C
331
14361
  5
1438D
331
14362
  5
1438E
331
14363
  5
14624
331
14364
  5
14629
331
14365
  5
1462B
331
14366
  5
1462E
331
14367
  5
1462F
331
14378
  5
14632
331
14379
  5
14634
331
1437A
  5
14639
331
1437B
  5
1464D
331
1437C
  5
1464E
331
1437D
  5
14650
331
1437E
  5
14651
331
1437F
  5
14652
331
14389
  5
14653
331
1438C
  5
14656
331
1438D
  5
14659
331
1438E
  5
1465A
331
14624
  5
1465E
331
14629
  5
14661
331
1462B
  5
14662
331
1462E
  5
14663
331
1462F
  5
14664
331
14632
  5
14665
331
14634
  5
14666
331
14639
  5
14667
331
1464D
  5
14668
331
1464E
  5
1466A
331
14650
  5
1466C
331
14651
  5
1466F
331
14652
  5
14670
331
14653
  5
14671
331
14656
  5
14672
331
14659
  5
14676
331
1465A
  5
1467B
331
1465E
  5
14682
331
14661
  5
14684
331
14662
  5
14686
331
14663
  5
14688
331
14664
  5
1468B
331
14665
  5
1468D
331
14666
  5
1468E
331
14667
  5
1468F
331
14668
  5
14690
331
1466A
  5
14691
331
1466C
  5
14694
331
1466F
  5
14695
331
14670
  5
14697
331
14671
  5
14698
331
14672
  5
1469A
331
14676
  5
1469C
331
1467B
  5
1469D
331
14682
  5
1469E
331
14684
  5
146A1
331
14686
  5
146A2
331
14688
  5
146A3
331
1468B
  5
146A4
331
1468D
  5
146A6
331
1468E
  5
146A8
331
1468F
  5
146A9
331
14690
  5
146AA
331
14691
  5
146AB
331
14694
  5
146AC
331
14695
  5
146AD
331
14697
  5
146AE
331
14698
  5
146B1
331
1469A
  5
146B3
331
1469C
  5
146B4
331
1469D
  5
146B5
331
1469E
  5
146B6
331
146A1
  5
146B8
331
146A2
  5
146B9
331
146A3
  5
146BA
331
146A4
  5
146BB
331
146A6
  5
146BD
331
146A8
  5
146C1
331
146A9
  5
146C3
331
146AA
  5
146C6
331
146AB
  5
146C8
331
146AC
  5
146C9
331
146AD
  5
146CA
331
146AE
  5
146CB
331
146B1
  5
146CC
331
146B3
  5
146CD
331
146B4
  5
146CE
331
146B5
  5
146D1
331
146B6
  5
146D3
331
146B8
  5
146D4
331
146B9
  5
146D7
331
146BA
  5
146DA
331
146BB
  5
146DB
331
146BD
  5
146DC
331
146C1
  5
146E0
331
146C3
  5
146E1
331
146C6
  5
146E2
331
146C8
  5
146E3
331
146C9
  5
146E4
331
146CA
  5
146E5
331
146CB
  5
146E6
331
146CC
  5
146E8
331
146CD
  5
14749
331
146CE
  5
1474C
331
146D1
  5
149E8
331
146D3
  5
149E9
331
146D4
  5
149EA
331
146D7
  5
14A4C
331
146DA
  5
14A52
331
146DB
  5
14A56
331
146DC
  5
14A6D
331
146E0
  5
14A6E
331
146E1
  5
14A6F
331
146E2
  5
14A70
331
146E3
  5
14A71
331
146E4
  5
14A72
331
146E5
  5
14A73
331
146E6
  5
14A74
331
146E8
  5
14A75
331
14749
  5
14A76
331
1474C
  5
14A77
331
149E8
  5
14A78
331
149E9
  5
14A79
331
149EA
  5
14A7A
331
14A4C
  5
14A7B
331
14A52
  5
14A7C
331
14A56
  5
14A7D
331
14A6D
  5
14A7E
331
14A6E
  5
14A92
331
14A6F
  5
14A93
331
14A70
  5
14A94
331
14A71
  5
14A95
331
14A72
  5
14A96
331
14A73
  5
14AA4
331
14A74
  5
14AA5
331
14A75
  5
14AA6
331
14A76
  5
14AA7
331
14A77
  5
14AA8
331
14A78
  5
14AA9
331
14A79
  5
14AAA
331
14A7A
  5
14AB6
331
14A7B
  5
14AB7
331
14A7C
  5
14AB8
331
14A7D
  5
14AB9
331
14A7E
  5
14ABA
331
14AA9
  5
14ABB
331
14AAA
  5
14ABC
331
14AAC
  5
14ABD
331
14AAD
  5
14ABF
331
14AAE
  5
14AC0
331
14AAF
  5
14AC1
331
14AB0
  5
14AC2
331
14AB1
  5
14AC3
331
14AB2
  5
14AC4
331
14AB3
  5
14AC5
331
14AB4
  5
14AC6
331
14AB5
  5
14AC7
331
14AB6
  5
14AC8
331
14AB7
  5
14AC9
331
14AB8
  5
14ACA
331
14AB9
  5
14ACB
331
14ABA
  5
14ACC
331
14ABB
  5
14ACD
331
14ABC
  5
14ACE
331
14ABD
  5
14ACF
331
14ABF
  5
14AD0
331
14AC0
  5
14AD1
331
14AC1
  5
14AD2
331
14AC2
  5
14AD3
331
14AC3
  5
14AD4
331
14AC4
  5
14AD5
331
14AC5
  5
14AD6
331
14AC6
  5
14AD7
331
14AC7
  5
14AD8
331
14AC8
  5
14AD9
331
14AC9
  5
14ADA
331
14ACA
  5
14ADB
331
14ACB
  5
14ADC
331
14ACC
  5
14ADD
331
14ACD
  5
14ADE
331
14ACE
  5
14ADF
331
14ACF
  5
14AE0
331
14AD0
  5
14AE1
331
14AD1
  5
14AE2
331
14AD2
  5
14AE3
331
14AD3
  5
14AE4
331
14AD4
  5
14AE5
331
14AD5
  5
14AE6
331
14AD6
  5
14AE7
331
14AD7
  5
14AE8
331
14AD8
  5
14AE9
331
14AD9
  5
14AEA
331
14ADA
  5
14AEB
331
14ADB
  5
14AEC
331
14ADC
  5
14AED
331
14ADD
  5
14AEE
331
14ADE
  5
14AEF
331
14ADF
  5
14AF0
331
14AE0
  5
14AF1
331
14AE1
  5
14AF2
331
14AE2
  5
14AF3
331
14AE3
  5
14AF4
331
14AE4
  5
14AF5
331
14AE5
  5
14AF6
331
14AE6
  5
14AF7
331
14AE7
  5
14AF8
331
14AE8
  5
14AF9
331
14AE9
  5
14AFA
331
14AEA
  5
14AFB
331
14AEB
  5
14AFC
331
14AEC
  5
14AFD
331
14AED
  5
14AFE
331
14AEE
  5
14AFF
331
14AEF
  5
14B28
331
14AF0
  5
14B2B
331
14AF1
  5
14B2E
331
14AF2
  5
14B3A
331
14AF3
  5
14B3B
331
14AF4
  5
14B3C
331
14AF5
  5
14B3D
331
14AF6
  5
14B3E
331
14AF7
  5
14B3F
331
14AF8
  5
14B40
331
14AF9
  5
14B43
331
14AFA
  5
14B44
331
14AFB
  5
14B47
331
14AFC
  5
14B48
331
14AFD
  5
14B49
331
14AFE
  5
14B50
331
14AFF
  5
14B51
331
14B28
  5
14B64
331
14B2B
  5
14B65
331
14B2E
  5
1527B
331
14B3A
  5
1527C
331
14B3B
  5
1527D
331
14B3C
  5
1527E
331
14B3D
  5
1527F
331
14B3E
  5
15280
331
14B3F
  5
15281
331
14B40
  5
15282
331
14B43
  5
15283
331
14B44
  5
15284
331
14B47
  5
15285
331
14B48
  5
15286
331
14B49
  5
15287
331
14B50
  5
15288
331
14B51
  5
15289
331
14B64
  5
1528A
331
14B65
  5
1528B
331
1527B
  5
1528C
331
1527C
  5
1528D
331
1527D
  5
1528E
331
1527E
  5
1528F
331
1527F
  5
15290
331
15280
  5
15291
331
15281
  5
15292
331
15282
  5
15293
331
15283
  5
15294
331
15284
  5
15295
331
15285
  5
15296
331
15286
  5
15297
331
15287
  5
15298
331
15288
  5
15299
331
15289
  5
1529A
331
1528A
  5
1529B
331
1528B
  5
1529C
331
1528C
  5
1529D
331
1528D
  5
1529E
331
1528E
  5
1529F
331
1528F
  5
152A0
331
15290
  5
152A1
331
15291
  5
152A2
331
15292
  5
152A3
331
15293
  5
152A4
331
15294
  5
152A5
331
15295
  5
152A6
331
15296
  5
152A7
331
15297
  5
152A8
331
15298
  5
152A9
331
15299
  5
152AA
331
1529A
  5
152AB
331
1529B
  5
152AC
331
1529C
  5
152AD
331
1529D
  5
152AE
331
1529E
  5
152AF
331
1529F
  5
152B0
331
152A0
  5
152B1
331
152A1
  5
152B2
331
152A2
  5
152B3
331
152A3
  5
152B4
331
152A4
  5
152B5
331
152A5
  5
152B6
331
152A6
  5
152B7
331
152A7
  5
152B8
331
152A8
  5
152B9
331
152A9
  5
152BA
331
152AA
  5
152BB
331
152AB
  5
152BC
331
152AC
  5
152BD
331
152AD
  5
152BE
331
152AE
  5
152BF
331
152AF
  5
152C0
331
152B0
  5
152C1
331
152B1
  5
152C2
331
152B2
  5
152C3
331
152B3
  5
152C4
331
152B4
  5
152C5
331
152B5
  5
152C6
331
152B6
  5
152C7
331
152B7
  5
152C8
331
152B8
  5
152C9
331
152B9
  5
152CA
331
152BA
  5
152CB
331
152BB
  5
152CC
331
152BC
  5
152CD
331
152BD
  5
152CE
331
152BE
  5
152CF
331
152BF
  5
152F0
331
152C0
  5
152F3
331
152C1
  5
152F7
331
152C2
  5
152FB
331
152C3
  5
152FC
331
152C4
  5
152FD
331
152C5
  5
152FE
331
152C6
  5
152FF
331
152C7
  5
15300
331
152C8
  5
15301
331
152C9
  5
15302
331
152CA
  5
15303
331
152CB
  5
15304
331
152CC
  5
15317
331
152CD
  5
15318
331
152CE
  5
1531A
331
152CF
  5
1531C
331
152F0
  5
1531E
331
152F3
  5
15321
331
152F7
  5
15322
331
152FB
  5
15323
331
152FC
  5
15325
331
152FD
  5
15326
331
152FE
  5
15327
331
152FF
  5
15331
331
15300
  5
15332
331
15301
  5
15333
331
15302
  5
1533E
331
15303
  5
15340
331
15304
  5
15341
331
15317
  5
15342
331
15318
  5
15343
331
1531A
  5
15344
331
1531C
  5
15345
331
1531E
  5
15346
331
15321
  5
15347
331
15322
  5
15348
331
15323
  5
15349
331
15325
  5
1534A
331
15326
  5
1534B
331
15327
  5
1534C
331
15331
  5
1534D
331
15332
  5
155F0
331
15333
  5
155F1
331
1533E
  5
155F2
331
15340
  5
155F3
331
15341
  5
155F4
331
15342
  5
155F5
331
15343
  5
155F6
331
15344
  5
155F7
331
15345
  5
155F8
331
15346
  5
155FB
331
15347
  5
155FF
331
15348
  5
15603
331
15349
  5
15604
331
1534A
  5
15605
331
1534B
  5
15606
331
1534C
  5
15614
331
1534D
  5
15615
331
155F0
  5
15616
331
155F1
  5
15617
331
155F2
  5
15619
331
155F3
  5
1561A
331
155F4
  5
1561B
331
155F5
  5
1561C
331
155F6
  5
15635
331
155F7
  5
15636
331
155FA
  5
15638
331
155FE
  5
1563A
331
15602
  5
1563B
331
15603
  5
1563D
331
15604
  5
1563F
331
15605
  5
15640
331
15613
  5
15641
331
15614
  5
15642
331
15615
  5
15690
331
15616
  5
15691
331
15618
  5
15692
331
15619
  5
15693
331
1561A
  5
15694
331
1561B
  5
15695
331
1561C
  5
15696
331
15635
  5
15697
331
15636
  5
15698
331
15638
  5
15699
331
1563A
  5
1569A
331
1563B
  5
1569B
331
1563D
  5
1569C
331
1563F
  5
1569D
331
15640
  5
1569E
331
15641
  5
1569F
331
15642
  5
156A0
331
15690
  5
156A1
331
15691
  5
156A2
331
15692
  5
156A3
331
15693
  5
156A4
331
15694
  5
156A5
331
15695
  5
156A6
331
15696
  5
156A7
331
15697
  5
156A8
331
15698
  5
156A9
331
15699
  5
156AA
331
1569A
  5
156AB
331
1569B
  5
156AC
331
1569C
  5
156AD
331
1569D
  5
156AE
331
1569E
  5
156AF
331
1569F
  5
156B0
331
156A0
  5
156B1
331
156A1
  5
156B2
331
156A2
  5
156B3
331
156A3
  5
1574F
331
156A4
  5
15750
331
156A5
  5
15751
331
156A6
  5
15752
331
156A7
  5
1575C
331
156A8
  5
15764
331
156A9
  5
1594D
331
156AA
  5
1594E
331
156AB
  5
1594F
331
156AC
  5
15960
331
156AD
  5
15961
331
156AE
  5
15962
331
156AF
  5
15963
331
156B0
  5
15965
331
156B1
  5
15967
331
156B2
  5
1596A
331
156B3
  5
1596D
331
1574F
  5
15973
331
15750
  5
1597F
331
15751
  5
159FA
331
15752
  5
15A9F
331
1575C
  5
15AA0
331
15764
  5
15AA1
331
1594D
  5
15AA2
331
1594E
  5
15AAE
331
1594F
  5
15AAF
331
15960
  5
15AE2
331
15961
  5
15AE3
331
15962
  5
15BB8
331
15963
  5
15BB9
331
15965
  5
15BBE
331
15967
  5
15BBF
331
1596A
  5
15BC0
331
1596D
  5
15BCB
331
15973
  5
15BCC
331
1597F
  5
15BDD
331
159FA
  5
15BDE
331
15A9F
  5
15BDF
331
15AA0
  5
15BE1
331
15AA1
  5
15BE4
331
15AA2
  5
15BF0
331
15AAE
  5
15BF1
331
15AAF
  5
15CCD
331
15AE2
  5
15CCE
331
15AE3
  5
15CCF
331
15BB8
  5
15CD0
331
15BB9
  5
15CD1
331
15BBE
  5
15CD2
331
15BBF
  5
15CD3
331
15BC0
  5
15CD4
331
15BCA
  5
15CD5
331
15BCB
  5
15CD6
331
15BDD
  5
15CD7
331
15BDE
  5
15CD8
331
15BDF
  5
15CD9
331
15BE0
  5
15CDA
331
15BE3
  5
15CDB
331
15BEF
  5
15CDC
331
15BF0
  5
15CDD
331
15CCD
  5
15CDE
331
15CCE
  5
15CDF
331
15CCF
  5
15CE0
331
15CD0
  5
15CE1
331
15CD1
  5
15CE2
331
15CD2
  5
15CE3
331
15CD3
  5
15CE4
331
15CD4
  5
15CE5
331
15CD5
  5
15CE6
331
15CD6
  5
15CE7
331
15CD7
  5
15CE8
331
15CD8
  5
15CE9
331
15CD9
  5
15CEA
331
15CDA
  5
15CEB
331
15CDB
  5
15CEC
331
15CDC
  5
15CED
331
15CDD
  5
15CEE
331
15CDE
  5
15CEF
331
15CDF
  5
15CF0
331
15CE0
  5
15CF1
331
15CE1
  5
15CF2
331
15CE2
  5
15CF3
331
15CE3
  5
15CF4
331
15CE4
  5
15CF5
331
15CE5
  5
15CF6
331
15CE6
  5
15CF7
331
15CE7
  5
15CF9
331
15CE8
  5
15CFA
331
15CE9
  5
15CFB
331
15CEA
  5
15CFC
331
15CEB
  5
15CFE
331
15CEC
  5
15CFF
331
15CED
  5
15D00
331
15CEE
  5
15D01
331
15CEF
  5
15D05
331
15CF0
  5
15D06
331
15CF1
  5
15D07
331
15CF2
  5
15D08
331
15CF3
  5
15D09
331
15CF4
  5
15D0A
331
15CF5
  5
15D0B
331
15CF6
  5
15D0C
331
15CF8
  5
15D0D
331
15CF9
  5
15D14
331
15CFA
  5
15D15
331
15CFB
  5
15D16
331
15CFD
  5
15D17
331
15CFE
  5
15D18
331
15CFF
  5
15D19
331
15D00
  5
15D1A
331
15D04
  5
15D1B
331
15D05
  5
15D1C
331
15D06
  5
15D1D
331
15D07
  5
15D1E
331
15D08
  5
15D1F
331
15D09
  5
15D20
331
15D0A
  5
15D21
331
15D0B
  5
15D22
331
15D0C
  5
15D23
331
15D0D
  5
15D27
331
15D15
  5
15D28
331
15D16
  5
15D29
331
15D17
  5
15D2A
331
15D18
  5
15D2B
331
15D19
  5
15D2C
331
15D1A
  5
15D2D
331
15D1B
  5
15D2E
331
15D1C
  5
15D2F
331
15D1D
  5
15D30
331
15D1E
  5
15D31
331
15D1F
  5
15D32
331
15D20
  5
15D33
331
15D21
  5
15D34
331
15D22
  5
15D35
331
15D23
  5
15D36
331
15D27
  5
15D37
331
15D28
  5
15D38
331
15D29
  5
15D39
331
15D2A
  5
15D3A
331
15D2B
  5
15D3B
331
15D2C
  5
15D3C
331
15D2D
  5
15DA8
331
15D2E
  5
15DA9
331
15D2F
  5
15DAA
331
15D30
  5
15DAB
331
15D31
  5
15DAC
331
15D32
  5
15DAD
331
15D33
  5
15DAF
331
15D34
  5
15DB0
331
15D35
  5
15DB1
331
15D36
  5
15DB2
331
15D37
  5
15DB3
331
15D38
  5
15DB4
331
15D39
  5
15DB5
331
15D3A
  5
15DB6
331
15D3B
  5
15DB7
331
15D3C
  5
15DB8
331
15DAA
  5
14341
331
15DAB
  5
14340
331
15DAF
  5
15DBA
331
15DB0
  5
15DBB
331
15DB1
  5
15DBC
331
15DB2
  5
15DBD
331
15DB3
  5
15DBE
331
15DB4
  5
15DBF
331
15DB5
  5
15DC0
331
15DB6
  5
15DC1
331
15DB7
  5
15DC2
331
15DB8
  5
15DC3
331
15DBA
  5
15DC4
331
15DBB
  5
15DC5
331
15DBC
  5
15DC6
331
15DBD
  5
15DC7
331
15DBE
  5
15DC8
331
15DBF
  5
15DC9
331
15DC0
  5
15DCA
331
15DC1
  5
15DCB
331
15DC2
  5
15DCC
331
15DC3
  5
15DCD
331
15DC4
  5
15DCE
331
15DC5
  5
15DCF
331
15DC6
  5
15DD0
331
15DC7
  5
15DD1
331
15DC8
  5
15DD2
331
15DC9
  5
15DD3
331
15DCA
  5
15DD4
331
15DCB
  5
15DD5
331
15DCC
  5
15DD6
331
15DCD
  5
15DD7
331
15DCE
  5
15DD8
331
15DCF
  5
15DD9
331
15DD0
  5
15DDA
331
15DD1
  5
15DDB
331
15DD2
  5
15DDC
331
15DD3
  5
15DDD
331
15DD4
  5
15DE3
331
15DD5
  5
15DE4
331
15DD6
  5
15DE5
331
15DD7
  5
15DE6
331
15DD8
  5
15DE7
331
15DD9
  5
15DE8
331
15DDA
  5
15DE9
331
15DDB
  5
15DEA
331
15DDC
  5
15DEB
331
15DDD
  5
15DEC
331
15DE3
  5
141E5
331
15DE4
  5
141D4
331
15DE5
  5
1428F
331
15DE6
  5
141DA
331
15DE7
  5
14290
331
15DE8
  5
15DED
331
15DE9
  5
15DEE
331
15DEA
  5
15DEF
331
15DEB
  5
15DF0
331
15DEC
  5
15DF1
331
15DED
  5
15DF2
331
15DEE
  5
15DF3
331
15DEF
  5
15DF4
331
15DF0
  5
15DF5
331
15DF1
  5
15DF6
331
15DF2
  5
1429F
331
15DF3
  5
14297
331
15DF4
  5
142A3
331
15DF5
  5
142A4
331
15DF6
  5
14298
  0
SORTENTSTABLE
  5
2344
102
{ACAD_REACTORS
330
2343
102
}
330
2343
100
AcDbSortentsTable
330
1B
  0
ACDBDETAILVIEWSTYLE
  5
15D87
102
{ACAD_XDICTIONARY
360
15E32
102
}
102
{ACAD_REACTORS
330
15D86
102
}
330
15D86
100
AcDbModelDocViewStyle
 70
     0
  3
Metric50
290
     0
100
AcDbDetailViewStyle
 70
     0
 71
     0
 90
        3
 71
     1
340
11
 62
   256
 40
5.0
340
0
 62
   256
 40
5.0
300

 40
0.0
280
     1
 71
     2
340
16
 90
       25
 62
   256
 71
     3
340
11
 62
   256
 40
5.0
 90
        0
 40
15.0
 90
        1
300
%<\AcVar ViewDetailId>% (%<\AcVar ViewScale \f "%sn">%)
 71
     4
340
16
 90
       25
 62
   256
340
16
 90
       25
 62
   256
280
     0
  0
LAYOUT
  5
1E
102
{ACAD_XDICTIONARY
360
2356
102
}
102
{ACAD_REACTORS
330
1A
102
}
330
1A
100
AcDbPlotSettings
  1

  2
HMYPR07
  4
A4
  6

 40
5.873749732971191
 41
5.873747825622558
 42
5.873748779296875
 43
5.873748779296875
 44
209.9733276367187
 45
296.9259948730469
 46
0.0
 47
0.0
 48
0.0
 49
0.0
140
0.0
141
0.0
142
1.0
143
1.0
 70
   688
 72
     1
 73
     1
 74
     5
  7
monochrome.ctb
 75
    16
147
1.0
 76
     0
 77
     2
 78
   300
148
0.0
149
0.0
100
AcDbLayout
  1
A4-Xﾚｲｱｳﾄ
 70
     1
 71
     1
 10
-5.873748779296875
 20
-5.873749732971191
 11
291.05224609375
 21
204.0995779037475
 12
0.0
 22
0.0
 32
0.0
 14
4.0
 24
2.999999999999886
 34
0.0
 15
279.0
 25
183.0
 35
0.0
146
0.0
 13
0.0
 23
0.0
 33
0.0
 16
1.0
 26
0.0
 36
0.0
 17
0.0
 27
1.0
 37
0.0
 76
     0
330
1B
331
C2
1001
ACAD_PSEXT
1000
HMYPR07
1000
Canon LBP3920/3970 LIPS
1000
IP_192.168.32.57
1000

1070
     0
  0
LAYOUT
  5
22
102
{ACAD_XDICTIONARY
360
15B51
102
}
102
{ACAD_REACTORS
330
1A
102
}
330
1A
100
AcDbPlotSettings
  1

  2
\\8FCL3\IPSIO NX710
  4
A4
  6

 40
5.831416606903076
 41
4.942422866821289
 42
7.609405517578125
 43
5.789093017578125
 44
209.9733276367187
 45
296.9683227539062
 46
0.0
 47
0.0
 48
0.0
 49
0.0
140
0.0
141
0.0
142
1.0
143
1.334254467352194
 70
 11952
 72
     1
 73
     1
 74
     0
  7

 75
     0
147
0.7494822198230922
 76
     0
 77
     2
 78
   300
148
-57.88030180184231
149
202.7182899524258
100
AcDbLayout
  1
Model
 70
     1
 71
     0
 10
0.0
 20
0.0
 11
12.0
 21
9.0
 12
0.0
 22
0.0
 32
0.0
 14
0.0
 24
0.0
 34
0.0
 15
0.0
 25
0.0
 35
0.0
146
0.0
 13
0.0
 23
0.0
 33
0.0
 16
1.0
 26
0.0
 36
0.0
 17
0.0
 27
1.0
 37
0.0
 76
     0
330
1F
331
20CE
  0
MATERIAL
  5
226F
102
{ACAD_XDICTIONARY
360
2270
102
}
102
{ACAD_REACTORS
330
2266
102
}
330
2266
100
AcDbMaterial
  1
ByBlock
 72
     0
 43
0.0008202099737533
 43
0.0
 43
0.0
 43
0.0
 43
0.0
 43
0.0008202099737533
 43
0.0
 43
0.0
 43
0.0
 43
0.0
 43
1.0
 43
0.0
 43
0.0
 43
0.0
 43
0.0
 43
1.0
 77
     0
 47
0.0008202099737533
 47
0.0
 47
0.0
 47
0.0
 47
0.0
 47
0.0008202099737533
 47
0.0
 47
0.0
 47
0.0
 47
0.0
 47
1.0
 47
0.0
 47
0.0
 47
0.0
 47
0.0
 47
1.0
171
     0
 49
0.0008202099737533
 49
0.0
 49
0.0
 49
0.0
 49
0.0
 49
0.0008202099737533
 49
0.0
 49
0.0
 49
0.0
 49
0.0
 49
1.0
 49
0.0
 49
0.0
 49
0.0
 49
0.0
 49
1.0
175
     0
142
0.0008202099737533
142
0.0
142
0.0
142
0.0
142
0.0
142
0.0008202099737533
142
0.0
142
0.0
142
0.0
142
0.0
142
1.0
142
0.0
142
0.0
142
0.0
142
0.0
142
1.0
179
     0
144
0.0008202099737533
144
0.0
144
0.0
144
0.0
144
0.0
144
0.0008202099737533
144
0.0
144
0.0
144
0.0
144
0.0
144
1.0
144
0.0
144
0.0
144
0.0
144
0.0
144
1.0
147
0.0008202099737533
147
0.0
147
0.0
147
0.0
147
0.0
147
0.0008202099737533
147
0.0
147
0.0
147
0.0
147
0.0
147
1.0
147
0.0
147
0.0
147
0.0
147
0.0
147
1.0
  0
MATERIAL
  5
2267
102
{ACAD_XDICTIONARY
360
2268
102
}
102
{ACAD_REACTORS
330
2266
102
}
330
2266
100
AcDbMaterial
  1
ByLayer
 72
     0
 43
0.0008202099737533
 43
0.0
 43
0.0
 43
0.0
 43
0.0
 43
0.0008202099737533
 43
0.0
 43
0.0
 43
0.0
 43
0.0
 43
1.0
 43
0.0
 43
0.0
 43
0.0
 43
0.0
 43
1.0
 77
     0
 47
0.0008202099737533
 47
0.0
 47
0.0
 47
0.0
 47
0.0
 47
0.0008202099737533
 47
0.0
 47
0.0
 47
0.0
 47
0.0
 47
1.0
 47
0.0
 47
0.0
 47
0.0
 47
0.0
 47
1.0
171
     0
 49
0.0008202099737533
 49
0.0
 49
0.0
 49
0.0
 49
0.0
 49
0.0008202099737533
 49
0.0
 49
0.0
 49
0.0
 49
0.0
 49
1.0
 49
0.0
 49
0.0
 49
0.0
 49
0.0
 49
1.0
175
     0
142
0.0008202099737533
142
0.0
142
0.0
142
0.0
142
0.0
142
0.0008202099737533
142
0.0
142
0.0
142
0.0
142
0.0
142
1.0
142
0.0
142
0.0
142
0.0
142
0.0
142
1.0
179
     0
144
0.0008202099737533
144
0.0
144
0.0
144
0.0
144
0.0
144
0.0008202099737533
144
0.0
144
0.0
144
0.0
144
0.0
144
1.0
144
0.0
144
0.0
144
0.0
144
0.0
144
1.0
147
0.0008202099737533
147
0.0
147
0.0
147
0.0
147
0.0
147
0.0008202099737533
147
0.0
147
0.0
147
0.0
147
0.0
147
1.0
147
0.0
147
0.0
147
0.0
147
0.0
147
1.0
  0
MATERIAL
  5
2277
102
{ACAD_XDICTIONARY
360
2278
102
}
102
{ACAD_REACTORS
330
2266
102
}
330
2266
100
AcDbMaterial
  1
Global
 72
     0
 43
0.0008202099737533
 43
0.0
 43
0.0
 43
0.0
 43
0.0
 43
0.0008202099737533
 43
0.0
 43
0.0
 43
0.0
 43
0.0
 43
1.0
 43
0.0
 43
0.0
 43
0.0
 43
0.0
 43
1.0
 77
     0
 47
0.0008202099737533
 47
0.0
 47
0.0
 47
0.0
 47
0.0
 47
0.0008202099737533
 47
0.0
 47
0.0
 47
0.0
 47
0.0
 47
1.0
 47
0.0
 47
0.0
 47
0.0
 47
0.0
 47
1.0
171
     0
 49
0.0008202099737533
 49
0.0
 49
0.0
 49
0.0
 49
0.0
 49
0.0008202099737533
 49
0.0
 49
0.0
 49
0.0
 49
0.0
 49
1.0
 49
0.0
 49
0.0
 49
0.0
 49
0.0
 49
1.0
175
     0
142
0.0008202099737533
142
0.0
142
0.0
142
0.0
142
0.0
142
0.0008202099737533
142
0.0
142
0.0
142
0.0
142
0.0
142
1.0
142
0.0
142
0.0
142
0.0
142
0.0
142
1.0
179
     0
144
0.0008202099737533
144
0.0
144
0.0
144
0.0
144
0.0
144
0.0008202099737533
144
0.0
144
0.0
144
0.0
144
0.0
144
1.0
144
0.0
144
0.0
144
0.0
144
0.0
144
1.0
147
0.0008202099737533
147
0.0
147
0.0
147
0.0
147
0.0
147
0.0008202099737533
147
0.0
147
0.0
147
0.0
147
0.0
147
1.0
147
0.0
147
0.0
147
0.0
147
0.0
147
1.0
  0
MLEADERSTYLE
  5
22B6
102
{ACAD_REACTORS
330
22B5
102
}
330
22B5
100
AcDbMLeaderStyle
179
     2
170
     2
171
     1
172
     0
 90
        2
 40
0.0
 41
0.0
173
     1
 91
-1056964608
340
14
 92
       -2
290
     1
 42
2.0
291
     1
 43
0.36
  3
Standard
 44
4.0
300

342
11
174
     1
178
     6
175
     1
176
     0
 93
-1056964608
 45
4.0
292
     0
297
     0
 46
4.0
 94
-1056964608
 47
1.0
 49
1.0
140
1.0
293
     1
141
0.0
294
     1
177
     0
142
1.0
295
     0
296
     0
143
0.125
271
     0
272
     9
273
     9
298
     0
  0
MLEADERSTYLE
  5
2531
102
{ACAD_REACTORS
330
22B5
102
}
330
22B5
100
AcDbMLeaderStyle
179
     2
170
     2
171
     1
172
     0
 90
        2
 40
0.0
 41
0.0
173
     1
 91
-1073741824
340
15
 92
       -1
290
     1
 42
1.0
291
     1
 43
0.5
  3
Standard
 44
2.5
300

342
DE0
174
     5
178
     5
175
     1
176
     0
 93
-1073741824
 45
2.5
292
     0
297
     0
 46
4.0
 94
-1056964608
 47
1.0
 49
1.0
140
1.0
293
     1
141
0.0
294
     1
177
     0
142
0.0
295
     0
296
     0
143
0.125
271
     0
272
     9
273
     9
298
     0
  0
MLINESTYLE
  5
18
102
{ACAD_REACTORS
330
17
102
}
330
17
100
AcDbMlineStyle
  2
STANDARD
 70
     0
  3

 62
   256
 51
90.0
 52
90.0
 71
     2
 49
0.5
 62
   256
  6
BYLAYER
 49
-0.5
 62
   256
  6
BYLAYER
  0
ACDBPLACEHOLDER
  5
F
102
{ACAD_REACTORS
330
E
102
}
330
E
  0
SCALE
  5
8AB4
102
{ACAD_REACTORS
330
2293
102
}
330
2293
100
AcDbScale
 70
     0
300
5:1
140
5.0
141
1.0
290
     0
1001
ACAD
1000
AcRTDxfName
1000
SCALE
  0
SCALE
  5
8AB5
102
{ACAD_REACTORS
330
2293
102
}
330
2293
100
AcDbScale
 70
     0
300
5：1
140
5.0
141
1.0
290
     0
  0
SCALE
  5
AA4C
102
{ACAD_REACTORS
330
2293
102
}
330
2293
100
AcDbScale
 70
     0
300
5 : 1
140
5.0
141
1.0
290
     0
  0
SCALE
  5
AA4D
102
{ACAD_REACTORS
330
2293
102
}
330
2293
100
AcDbScale
 70
     0
300
1:7
140
1.0
141
7.0
290
     0
  0
SCALE
  5
2294
102
{ACAD_REACTORS
330
2293
102
}
330
2293
100
AcDbScale
 70
     0
300
1:1
140
1.0
141
1.0
290
     1
  0
SCALE
  5
2295
102
{ACAD_REACTORS
330
2293
102
}
330
2293
100
AcDbScale
 70
     0
300
1:2
140
1.0
141
2.0
290
     0
  0
SCALE
  5
2296
102
{ACAD_REACTORS
330
2293
102
}
330
2293
100
AcDbScale
 70
     0
300
1:4
140
1.0
141
4.0
290
     0
  0
SCALE
  5
2297
102
{ACAD_REACTORS
330
2293
102
}
330
2293
100
AcDbScale
 70
     0
300
1:5
140
1.0
141
5.0
290
     0
  0
SCALE
  5
2298
102
{ACAD_REACTORS
330
2293
102
}
330
2293
100
AcDbScale
 70
     0
300
1:8
140
1.0
141
8.0
290
     0
  0
SCALE
  5
2299
102
{ACAD_REACTORS
330
2293
102
}
330
2293
100
AcDbScale
 70
     0
300
1:10
140
1.0
141
10.0
290
     0
  0
SCALE
  5
229A
102
{ACAD_REACTORS
330
2293
102
}
330
2293
100
AcDbScale
 70
     0
300
1:16
140
1.0
141
16.0
290
     0
  0
SCALE
  5
229B
102
{ACAD_REACTORS
330
2293
102
}
330
2293
100
AcDbScale
 70
     0
300
1:20
140
1.0
141
20.0
290
     0
  0
SCALE
  5
229C
102
{ACAD_REACTORS
330
2293
102
}
330
2293
100
AcDbScale
 70
     0
300
1:30
140
1.0
141
30.0
290
     0
  0
SCALE
  5
229D
102
{ACAD_REACTORS
330
2293
102
}
330
2293
100
AcDbScale
 70
     0
300
1:40
140
1.0
141
40.0
290
     0
  0
SCALE
  5
229E
102
{ACAD_REACTORS
330
2293
102
}
330
2293
100
AcDbScale
 70
     0
300
1:50
140
1.0
141
50.0
290
     0
  0
SCALE
  5
229F
102
{ACAD_REACTORS
330
2293
102
}
330
2293
100
AcDbScale
 70
     0
300
1:100
140
1.0
141
100.0
290
     0
  0
SCALE
  5
22A0
102
{ACAD_REACTORS
330
2293
102
}
330
2293
100
AcDbScale
 70
     0
300
2:1
140
2.0
141
1.0
290
     0
  0
SCALE
  5
22A1
102
{ACAD_REACTORS
330
2293
102
}
330
2293
100
AcDbScale
 70
     0
300
4:1
140
4.0
141
1.0
290
     0
  0
SCALE
  5
22A2
102
{ACAD_REACTORS
330
2293
102
}
330
2293
100
AcDbScale
 70
     0
300
8:1
140
8.0
141
1.0
290
     0
  0
SCALE
  5
22A3
102
{ACAD_REACTORS
330
2293
102
}
330
2293
100
AcDbScale
 70
     0
300
10:1
140
10.0
141
1.0
290
     0
  0
SCALE
  5
22A4
102
{ACAD_REACTORS
330
2293
102
}
330
2293
100
AcDbScale
 70
     0
300
100:1
140
100.0
141
1.0
290
     0
  0
SCALE
  5
22A5
102
{ACAD_REACTORS
330
2293
102
}
330
2293
100
AcDbScale
 70
     0
300
1/128" = 1'-0"
140
0.0078125
141
12.0
290
     0
  0
SCALE
  5
22A6
102
{ACAD_REACTORS
330
2293
102
}
330
2293
100
AcDbScale
 70
     0
300
1/64" = 1'-0"
140
0.015625
141
12.0
290
     0
  0
SCALE
  5
22A7
102
{ACAD_REACTORS
330
2293
102
}
330
2293
100
AcDbScale
 70
     0
300
1/32" = 1'-0"
140
0.03125
141
12.0
290
     0
  0
SCALE
  5
22A8
102
{ACAD_REACTORS
330
2293
102
}
330
2293
100
AcDbScale
 70
     0
300
1/16" = 1'-0"
140
0.0625
141
12.0
290
     0
  0
SCALE
  5
22A9
102
{ACAD_REACTORS
330
2293
102
}
330
2293
100
AcDbScale
 70
     0
300
3/32" = 1'-0"
140
0.09375
141
12.0
290
     0
  0
SCALE
  5
22AA
102
{ACAD_REACTORS
330
2293
102
}
330
2293
100
AcDbScale
 70
     0
300
1/8" = 1'-0"
140
0.125
141
12.0
290
     0
  0
SCALE
  5
22AB
102
{ACAD_REACTORS
330
2293
102
}
330
2293
100
AcDbScale
 70
     0
300
3/16" = 1'-0"
140
0.1875
141
12.0
290
     0
  0
SCALE
  5
22AC
102
{ACAD_REACTORS
330
2293
102
}
330
2293
100
AcDbScale
 70
     0
300
1/4" = 1'-0"
140
0.25
141
12.0
290
     0
  0
SCALE
  5
22AD
102
{ACAD_REACTORS
330
2293
102
}
330
2293
100
AcDbScale
 70
     0
300
3/8" = 1'-0"
140
0.375
141
12.0
290
     0
  0
SCALE
  5
22AE
102
{ACAD_REACTORS
330
2293
102
}
330
2293
100
AcDbScale
 70
     0
300
1/2" = 1'-0"
140
0.5
141
12.0
290
     0
  0
SCALE
  5
22AF
102
{ACAD_REACTORS
330
2293
102
}
330
2293
100
AcDbScale
 70
     0
300
3/4" = 1'-0"
140
0.75
141
12.0
290
     0
  0
SCALE
  5
22B0
102
{ACAD_REACTORS
330
2293
102
}
330
2293
100
AcDbScale
 70
     0
300
1" = 1'-0"
140
1.0
141
12.0
290
     0
  0
SCALE
  5
22B1
102
{ACAD_REACTORS
330
2293
102
}
330
2293
100
AcDbScale
 70
     0
300
1-1/2" = 1'-0"
140
1.5
141
12.0
290
     0
  0
SCALE
  5
22B2
102
{ACAD_REACTORS
330
2293
102
}
330
2293
100
AcDbScale
 70
     0
300
3" = 1'-0"
140
3.0
141
12.0
290
     0
  0
SCALE
  5
22B3
102
{ACAD_REACTORS
330
2293
102
}
330
2293
100
AcDbScale
 70
     0
300
6" = 1'-0"
140
6.0
141
12.0
290
     0
  0
SCALE
  5
22B4
102
{ACAD_REACTORS
330
2293
102
}
330
2293
100
AcDbScale
 70
     0
300
1'-0" = 1'-0"
140
12.0
141
12.0
290
     0
  0
ACDBSECTIONVIEWSTYLE
  5
15D85
102
{ACAD_XDICTIONARY
360
15E30
102
}
102
{ACAD_REACTORS
330
15D84
102
}
330
15D84
100
AcDbModelDocViewStyle
 70
     0
  3
Metric50
290
     0
100
AcDbSectionViewStyle
 70
     0
 71
     0
 90
      102
 71
     1
340
11
 62
   256
 40
5.0
340
0
340
0
 62
   256
 40
5.0
300
I, O, Q, S, X, Z
 40
10.0
 90
        0
 40
2.5
 90
        0
 71
     2
340
16
 90
       25
 62
   256
340
16
 90
       50
 62
   256
 40
5.0
 40
2.5
 40
5.0
 71
     3
340
11
 62
   256
 40
5.0
 90
        0
 40
15.0
 90
        1
300
%<\AcVar ViewSectionStartId>%-%<\AcVar ViewSectionEndId>% (%<\AcVar ViewScale \f "%sn">%)
 71
     4
 62
   256
 62
   257
300
ANSI31
 40
1.0
 90
        0
290
     0
290
     0
 90
        6
 40
0.0
 40
1.570796326794896
 40
0.2617993877991494
 40
1.308996938995747
 40
-0.2617993877991494
 40
1.832595714594046
  0
TABLESTYLE
  5
2292
102
{ACAD_XDICTIONARY
360
22C8
102
}
102
{ACAD_REACTORS
330
2291
102
}
330
2291
100
AcDbTableStyle
280
     0
  3
Standard
 70
     0
 71
     0
 40
1.5
 41
1.5
280
     0
281
     0
  7
Standard
140
4.5
170
     2
 62
     0
 63
     7
283
     0
 90
      512
 91
        0
  1

274
    -2
284
     1
 64
     0
275
    -2
285
     1
 65
     0
276
    -2
286
     1
 66
     0
277
    -2
287
     1
 67
     0
278
    -2
288
     1
 68
     0
279
    -2
289
     1
 69
     0
  7
Standard
140
6.0
170
     5
 62
     0
 63
     7
283
     0
 90
      512
 91
        0
  1

274
    -2
284
     1
 64
     0
275
    -2
285
     1
 65
     0
276
    -2
286
     1
 66
     0
277
    -2
287
     1
 67
     0
278
    -2
288
     1
 68
     0
279
    -2
289
     1
 69
     0
  7
Standard
140
4.5
170
     5
 62
     0
 63
     7
283
     0
 90
      512
 91
        0
  1

274
    -2
284
     1
 64
     0
275
    -2
285
     1
 65
     0
276
    -2
286
     1
 66
     0
277
    -2
287
     1
 67
     0
278
    -2
288
     1
 68
     0
279
    -2
289
     1
 69
     0
  0
VISUALSTYLE
  5
2285
102
{ACAD_REACTORS
330
227F
102
}
330
227F
100
AcDbVisualStyle
  2
2dWireframe
 70
     4
177
     3
291
     0
 70
    58
 90
        0
176
     1
 90
        2
176
     1
 90
        0
176
     1
 90
        0
176
     1
 40
0.6
176
     1
 40
30.0
176
     1
 62
     7
420
 16777215
176
     1
 90
        1
176
     1
 90
        4
176
     1
 62
     7
176
     1
 62
   257
176
     1
 90
        1
176
     1
 90
        1
176
     1
 40
1.0
176
     1
 90
        0
176
     1
 62
   257
176
     1
 40
1.0
176
     1
 90
        1
176
     1
 90
        6
176
     1
 90
        2
176
     1
 62
     7
176
     1
 90
        5
176
     1
 90
        0
176
     1
 90
        0
176
     1
290
     0
176
     1
 90
        1
176
     1
 40
0.0
176
     1
 90
        0
176
     1
290
     1
176
     1
290
     1
176
     1
290
     0
176
     1
290
     0
176
     1
290
     0
176
     1
290
     0
176
     1
290
     0
176
     1
290
     0
176
     1
290
     0
176
     1
 90
       50
176
     1
 40
0.0
176
     1
 40
1.0
176
     1
 90
        0
176
     1
 62
    18
420
        0
176
     1
 90
       50
176
     1
 90
        3
176
     1
 62
     5
420
      255
176
     1
290
     0
176
     1
 90
       50
176
     1
 90
       50
176
     1
 90
       50
176
     1
290
     0
176
     1
 90
       50
176
     1
 62
   256
176
     0
 40
1.0
176
     0
 90
        2
176
     1
  1
strokes_ogs.tif
176
     1
290
     0
176
     1
 40
1.0
176
     1
 40
1.0
176
     1
1001
ACAD
1000
AcDbSavedByObjectVersion
1070
     0
  0
VISUALSTYLE
  5
2287
102
{ACAD_REACTORS
330
227F
102
}
330
227F
100
AcDbVisualStyle
  2
3D Hidden
 70
     6
177
     3
291
     0
 70
    58
 90
        1
176
     1
 90
        2
176
     1
 90
        2
176
     1
 90
        0
176
     1
 40
0.6
176
     1
 40
30.0
176
     1
 62
     7
420
 16777215
176
     1
 90
        2
176
     1
 90
        2
176
     1
 62
     7
176
     1
 62
   257
176
     1
 90
        2
176
     1
 90
        1
176
     1
 40
40.0
176
     1
 90
        0
176
     1
 62
   257
176
     1
 40
1.0
176
     1
 90
        1
176
     1
 90
        6
176
     1
 90
        2
176
     1
 62
     7
176
     1
 90
        3
176
     1
 90
        0
176
     1
 90
        0
176
     1
290
     0
176
     1
 90
        1
176
     1
 40
0.0
176
     1
 90
        0
176
     1
290
     0
176
     1
290
     1
176
     1
290
     1
176
     1
290
     0
176
     1
290
     0
176
     1
290
     0
176
     1
290
     0
176
     1
290
     0
176
     1
290
     0
176
     1
 90
       50
176
     1
 40
0.0
176
     1
 40
1.0
176
     1
 90
        0
176
     1
 62
    18
420
        0
176
     1
 90
       50
176
     1
 90
        3
176
     1
 62
     5
420
      255
176
     1
290
     0
176
     1
 90
       50
176
     1
 90
       50
176
     1
 90
       50
176
     1
290
     0
176
     1
 90
       50
176
     1
 62
   256
176
     0
 40
1.0
176
     0
 90
        2
176
     1
  1
strokes_ogs.tif
176
     1
290
     0
176
     1
 40
1.0
176
     1
 40
1.0
176
     1
1001
ACAD
1000
AcDbSavedByObjectVersion
1070
     0
  0
VISUALSTYLE
  5
2286
102
{ACAD_REACTORS
330
227F
102
}
330
227F
100
AcDbVisualStyle
  2
3dWireframe
 70
     5
177
     3
291
     0
 70
    58
 90
        0
176
     1
 90
        2
176
     1
 90
        0
176
     1
 90
        0
176
     1
 40
0.6
176
     1
 40
30.0
176
     1
 62
     7
420
 16777215
176
     1
 90
        1
176
     1
 90
        4
176
     1
 62
     7
176
     1
 62
   257
176
     1
 90
        1
176
     1
 90
        1
176
     1
 40
1.0
176
     1
 90
        0
176
     1
 62
   257
176
     1
 40
1.0
176
     1
 90
        1
176
     1
 90
        6
176
     1
 90
        2
176
     1
 62
     7
176
     1
 90
        5
176
     1
 90
        0
176
     1
 90
        0
176
     1
290
     0
176
     1
 90
        1
176
     1
 40
0.0
176
     1
 90
        0
176
     1
290
     0
176
     1
290
     1
176
     1
290
     1
176
     1
290
     0
176
     1
290
     0
176
     1
290
     0
176
     1
290
     0
176
     1
290
     0
176
     1
290
     0
176
     1
 90
       50
176
     1
 40
0.0
176
     1
 40
1.0
176
     1
 90
        0
176
     1
 62
    18
420
        0
176
     1
 90
       50
176
     1
 90
        3
176
     1
 62
     5
420
      255
176
     1
290
     0
176
     1
 90
       50
176
     1
 90
       50
176
     1
 90
       50
176
     1
290
     0
176
     1
 90
       50
176
     1
 62
   256
176
     0
 40
1.0
176
     0
 90
        2
176
     1
  1
strokes_ogs.tif
176
     1
290
     0
176
     1
 40
1.0
176
     1
 40
1.0
176
     1
1001
ACAD
1000
AcDbSavedByObjectVersion
1070
     0
  0
VISUALSTYLE
  5
2284
102
{ACAD_REACTORS
330
227F
102
}
330
227F
100
AcDbVisualStyle
  2
Basic
 70
     7
177
     3
291
     1
 70
    58
 90
        1
176
     1
 90
        0
176
     1
 90
        1
176
     1
 90
        0
176
     1
 40
0.6
176
     1
 40
30.0
176
     1
 62
     7
420
 16777215
176
     1
 90
        0
176
     1
 90
        4
176
     1
 62
     7
176
     1
 62
   257
176
     1
 90
        1
176
     1
 90
        1
176
     1
 40
1.0
176
     1
 90
        8
176
     1
 62
     7
176
     1
 40
1.0
176
     1
 90
        1
176
     1
 90
        6
176
     1
 90
        2
176
     1
 62
     7
176
     1
 90
        5
176
     1
 90
        0
176
     1
 90
        0
176
     1
290
     0
176
     1
 90
        1
176
     1
 40
0.0
176
     1
 90
        0
176
     1
290
     0
176
     1
290
     1
176
     1
290
     1
176
     1
290
     0
176
     1
290
     0
176
     1
290
     0
176
     1
290
     0
176
     1
290
     0
176
     1
290
     0
176
     1
 90
       50
176
     1
 40
0.0
176
     1
 40
1.0
176
     1
 90
        0
176
     1
 62
    18
420
        0
176
     1
 90
       50
176
     1
 90
        3
176
     1
 62
     5
420
      255
176
     1
290
     0
176
     1
 90
       50
176
     1
 90
       50
176
     1
 90
       50
176
     1
290
     0
176
     1
 90
       50
176
     1
 62
   256
176
     0
 40
1.0
176
     0
 90
        2
176
     1
  1
strokes_ogs.tif
176
     1
290
     0
176
     1
 40
1.0
176
     1
 40
1.0
176
     1
1001
ACAD
1000
AcDbSavedByObjectVersion
1070
     0
  0
VISUALSTYLE
  5
228B
102
{ACAD_REACTORS
330
227F
102
}
330
227F
100
AcDbVisualStyle
  2
Brighten
 70
    12
177
     3
291
     1
 70
    58
 90
        2
176
     1
 90
        2
176
     1
 90
        0
176
     1
 90
        0
176
     1
 40
0.6
176
     1
 40
30.0
176
     1
 62
     7
420
 16777215
176
     1
 90
        1
176
     1
 90
        4
176
     1
 62
     7
176
     1
 62
   257
176
     1
 90
        1
176
     1
 90
        1
176
     1
 40
1.0
176
     1
 90
        8
176
     1
 62
     7
176
     1
 40
1.0
176
     1
 90
        1
176
     1
 90
        6
176
     1
 90
        2
176
     1
 62
     7
176
     1
 90
        5
176
     1
 90
        0
176
     1
 90
        0
176
     1
290
     0
176
     1
 90
        1
176
     1
 40
50.0
176
     1
 90
        0
176
     1
290
     0
176
     1
290
     1
176
     1
290
     1
176
     1
290
     0
176
     1
290
     0
176
     1
290
     0
176
     1
290
     0
176
     1
290
     0
176
     1
290
     0
176
     1
 90
       50
176
     1
 40
0.0
176
     1
 40
1.0
176
     1
 90
        0
176
     1
 62
    18
420
        0
176
     1
 90
       50
176
     1
 90
        3
176
     1
 62
     5
420
      255
176
     1
290
     0
176
     1
 90
       50
176
     1
 90
       50
176
     1
 90
       50
176
     1
290
     0
176
     1
 90
       50
176
     1
 62
   256
176
     0
 40
1.0
176
     0
 90
        2
176
     1
  1
strokes_ogs.tif
176
     1
290
     0
176
     1
 40
1.0
176
     1
 40
1.0
176
     1
1001
ACAD
1000
AcDbSavedByObjectVersion
1070
     0
  0
VISUALSTYLE
  5
228F
102
{ACAD_REACTORS
330
227F
102
}
330
227F
100
AcDbVisualStyle
  2
ColorChange
 70
    16
177
     3
291
     1
 70
    58
 90
        2
176
     1
 90
        2
176
     1
 90
        3
176
     1
 90
        0
176
     1
 40
0.6
176
     1
 40
30.0
176
     1
 62
     8
420
  8421504
176
     1
 90
        1
176
     1
 90
        4
176
     1
 62
     7
176
     1
 62
   257
176
     1
 90
        1
176
     1
 90
        1
176
     1
 40
1.0
176
     1
 90
        8
176
     1
 62
     8
420
  8421504
176
     1
 40
1.0
176
     1
 90
        1
176
     1
 90
        6
176
     1
 90
        2
176
     1
 62
     7
176
     1
 90
        5
176
     1
 90
        0
176
     1
 90
        0
176
     1
290
     0
176
     1
 90
        1
176
     1
 40
0.0
176
     1
 90
        0
176
     1
290
     0
176
     1
290
     1
176
     1
290
     1
176
     1
290
     0
176
     1
290
     0
176
     1
290
     0
176
     1
290
     0
176
     1
290
     0
176
     1
290
     0
176
     1
 90
       50
176
     1
 40
0.0
176
     1
 40
1.0
176
     1
 90
        0
176
     1
 62
    18
420
        0
176
     1
 90
       50
176
     1
 90
        3
176
     1
 62
     5
420
      255
176
     1
290
     0
176
     1
 90
       50
176
     1
 90
       50
176
     1
 90
       50
176
     1
290
     0
176
     1
 90
       50
176
     1
 62
   256
176
     0
 40
1.0
176
     0
 90
        2
176
     1
  1
strokes_ogs.tif
176
     1
290
     0
176
     1
 40
1.0
176
     1
 40
1.0
176
     1
1001
ACAD
1000
AcDbSavedByObjectVersion
1070
     0
  0
VISUALSTYLE
  5
2288
102
{ACAD_REACTORS
330
227F
102
}
330
227F
100
AcDbVisualStyle
  2
Conceptual
 70
     9
177
     3
291
     0
 70
    58
 90
        3
176
     1
 90
        2
176
     1
 90
        0
176
     1
 90
        0
176
     1
 40
0.6
176
     1
 40
30.0
176
     1
 62
     7
420
 16777215
176
     1
 90
        2
176
     1
 90
        2
176
     1
 62
     7
176
     1
 62
   257
176
     1
 90
        1
176
     1
 90
        1
176
     1
 40
40.0
176
     1
 90
        8
176
     1
 62
     7
176
     1
 40
1.0
176
     1
 90
        1
176
     1
 90
        6
176
     1
 90
        2
176
     1
 62
     7
176
     1
 90
        3
176
     1
 90
        0
176
     1
 90
        0
176
     1
290
     0
176
     1
 90
        1
176
     1
 40
0.0
176
     1
 90
        0
176
     1
290
     0
176
     1
290
     1
176
     1
290
     1
176
     1
290
     0
176
     1
290
     0
176
     1
290
     0
176
     1
290
     0
176
     1
290
     0
176
     1
290
     0
176
     1
 90
       50
176
     1
 40
0.0
176
     1
 40
1.0
176
     1
 90
        0
176
     1
 62
    18
420
        0
176
     1
 90
       50
176
     1
 90
        3
176
     1
 62
     5
420
      255
176
     1
290
     0
176
     1
 90
       50
176
     1
 90
       50
176
     1
 90
       50
176
     1
290
     0
176
     1
 90
       50
176
     1
 62
   256
176
     0
 40
1.0
176
     0
 90
        2
176
     1
  1
strokes_ogs.tif
176
     1
290
     0
176
     1
 40
1.0
176
     1
 40
1.0
176
     1
1001
ACAD
1000
AcDbSavedByObjectVersion
1070
     0
  0
VISUALSTYLE
  5
228A
102
{ACAD_REACTORS
330
227F
102
}
330
227F
100
AcDbVisualStyle
  2
Dim
 70
    11
177
     3
291
     1
 70
    58
 90
        2
176
     1
 90
        2
176
     1
 90
        0
176
     1
 90
        0
176
     1
 40
0.6
176
     1
 40
30.0
176
     1
 62
     7
420
 16777215
176
     1
 90
        1
176
     1
 90
        4
176
     1
 62
     7
176
     1
 62
   257
176
     1
 90
        1
176
     1
 90
        1
176
     1
 40
1.0
176
     1
 90
        8
176
     1
 62
     7
176
     1
 40
1.0
176
     1
 90
        1
176
     1
 90
        6
176
     1
 90
        2
176
     1
 62
     7
176
     1
 90
        5
176
     1
 90
        0
176
     1
 90
        0
176
     1
290
     0
176
     1
 90
        1
176
     1
 40
-50.0
176
     1
 90
        0
176
     1
290
     0
176
     1
290
     1
176
     1
290
     1
176
     1
290
     0
176
     1
290
     0
176
     1
290
     0
176
     1
290
     0
176
     1
290
     0
176
     1
290
     0
176
     1
 90
       50
176
     1
 40
0.0
176
     1
 40
1.0
176
     1
 90
        0
176
     1
 62
    18
420
        0
176
     1
 90
       50
176
     1
 90
        3
176
     1
 62
     5
420
      255
176
     1
290
     0
176
     1
 90
       50
176
     1
 90
       50
176
     1
 90
       50
176
     1
290
     0
176
     1
 90
       50
176
     1
 62
   256
176
     0
 40
1.0
176
     0
 90
        2
176
     1
  1
strokes_ogs.tif
176
     1
290
     0
176
     1
 40
1.0
176
     1
 40
1.0
176
     1
1001
ACAD
1000
AcDbSavedByObjectVersion
1070
     0
  0
VISUALSTYLE
  5
15B2C
102
{ACAD_REACTORS
330
227F
102
}
330
227F
100
AcDbVisualStyle
  2
EdgeColorOff
 70
    22
177
     3
291
     1
 70
    58
 90
        2
176
     0
 90
        2
176
     0
 90
        0
176
     0
 90
        0
176
     0
 40
0.6
176
     0
 40
30.0
176
     0
 62
     7
420
 16777215
176
     0
 90
        1
176
     0
 90
        4
176
     0
 62
     7
176
     0
 62
   257
176
     0
 90
        1
176
     0
 90
        1
176
     0
 40
1.0
176
     0
 90
        8
176
     2
 62
     7
176
     0
 40
1.0
176
     0
 90
        1
176
     0
 90
        6
176
     0
 90
        2
176
     0
 62
     7
176
     0
 90
        5
176
     0
 90
        0
176
     0
 90
        0
176
     0
290
     0
176
     0
 90
        1
176
     0
 40
0.0
176
     0
 90
        0
176
     0
290
     0
176
     0
290
     1
176
     0
290
     1
176
     0
290
     0
176
     0
290
     0
176
     0
290
     0
176
     1
290
     0
176
     1
290
     0
176
     1
290
     0
176
     1
 90
       50
176
     1
 40
0.0
176
     1
 40
1.0
176
     1
 90
        0
176
     1
 62
    18
420
        0
176
     1
 90
       50
176
     1
 90
        3
176
     1
 62
     5
420
      255
176
     1
290
     0
176
     1
 90
       50
176
     1
 90
       50
176
     1
 90
       50
176
     1
290
     0
176
     1
 90
       50
176
     1
 62
   256
176
     0
 40
1.0
176
     0
 90
        2
176
     1
  1
strokes_ogs.tif
176
     1
290
     0
176
     1
 40
1.0
176
     1
 40
1.0
176
     1
1001
ACAD
1000
AcDbSavedByObjectVersion
1070
     0
  0
VISUALSTYLE
  5
228E
102
{ACAD_REACTORS
330
227F
102
}
330
227F
100
AcDbVisualStyle
  2
Facepattern
 70
    15
177
     3
291
     1
 70
    58
 90
        2
176
     1
 90
        2
176
     1
 90
        0
176
     1
 90
        0
176
     1
 40
0.6
176
     1
 40
30.0
176
     1
 62
     7
420
 16777215
176
     1
 90
        1
176
     1
 90
        4
176
     1
 62
     7
176
     1
 62
   257
176
     1
 90
        1
176
     1
 90
        1
176
     1
 40
1.0
176
     1
 90
        8
176
     1
 62
     7
176
     1
 40
1.0
176
     1
 90
        1
176
     1
 90
        6
176
     1
 90
        2
176
     1
 62
     7
176
     1
 90
        5
176
     1
 90
        0
176
     1
 90
        0
176
     1
290
     0
176
     1
 90
        1
176
     1
 40
0.0
176
     1
 90
        0
176
     1
290
     0
176
     1
290
     1
176
     1
290
     1
176
     1
290
     0
176
     1
290
     0
176
     1
290
     0
176
     1
290
     0
176
     1
290
     0
176
     1
290
     0
176
     1
 90
       50
176
     1
 40
0.0
176
     1
 40
1.0
176
     1
 90
        0
176
     1
 62
    18
420
        0
176
     1
 90
       50
176
     1
 90
        3
176
     1
 62
     5
420
      255
176
     1
290
     0
176
     1
 90
       50
176
     1
 90
       50
176
     1
 90
       50
176
     1
290
     0
176
     1
 90
       50
176
     1
 62
   256
176
     0
 40
1.0
176
     0
 90
        2
176
     1
  1
strokes_ogs.tif
176
     1
290
     0
176
     1
 40
1.0
176
     1
 40
1.0
176
     1
1001
ACAD
1000
AcDbSavedByObjectVersion
1070
     0
  0
VISUALSTYLE
  5
2280
102
{ACAD_REACTORS
330
227F
102
}
330
227F
100
AcDbVisualStyle
  2
Flat
 70
     0
177
     3
291
     1
 70
    58
 90
        2
176
     1
 90
        1
176
     1
 90
        1
176
     1
 90
        2
176
     1
 40
0.6
176
     1
 40
30.0
176
     1
 62
     7
420
 16777215
176
     1
 90
        0
176
     1
 90
        4
176
     1
 62
     7
176
     1
 62
   257
176
     1
 90
        1
176
     1
 90
        1
176
     1
 40
1.0
176
     1
 90
        8
176
     1
 62
     7
176
     1
 40
1.0
176
     1
 90
        1
176
     1
 90
        6
176
     1
 90
        2
176
     1
 62
     7
176
     1
 90
        5
176
     1
 90
        0
176
     1
 90
        0
176
     1
290
     0
176
     1
 90
       13
176
     1
 40
0.0
176
     1
 90
        0
176
     1
290
     0
176
     1
290
     1
176
     1
290
     1
176
     1
290
     0
176
     1
290
     0
176
     1
290
     0
176
     1
290
     0
176
     1
290
     0
176
     1
290
     0
176
     1
 90
       50
176
     1
 40
0.0
176
     1
 40
1.0
176
     1
 90
        0
176
     1
 62
    18
420
        0
176
     1
 90
       50
176
     1
 90
        3
176
     1
 62
     5
420
      255
176
     1
290
     0
176
     1
 90
       50
176
     1
 90
       50
176
     1
 90
       50
176
     1
290
     0
176
     1
 90
       50
176
     1
 62
   256
176
     0
 40
1.0
176
     0
 90
        2
176
     1
  1
strokes_ogs.tif
176
     1
290
     0
176
     1
 40
1.0
176
     1
 40
1.0
176
     1
1001
ACAD
1000
AcDbSavedByObjectVersion
1070
     0
  0
VISUALSTYLE
  5
2281
102
{ACAD_REACTORS
330
227F
102
}
330
227F
100
AcDbVisualStyle
  2
FlatWithEdges
 70
     1
177
     3
291
     1
 70
    58
 90
        2
176
     1
 90
        1
176
     1
 90
        1
176
     1
 90
        2
176
     1
 40
0.6
176
     1
 40
30.0
176
     1
 62
     7
420
 16777215
176
     1
 90
        1
176
     1
 90
        4
176
     1
 62
     7
176
     1
 62
   257
176
     1
 90
        1
176
     1
 90
        1
176
     1
 40
1.0
176
     1
 90
        0
176
     1
 62
   257
176
     1
 40
1.0
176
     1
 90
        1
176
     1
 90
        6
176
     1
 90
        2
176
     1
 62
     7
176
     1
 90
        5
176
     1
 90
        0
176
     1
 90
        0
176
     1
290
     0
176
     1
 90
       13
176
     1
 40
0.0
176
     1
 90
        0
176
     1
290
     0
176
     1
290
     1
176
     1
290
     1
176
     1
290
     0
176
     1
290
     0
176
     1
290
     0
176
     1
290
     0
176
     1
290
     0
176
     1
290
     0
176
     1
 90
       50
176
     1
 40
0.0
176
     1
 40
1.0
176
     1
 90
        0
176
     1
 62
    18
420
        0
176
     1
 90
       50
176
     1
 90
        3
176
     1
 62
     5
420
      255
176
     1
290
     0
176
     1
 90
       50
176
     1
 90
       50
176
     1
 90
       50
176
     1
290
     0
176
     1
 90
       50
176
     1
 62
   256
176
     0
 40
1.0
176
     0
 90
        2
176
     1
  1
strokes_ogs.tif
176
     1
290
     0
176
     1
 40
1.0
176
     1
 40
1.0
176
     1
1001
ACAD
1000
AcDbSavedByObjectVersion
1070
     0
  0
VISUALSTYLE
  5
2282
102
{ACAD_REACTORS
330
227F
102
}
330
227F
100
AcDbVisualStyle
  2
Gouraud
 70
     2
177
     3
291
     1
 70
    58
 90
        2
176
     1
 90
        2
176
     1
 90
        1
176
     1
 90
        2
176
     1
 40
0.6
176
     1
 40
30.0
176
     1
 62
     7
420
 16777215
176
     1
 90
        0
176
     1
 90
        4
176
     1
 62
     7
176
     1
 62
   257
176
     1
 90
        1
176
     1
 90
        1
176
     1
 40
1.0
176
     1
 90
        0
176
     1
 62
     7
176
     1
 40
1.0
176
     1
 90
        1
176
     1
 90
        6
176
     1
 90
        2
176
     1
 62
     7
176
     1
 90
        5
176
     1
 90
        0
176
     1
 90
        0
176
     1
290
     0
176
     1
 90
       13
176
     1
 40
0.0
176
     1
 90
        0
176
     1
290
     0
176
     1
290
     1
176
     1
290
     1
176
     1
290
     0
176
     1
290
     0
176
     1
290
     0
176
     1
290
     0
176
     1
290
     0
176
     1
290
     0
176
     1
 90
       50
176
     1
 40
0.0
176
     1
 40
1.0
176
     1
 90
        0
176
     1
 62
    18
420
        0
176
     1
 90
       50
176
     1
 90
        3
176
     1
 62
     5
420
      255
176
     1
290
     0
176
     1
 90
       50
176
     1
 90
       50
176
     1
 90
       50
176
     1
290
     0
176
     1
 90
       50
176
     1
 62
   256
176
     0
 40
1.0
176
     0
 90
        2
176
     1
  1
strokes_ogs.tif
176
     1
290
     0
176
     1
 40
1.0
176
     1
 40
1.0
176
     1
1001
ACAD
1000
AcDbSavedByObjectVersion
1070
     0
  0
VISUALSTYLE
  5
2283
102
{ACAD_REACTORS
330
227F
102
}
330
227F
100
AcDbVisualStyle
  2
GouraudWithEdges
 70
     3
177
     3
291
     1
 70
    58
 90
        2
176
     1
 90
        2
176
     1
 90
        1
176
     1
 90
        2
176
     1
 40
0.6
176
     1
 40
30.0
176
     1
 62
     7
420
 16777215
176
     1
 90
        1
176
     1
 90
        4
176
     1
 62
     7
176
     1
 62
   257
176
     1
 90
        1
176
     1
 90
        1
176
     1
 40
1.0
176
     1
 90
        0
176
     1
 62
   257
176
     1
 40
1.0
176
     1
 90
        1
176
     1
 90
        6
176
     1
 90
        2
176
     1
 62
     7
176
     1
 90
        5
176
     1
 90
        0
176
     1
 90
        0
176
     1
290
     0
176
     1
 90
       13
176
     1
 40
0.0
176
     1
 90
        0
176
     1
290
     0
176
     1
290
     1
176
     1
290
     1
176
     1
290
     0
176
     1
290
     0
176
     1
290
     0
176
     1
290
     0
176
     1
290
     0
176
     1
290
     0
176
     1
 90
       50
176
     1
 40
0.0
176
     1
 40
1.0
176
     1
 90
        0
176
     1
 62
    18
420
        0
176
     1
 90
       50
176
     1
 90
        3
176
     1
 62
     5
420
      255
176
     1
290
     0
176
     1
 90
       50
176
     1
 90
       50
176
     1
 90
       50
176
     1
290
     0
176
     1
 90
       50
176
     1
 62
   256
176
     0
 40
1.0
176
     0
 90
        2
176
     1
  1
strokes_ogs.tif
176
     1
290
     0
176
     1
 40
1.0
176
     1
 40
1.0
176
     1
1001
ACAD
1000
AcDbSavedByObjectVersion
1070
     0
  0
VISUALSTYLE
  5
15B24
102
{ACAD_REACTORS
330
227F
102
}
330
227F
100
AcDbVisualStyle
  2
Hidden
 70
     6
177
     3
291
     0
 70
    58
 90
        1
176
     1
 90
        2
176
     1
 90
        2
176
     1
 90
        0
176
     1
 40
0.6
176
     1
 40
30.0
176
     1
 62
     7
420
 16777215
176
     1
 90
        2
176
     1
 90
        2
176
     1
 62
     7
176
     1
 62
   257
176
     1
 90
        2
176
     1
 90
        1
176
     1
 40
40.0
176
     1
 90
        0
176
     1
 62
   257
176
     1
 40
1.0
176
     1
 90
        1
176
     1
 90
        6
176
     1
 90
        2
176
     1
 62
     7
176
     1
 90
        3
176
     1
 90
        0
176
     1
 90
        0
176
     1
290
     0
176
     1
 90
        1
176
     1
 40
0.0
176
     1
 90
        0
176
     1
290
     0
176
     1
290
     1
176
     1
290
     1
176
     1
290
     0
176
     1
290
     0
176
     1
290
     0
176
     1
290
     0
176
     1
290
     0
176
     1
290
     0
176
     1
 90
       50
176
     1
 40
0.0
176
     1
 40
1.0
176
     1
 90
        0
176
     1
 62
    18
420
        0
176
     1
 90
       50
176
     1
 90
        3
176
     1
 62
     5
420
      255
176
     1
290
     0
176
     1
 90
       50
176
     1
 90
       50
176
     1
 90
       50
176
     1
290
     0
176
     1
 90
       50
176
     1
 62
   256
176
     0
 40
1.0
176
     0
 90
        2
176
     1
  1
strokes_ogs.tif
176
     1
290
     0
176
     1
 40
1.0
176
     1
 40
1.0
176
     1
1001
ACAD
1000
AcDbSavedByObjectVersion
1070
     0
  0
VISUALSTYLE
  5
15B2A
102
{ACAD_REACTORS
330
227F
102
}
330
227F
100
AcDbVisualStyle
  2
JitterOff
 70
    20
177
     3
291
     1
 70
    58
 90
        2
176
     0
 90
        2
176
     0
 90
        0
176
     0
 90
        0
176
     0
 40
0.6
176
     0
 40
30.0
176
     0
 62
     7
420
 16777215
176
     0
 90
        1
176
     0
 90
        4
176
     0
 62
     7
176
     0
 62
   257
176
     0
 90
        1
176
     0
 90
        1
176
     0
 40
1.0
176
     0
 90
       10
176
     2
 62
     7
176
     0
 40
1.0
176
     0
 90
        1
176
     0
 90
        6
176
     0
 90
        2
176
     0
 62
     7
176
     0
 90
        5
176
     0
 90
        0
176
     0
 90
        0
176
     0
290
     0
176
     0
 90
        1
176
     0
 40
0.0
176
     0
 90
        0
176
     0
290
     0
176
     0
290
     1
176
     0
290
     1
176
     0
290
     0
176
     0
290
     0
176
     0
290
     0
176
     1
290
     0
176
     1
290
     0
176
     1
290
     0
176
     1
 90
       50
176
     1
 40
0.0
176
     1
 40
1.0
176
     1
 90
        0
176
     1
 62
    18
420
        0
176
     1
 90
       50
176
     1
 90
        3
176
     1
 62
     5
420
      255
176
     1
290
     0
176
     1
 90
       50
176
     1
 90
       50
176
     1
 90
       50
176
     1
290
     0
176
     1
 90
       50
176
     1
 62
   256
176
     0
 40
1.0
176
     0
 90
        2
176
     1
  1
strokes_ogs.tif
176
     1
290
     0
176
     1
 40
1.0
176
     1
 40
1.0
176
     1
1001
ACAD
1000
AcDbSavedByObjectVersion
1070
     0
  0
VISUALSTYLE
  5
228D
102
{ACAD_REACTORS
330
227F
102
}
330
227F
100
AcDbVisualStyle
  2
Linepattern
 70
    14
177
     3
291
     1
 70
    58
 90
        2
176
     1
 90
        2
176
     1
 90
        0
176
     1
 90
        0
176
     1
 40
0.6
176
     1
 40
30.0
176
     1
 62
     7
420
 16777215
176
     1
 90
        1
176
     1
 90
        4
176
     1
 62
     7
176
     1
 62
   257
176
     1
 90
        7
176
     1
 90
        7
176
     1
 40
1.0
176
     1
 90
        8
176
     1
 62
     7
176
     1
 40
1.0
176
     1
 90
        1
176
     1
 90
        6
176
     1
 90
        2
176
     1
 62
     7
176
     1
 90
        5
176
     1
 90
        0
176
     1
 90
        0
176
     1
290
     0
176
     1
 90
        1
176
     1
 40
0.0
176
     1
 90
        0
176
     1
290
     0
176
     1
290
     1
176
     1
290
     1
176
     1
290
     0
176
     1
290
     0
176
     1
290
     0
176
     1
290
     0
176
     1
290
     0
176
     1
290
     0
176
     1
 90
       50
176
     1
 40
0.0
176
     1
 40
1.0
176
     1
 90
        0
176
     1
 62
    18
420
        0
176
     1
 90
       50
176
     1
 90
        3
176
     1
 62
     5
420
      255
176
     1
290
     0
176
     1
 90
       50
176
     1
 90
       50
176
     1
 90
       50
176
     1
290
     0
176
     1
 90
       50
176
     1
 62
   256
176
     0
 40
1.0
176
     0
 90
        2
176
     1
  1
strokes_ogs.tif
176
     1
290
     0
176
     1
 40
1.0
176
     1
 40
1.0
176
     1
1001
ACAD
1000
AcDbSavedByObjectVersion
1070
     0
  0
VISUALSTYLE
  5
15B2B
102
{ACAD_REACTORS
330
227F
102
}
330
227F
100
AcDbVisualStyle
  2
OverhangOff
 70
    21
177
     3
291
     1
 70
    58
 90
        2
176
     0
 90
        2
176
     0
 90
        0
176
     0
 90
        0
176
     0
 40
0.6
176
     0
 40
30.0
176
     0
 62
     7
420
 16777215
176
     0
 90
        1
176
     0
 90
        4
176
     0
 62
     7
176
     0
 62
   257
176
     0
 90
        1
176
     0
 90
        1
176
     0
 40
1.0
176
     0
 90
        9
176
     2
 62
     7
176
     0
 40
1.0
176
     0
 90
        1
176
     0
 90
        6
176
     0
 90
        2
176
     0
 62
     7
176
     0
 90
        5
176
     0
 90
        0
176
     0
 90
        0
176
     0
290
     0
176
     0
 90
        1
176
     0
 40
0.0
176
     0
 90
        0
176
     0
290
     0
176
     0
290
     1
176
     0
290
     1
176
     0
290
     0
176
     0
290
     0
176
     0
290
     0
176
     1
290
     0
176
     1
290
     0
176
     1
290
     0
176
     1
 90
       50
176
     1
 40
0.0
176
     1
 40
1.0
176
     1
 90
        0
176
     1
 62
    18
420
        0
176
     1
 90
       50
176
     1
 90
        3
176
     1
 62
     5
420
      255
176
     1
290
     0
176
     1
 90
       50
176
     1
 90
       50
176
     1
 90
       50
176
     1
290
     0
176
     1
 90
       50
176
     1
 62
   256
176
     0
 40
1.0
176
     0
 90
        2
176
     1
  1
strokes_ogs.tif
176
     1
290
     0
176
     1
 40
1.0
176
     1
 40
1.0
176
     1
1001
ACAD
1000
AcDbSavedByObjectVersion
1070
     0
  0
VISUALSTYLE
  5
2289
102
{ACAD_REACTORS
330
227F
102
}
330
227F
100
AcDbVisualStyle
  2
Realistic
 70
     8
177
     3
291
     0
 70
    58
 90
        2
176
     1
 90
        2
176
     1
 90
        0
176
     1
 90
        0
176
     1
 40
0.6
176
     1
 40
30.0
176
     1
 62
     7
420
 16777215
176
     1
 90
        1
176
     1
 90
        0
176
     1
 62
     7
176
     1
 62
   257
176
     1
 90
        1
176
     1
 90
        1
176
     1
 40
1.0
176
     1
 90
        8
176
     1
 62
     8
420
  7895160
176
     1
 40
1.0
176
     1
 90
        1
176
     1
 90
        6
176
     1
 90
        2
176
     1
 62
     7
176
     1
 90
        5
176
     1
 90
        0
176
     1
 90
        0
176
     1
290
     0
176
     1
 90
       13
176
     1
 40
0.0
176
     1
 90
        0
176
     1
290
     0
176
     1
290
     1
176
     1
290
     1
176
     1
290
     0
176
     1
290
     0
176
     1
290
     0
176
     1
290
     0
176
     1
290
     0
176
     1
290
     0
176
     1
 90
       50
176
     1
 40
0.0
176
     1
 40
1.0
176
     1
 90
        0
176
     1
 62
    18
420
        0
176
     1
 90
       50
176
     1
 90
        3
176
     1
 62
     5
420
      255
176
     1
290
     0
176
     1
 90
       50
176
     1
 90
       50
176
     1
 90
       50
176
     1
290
     0
176
     1
 90
       50
176
     1
 62
   256
176
     0
 40
1.0
176
     0
 90
        2
176
     1
  1
strokes_ogs.tif
176
     1
290
     0
176
     1
 40
1.0
176
     1
 40
1.0
176
     1
1001
ACAD
1000
AcDbSavedByObjectVersion
1070
     0
  0
VISUALSTYLE
  5
15B29
102
{ACAD_REACTORS
330
227F
102
}
330
227F
100
AcDbVisualStyle
  2
Shaded
 70
    27
177
     3
291
     0
 70
    58
 90
        2
176
     1
 90
        2
176
     1
 90
        1
176
     1
 90
        2
176
     1
 40
0.6
176
     1
 40
30.0
176
     1
 62
     7
420
 16777215
176
     1
 90
        0
176
     1
 90
        4
176
     1
 62
     7
176
     1
 62
   257
176
     1
 90
        1
176
     1
 90
        1
176
     1
 40
1.0
176
     1
 90
        8
176
     1
 62
   257
176
     1
 40
1.0
176
     1
 90
        1
176
     1
 90
        6
176
     1
 90
        2
176
     1
 62
     8
420
  7895160
176
     1
 90
        3
176
     1
 90
        0
176
     1
 90
        0
176
     1
290
     0
176
     1
 90
        5
176
     1
 40
0.0
176
     1
 90
        0
176
     1
290
     0
176
     1
290
     1
176
     1
290
     1
176
     1
290
     0
176
     1
290
     0
176
     1
290
     0
176
     1
290
     0
176
     1
290
     0
176
     1
290
     0
176
     1
 90
       50
176
     1
 40
0.0
176
     1
 40
1.0
176
     1
 90
        0
176
     1
 62
    18
420
        0
176
     1
 90
       50
176
     1
 90
        3
176
     1
 62
     5
420
      255
176
     1
290
     0
176
     1
 90
       50
176
     1
 90
       50
176
     1
 90
       50
176
     1
290
     0
176
     1
 90
       50
176
     1
 62
   256
176
     0
 40
1.0
176
     0
 90
        2
176
     1
  1
strokes_ogs.tif
176
     1
290
     0
176
     1
 40
1.0
176
     1
 40
1.0
176
     1
1001
ACAD
1000
AcDbSavedByObjectVersion
1070
     0
  0
VISUALSTYLE
  5
15B28
102
{ACAD_REACTORS
330
227F
102
}
330
227F
100
AcDbVisualStyle
  2
Shaded with edges
 70
    26
177
     3
291
     0
 70
    58
 90
        2
176
     1
 90
        2
176
     1
 90
        1
176
     1
 90
        2
176
     1
 40
0.6
176
     1
 40
30.0
176
     1
 62
     7
420
 16777215
176
     1
 90
        1
176
     1
 90
        2
176
     1
 62
     7
176
     1
 62
   257
176
     1
 90
        2
176
     1
 90
        1
176
     1
 40
1.0
176
     1
 90
        8
176
     1
 62
   257
176
     1
 40
1.0
176
     1
 90
        1
176
     1
 90
        6
176
     1
 90
        2
176
     1
 62
     7
176
     1
 90
        3
176
     1
 90
        0
176
     1
 90
        0
176
     1
290
     0
176
     1
 90
        5
176
     1
 40
0.0
176
     1
 90
        0
176
     1
290
     0
176
     1
290
     1
176
     1
290
     1
176
     1
290
     0
176
     1
290
     0
176
     1
290
     0
176
     1
290
     0
176
     1
290
     0
176
     1
290
     0
176
     1
 90
       50
176
     1
 40
0.0
176
     1
 40
1.0
176
     1
 90
        0
176
     1
 62
    18
420
        0
176
     1
 90
       50
176
     1
 90
        3
176
     1
 62
     5
420
      255
176
     1
290
     0
176
     1
 90
       50
176
     1
 90
       50
176
     1
 90
       50
176
     1
290
     0
176
     1
 90
       50
176
     1
 62
   256
176
     0
 40
1.0
176
     0
 90
        2
176
     1
  1
strokes_ogs.tif
176
     1
290
     0
176
     1
 40
1.0
176
     1
 40
1.0
176
     1
1001
ACAD
1000
AcDbSavedByObjectVersion
1070
     0
  0
VISUALSTYLE
  5
15B25
102
{ACAD_REACTORS
330
227F
102
}
330
227F
100
AcDbVisualStyle
  2
Shades of Gray
 70
    23
177
     3
291
     0
 70
    58
 90
        2
176
     1
 90
        2
176
     1
 90
        3
176
     1
 90
        0
176
     1
 40
0.6
176
     1
 40
30.0
176
     1
 62
     7
420
 16777215
176
     1
 90
        2
176
     1
 90
        2
176
     1
 62
     7
176
     1
 62
     7
176
     1
 90
        1
176
     1
 90
        1
176
     1
 40
40.0
176
     1
 90
        8
176
     1
 62
     7
176
     1
 40
1.0
176
     1
 90
        1
176
     1
 90
        6
176
     1
 90
        2
176
     1
 62
     7
176
     1
 90
        3
176
     1
 90
        0
176
     1
 90
        0
176
     1
290
     0
176
     1
 90
        1
176
     1
 40
0.0
176
     1
 90
        0
176
     1
290
     0
176
     1
290
     1
176
     1
290
     1
176
     1
290
     0
176
     1
290
     0
176
     1
290
     0
176
     1
290
     0
176
     1
290
     0
176
     1
290
     0
176
     1
 90
       50
176
     1
 40
0.0
176
     1
 40
1.0
176
     1
 90
        0
176
     1
 62
    18
420
        0
176
     1
 90
       50
176
     1
 90
        3
176
     1
 62
     5
420
      255
176
     1
290
     0
176
     1
 90
       50
176
     1
 90
       50
176
     1
 90
       50
176
     1
290
     0
176
     1
 90
       50
176
     1
 62
   256
176
     0
 40
1.0
176
     0
 90
        2
176
     1
  1
strokes_ogs.tif
176
     1
290
     0
176
     1
 40
1.0
176
     1
 40
1.0
176
     1
1001
ACAD
1000
AcDbSavedByObjectVersion
1070
     0
  0
VISUALSTYLE
  5
15B26
102
{ACAD_REACTORS
330
227F
102
}
330
227F
100
AcDbVisualStyle
  2
Sketchy
 70
    24
177
     3
291
     0
 70
    58
 90
        1
176
     1
 90
        2
176
     1
 90
        2
176
     1
 90
        0
176
     1
 40
0.6
176
     1
 40
30.0
176
     1
 62
     7
420
 16777215
176
     1
 90
        2
176
     1
 90
        2
176
     1
 62
     7
176
     1
 62
     7
176
     1
 90
        1
176
     1
 90
        1
176
     1
 40
40.0
176
     1
 90
       11
176
     1
 62
     7
176
     1
 40
1.0
176
     1
 90
        1
176
     1
 90
        6
176
     1
 90
        2
176
     1
 62
     7
176
     1
 90
        6
176
     1
 90
        0
176
     1
 90
        0
176
     1
290
     0
176
     1
 90
        1
176
     1
 40
0.0
176
     1
 90
        0
176
     1
290
     0
176
     1
290
     1
176
     1
290
     1
176
     1
290
     0
176
     1
290
     0
176
     1
290
     0
176
     1
290
     0
176
     1
290
     0
176
     1
290
     0
176
     1
 90
       50
176
     1
 40
0.0
176
     1
 40
1.0
176
     1
 90
        0
176
     1
 62
    18
420
        0
176
     1
 90
       50
176
     1
 90
        3
176
     1
 62
     5
420
      255
176
     1
290
     0
176
     1
 90
       50
176
     1
 90
       50
176
     1
 90
       50
176
     1
290
     0
176
     1
 90
       50
176
     1
 62
   256
176
     0
 40
1.0
176
     0
 90
        2
176
     1
  1
strokes_ogs.tif
176
     1
290
     0
176
     1
 40
1.0
176
     1
 40
1.0
176
     1
1001
ACAD
1000
AcDbSavedByObjectVersion
1070
     0
  0
VISUALSTYLE
  5
228C
102
{ACAD_REACTORS
330
227F
102
}
330
227F
100
AcDbVisualStyle
  2
Thicken
 70
    13
177
     3
291
     1
 70
    58
 90
        2
176
     1
 90
        2
176
     1
 90
        0
176
     1
 90
        0
176
     1
 40
0.6
176
     1
 40
30.0
176
     1
 62
     7
420
 16777215
176
     1
 90
        1
176
     1
 90
        4
176
     1
 62
     7
176
     1
 62
   257
176
     1
 90
        1
176
     1
 90
        1
176
     1
 40
1.0
176
     1
 90
       12
176
     1
 62
     7
176
     1
 40
1.0
176
     1
 90
        1
176
     1
 90
        6
176
     1
 90
        2
176
     1
 62
     7
176
     1
 90
        5
176
     1
 90
        0
176
     1
 90
        0
176
     1
290
     0
176
     1
 90
        1
176
     1
 40
0.0
176
     1
 90
        0
176
     1
290
     0
176
     1
290
     1
176
     1
290
     1
176
     1
290
     0
176
     1
290
     0
176
     1
290
     0
176
     1
290
     0
176
     1
290
     0
176
     1
290
     0
176
     1
 90
       50
176
     1
 40
0.0
176
     1
 40
1.0
176
     1
 90
        0
176
     1
 62
    18
420
        0
176
     1
 90
       50
176
     1
 90
        3
176
     1
 62
     5
420
      255
176
     1
290
     0
176
     1
 90
       50
176
     1
 90
       50
176
     1
 90
       50
176
     1
290
     0
176
     1
 90
       50
176
     1
 62
   256
176
     0
 40
1.0
176
     0
 90
        2
176
     1
  1
strokes_ogs.tif
176
     1
290
     0
176
     1
 40
1.0
176
     1
 40
1.0
176
     1
1001
ACAD
1000
AcDbSavedByObjectVersion
1070
     0
  0
VISUALSTYLE
  5
15B23
102
{ACAD_REACTORS
330
227F
102
}
330
227F
100
AcDbVisualStyle
  2
Wireframe
 70
     5
177
     3
291
     0
 70
    58
 90
        0
176
     1
 90
        2
176
     1
 90
        0
176
     1
 90
        0
176
     1
 40
0.6
176
     1
 40
30.0
176
     1
 62
     7
420
 16777215
176
     1
 90
        1
176
     1
 90
        4
176
     1
 62
     7
176
     1
 62
   257
176
     1
 90
        1
176
     1
 90
        1
176
     1
 40
1.0
176
     1
 90
        0
176
     1
 62
   257
176
     1
 40
1.0
176
     1
 90
        1
176
     1
 90
        6
176
     1
 90
        2
176
     1
 62
     7
176
     1
 90
        3
176
     1
 90
        0
176
     1
 90
        0
176
     1
290
     0
176
     1
 90
        1
176
     1
 40
0.0
176
     1
 90
        0
176
     1
290
     0
176
     1
290
     1
176
     1
290
     1
176
     1
290
     0
176
     1
290
     0
176
     1
290
     0
176
     1
290
     0
176
     1
290
     0
176
     1
290
     0
176
     1
 90
       50
176
     1
 40
0.0
176
     1
 40
1.0
176
     1
 90
        0
176
     1
 62
    18
420
        0
176
     1
 90
       50
176
     1
 90
        3
176
     1
 62
     5
420
      255
176
     1
290
     0
176
     1
 90
       50
176
     1
 90
       50
176
     1
 90
       50
176
     1
290
     0
176
     1
 90
       50
176
     1
 62
   256
176
     0
 40
1.0
176
     0
 90
        2
176
     1
  1
strokes_ogs.tif
176
     1
290
     0
176
     1
 40
1.0
176
     1
 40
1.0
176
     1
1001
ACAD
1000
AcDbSavedByObjectVersion
1070
     0
  0
VISUALSTYLE
  5
15B27
102
{ACAD_REACTORS
330
227F
102
}
330
227F
100
AcDbVisualStyle
  2
X-Ray
 70
    25
177
     3
291
     0
 70
    58
 90
        2
176
     1
 90
        2
176
     1
 90
        1
176
     1
 90
        1
176
     1
 40
0.5
176
     1
 40
30.0
176
     1
 62
     7
420
 16777215
176
     1
 90
        1
176
     1
 90
        0
176
     1
 62
     7
176
     1
 62
   257
176
     1
 90
        1
176
     1
 90
        1
176
     1
 40
1.0
176
     1
 90
        8
176
     1
 62
     7
176
     1
 40
1.0
176
     1
 90
        1
176
     1
 90
        6
176
     1
 90
        2
176
     1
 62
     7
176
     1
 90
        3
176
     1
 90
        0
176
     1
 90
        0
176
     1
290
     0
176
     1
 90
       13
176
     1
 40
0.0
176
     1
 90
        0
176
     1
290
     0
176
     1
290
     1
176
     1
290
     1
176
     1
290
     0
176
     1
290
     0
176
     1
290
     0
176
     1
290
     0
176
     1
290
     0
176
     1
290
     0
176
     1
 90
       50
176
     1
 40
0.0
176
     1
 40
1.0
176
     1
 90
        0
176
     1
 62
    18
420
        0
176
     1
 90
       50
176
     1
 90
        3
176
     1
 62
     5
420
      255
176
     1
290
     0
176
     1
 90
       50
176
     1
 90
       50
176
     1
 90
       50
176
     1
290
     0
176
     1
 90
       50
176
     1
 62
   256
176
     0
 40
1.0
176
     0
 90
        2
176
     1
  1
strokes_ogs.tif
176
     1
290
     0
176
     1
 40
1.0
176
     1
 40
1.0
176
     1
1001
ACAD
1000
AcDbSavedByObjectVersion
1070
     0
  0
DICTIONARYVAR
  5
22CE
102
{ACAD_REACTORS
330
149
102
}
330
149
100
DictionaryVariables
280
     0
  1
1:1
  0
DICTIONARYVAR
  5
22CC
102
{ACAD_REACTORS
330
149
102
}
330
149
100
DictionaryVariables
280
     0
  1
文字列
  0
DICTIONARYVAR
  5
22CB
102
{ACAD_REACTORS
330
149
102
}
330
149
100
DictionaryVariables
280
     0
  1
STANDARD
  0
DICTIONARYVAR
  5
15E14
102
{ACAD_REACTORS
330
149
102
}
330
149
100
DictionaryVariables
280
     0
  1
Metric50
  0
DICTIONARYVAR
  5
15E15
102
{ACAD_REACTORS
330
149
102
}
330
149
100
DictionaryVariables
280
     0
  1
Metric50
  0
DICTIONARYVAR
  5
4F0
102
{ACAD_REACTORS
330
149
102
}
330
149
100
DictionaryVariables
280
     0
  1
1
  0
DICTIONARYVAR
  5
15E16
102
{ACAD_REACTORS
330
149
102
}
330
149
100
DictionaryVariables
280
     0
  1
1
  0
DICTIONARYVAR
  5
15E17
102
{ACAD_REACTORS
330
149
102
}
330
149
100
DictionaryVariables
280
     0
  1
15
  0
DICTIONARYVAR
  5
22CF
102
{ACAD_REACTORS
330
149
102
}
330
149
100
DictionaryVariables
280
     0
  1
0
  0
DICTIONARYVAR
  5
15BB0
102
{ACAD_REACTORS
330
149
102
}
330
149
100
DictionaryVariables
280
     0
  1
0.000000
  0
DICTIONARYVAR
  5
22CD
102
{ACAD_REACTORS
330
149
102
}
330
149
100
DictionaryVariables
280
     0
  1
0
  0
DICTIONARYVAR
  5
14A
102
{ACAD_REACTORS
330
149
102
}
330
149
100
DictionaryVariables
280
     0
  1
96
  0
DICTIONARY
  5
15E2F
102
{ACAD_REACTORS
330
15E2D
102
}
330
15E2D
100
AcDbDictionary
281
     1
  0
DICTIONARY
  5
15E2E
102
{ACAD_REACTORS
330
15E2D
102
}
330
15E2D
100
AcDbDictionary
281
     1
  3
2249228091136
350
15E28
  3
2249228091152
350
15E29
  3
2249228091168
350
15E2A
  3
2249228091184
350
15E2B
  3
2249228091200
350
15E2C
  0
DICTIONARY
  5
15E32
330
15D87
100
AcDbDictionary
280
     1
281
     1
  3
ACAD_XREC_ROUNDTRIP
360
15E33
  0
DICTIONARY
  5
2356
330
1E
100
AcDbDictionary
280
     1
281
     1
  0
DICTIONARY
  5
15B51
330
22
100
AcDbDictionary
280
     1
281
     1
  0
DICTIONARY
  5
2270
330
226F
100
AcDbDictionary
280
     1
281
     1
  3
BUMPTILE
360
2272
  3
DIFFUSETILE
360
2271
  3
OPACITYTILE
360
2275
  3
REFLECTIONTILE
360
2274
  3
REFRACTIONTILE
360
2276
  3
SPECULARTILE
360
2273
  0
DICTIONARY
  5
2268
330
2267
100
AcDbDictionary
280
     1
281
     1
  3
BUMPTILE
360
226A
  3
DIFFUSETILE
360
2269
  3
OPACITYTILE
360
226D
  3
REFLECTIONTILE
360
226C
  3
REFRACTIONTILE
360
226E
  3
SPECULARTILE
360
226B
  0
DICTIONARY
  5
2278
330
2277
100
AcDbDictionary
280
     1
281
     1
  3
BUMPTILE
360
227A
  3
DIFFUSETILE
360
2279
  3
OPACITYTILE
360
227D
  3
REFLECTIONTILE
360
227C
  3
REFRACTIONTILE
360
227E
  3
SPECULARTILE
360
227B
  0
DICTIONARY
  5
15E30
330
15D85
100
AcDbDictionary
280
     1
281
     1
  3
ACAD_XREC_ROUNDTRIP
360
15E31
  0
DICTIONARY
  5
22C8
330
2292
100
AcDbDictionary
280
     1
281
     1
  3
ACAD_ROUNDTRIP_2008_TABLESTYLE_CELLSTYLEMAP
360
15E26
  0
XRECORD
  5
15E28
102
{ACAD_REACTORS
330
15E2E
102
}
330
15E2E
100
AcDbXrecord
280
     1
  1
AcDb_Thumbnail_Schema
102
{ATTRRECORD
341
15E29
  2
AcDbDs::TreatedAsObjectData
280
     1
291
     1
102
ATTRRECORD}
102
{ATTRRECORD
341
15E2A
  2
AcDbDs::Legacy
280
     1
291
     1
102
ATTRRECORD}
  2
AcDbDs::ID
280
    10
 91
        8
102
{ATTRRECORD
341
15E2B
  2
AcDs:Indexable
280
     1
291
     1
102
ATTRRECORD}
102
{ATTRRECORD
341
15E2C
  2
AcDbDs::HandleAttribute
280
     7
282
     1
102
ATTRRECORD}
  2
Thumbnail_Data
280
    15
 91
        0
  0
XRECORD
  5
15E29
102
{ACAD_REACTORS
330
15E2E
102
}
330
15E2E
100
AcDbXrecord
280
     1
  1
AcDbDs::TreatedAsObjectDataSchema
  2
AcDbDs::TreatedAsObjectData
280
     1
 91
        0
  0
XRECORD
  5
15E2A
102
{ACAD_REACTORS
330
15E2E
102
}
330
15E2E
100
AcDbXrecord
280
     1
  1
AcDbDs::LegacySchema
  2
AcDbDs::Legacy
280
     1
 91
        0
  0
XRECORD
  5
15E2B
102
{ACAD_REACTORS
330
15E2E
102
}
330
15E2E
100
AcDbXrecord
280
     1
  1
AcDbDs::IndexedPropertySchema
  2
AcDs:Indexable
280
     1
 91
        0
  0
XRECORD
  5
15E2C
102
{ACAD_REACTORS
330
15E2E
102
}
330
15E2E
100
AcDbXrecord
280
     1
  1
AcDbDs::HandleAttributeSchema
  2
AcDbDs::HandleAttribute
280
     7
 91
        1
284
     1
  0
XRECORD
  5
15E33
102
{ACAD_REACTORS
330
15E32
102
}
330
15E32
100
AcDbXrecord
280
     1
102
DISPLAYNAME
  1
Metric50
102
FLAGS
 90
        0
  0
XRECORD
  5
2272
102
{ACAD_REACTORS
330
2270
102
}
330
2270
100
AcDbXrecord
280
     1
270
     1
271
     1
  0
XRECORD
  5
2271
102
{ACAD_REACTORS
330
2270
102
}
330
2270
100
AcDbXrecord
280
     1
270
     1
271
     1
  0
XRECORD
  5
2275
102
{ACAD_REACTORS
330
2270
102
}
330
2270
100
AcDbXrecord
280
     1
270
     1
271
     1
  0
XRECORD
  5
2274
102
{ACAD_REACTORS
330
2270
102
}
330
2270
100
AcDbXrecord
280
     1
270
     1
271
     1
  0
XRECORD
  5
2276
102
{ACAD_REACTORS
330
2270
102
}
330
2270
100
AcDbXrecord
280
     1
270
     1
271
     1
  0
XRECORD
  5
2273
102
{ACAD_REACTORS
330
2270
102
}
330
2270
100
AcDbXrecord
280
     1
270
     1
271
     1
  0
XRECORD
  5
226A
102
{ACAD_REACTORS
330
2268
102
}
330
2268
100
AcDbXrecord
280
     1
270
     1
271
     1
  0
XRECORD
  5
2269
102
{ACAD_REACTORS
330
2268
102
}
330
2268
100
AcDbXrecord
280
     1
270
     1
271
     1
  0
XRECORD
  5
226D
102
{ACAD_REACTORS
330
2268
102
}
330
2268
100
AcDbXrecord
280
     1
270
     1
271
     1
  0
XRECORD
  5
226C
102
{ACAD_REACTORS
330
2268
102
}
330
2268
100
AcDbXrecord
280
     1
270
     1
271
     1
  0
XRECORD
  5
226E
102
{ACAD_REACTORS
330
2268
102
}
330
2268
100
AcDbXrecord
280
     1
270
     1
271
     1
  0
XRECORD
  5
226B
102
{ACAD_REACTORS
330
2268
102
}
330
2268
100
AcDbXrecord
280
     1
270
     1
271
     1
  0
XRECORD
  5
227A
102
{ACAD_REACTORS
330
2278
102
}
330
2278
100
AcDbXrecord
280
     1
270
     1
271
     1
  0
XRECORD
  5
2279
102
{ACAD_REACTORS
330
2278
102
}
330
2278
100
AcDbXrecord
280
     1
270
     1
271
     1
  0
XRECORD
  5
227D
102
{ACAD_REACTORS
330
2278
102
}
330
2278
100
AcDbXrecord
280
     1
270
     1
271
     1
  0
XRECORD
  5
227C
102
{ACAD_REACTORS
330
2278
102
}
330
2278
100
AcDbXrecord
280
     1
270
     1
271
     1
  0
XRECORD
  5
227E
102
{ACAD_REACTORS
330
2278
102
}
330
2278
100
AcDbXrecord
280
     1
270
     1
271
     1
  0
XRECORD
  5
227B
102
{ACAD_REACTORS
330
2278
102
}
330
2278
100
AcDbXrecord
280
     1
270
     1
271
     1
  0
XRECORD
  5
15E31
102
{ACAD_REACTORS
330
15E30
102
}
330
15E30
100
AcDbXrecord
280
     1
102
DISPLAYNAME
  1
Metric50
102
FLAGS
 90
        0
  0
CELLSTYLEMAP
  5
15E26
102
{ACAD_REACTORS
330
22C8
102
}
330
22C8
100
AcDbCellStyleMap
 90
        3
300
CELLSTYLE
  1
TABLEFORMAT_BEGIN
 90
        5
170
     1
 91
        0
 92
    32768
 62
   257
 93
        1
300
CONTENTFORMAT
  1
CONTENTFORMAT_BEGIN
 90
        0
 91
        0
 92
      512
 93
        0
300

 40
0.0
140
1.0
 94
        5
 62
     0
340
11
144
6.0
309
CONTENTFORMAT_END
171
     1
301
MARGIN
  1
CELLMARGIN_BEGIN
 40
1.5
 40
1.5
 40
1.5
 40
1.5
 40
4.5
 40
4.5
309
CELLMARGIN_END
 94
        6
 95
        1
302
GRIDFORMAT
  1
GRIDFORMAT_BEGIN
 90
        0
 91
        1
 62
     0
 92
       -2
340
0
 93
        0
 40
1.125
309
GRIDFORMAT_END
 95
        2
302
GRIDFORMAT
  1
GRIDFORMAT_BEGIN
 90
        0
 91
        1
 62
     0
 92
       -2
340
0
 93
        0
 40
1.125
309
GRIDFORMAT_END
 95
        4
302
GRIDFORMAT
  1
GRIDFORMAT_BEGIN
 90
        0
 91
        1
 62
     0
 92
       -2
340
0
 93
        0
 40
1.125
309
GRIDFORMAT_END
 95
        8
302
GRIDFORMAT
  1
GRIDFORMAT_BEGIN
 90
        0
 91
        1
 62
     0
 92
       -2
340
0
 93
        0
 40
1.125
309
GRIDFORMAT_END
 95
       16
302
GRIDFORMAT
  1
GRIDFORMAT_BEGIN
 90
        0
 91
        1
 62
     0
 92
       -2
340
0
 93
        0
 40
1.125
309
GRIDFORMAT_END
 95
       32
302
GRIDFORMAT
  1
GRIDFORMAT_BEGIN
 90
        0
 91
        1
 62
     0
 92
       -2
340
0
 93
        0
 40
1.125
309
GRIDFORMAT_END
309
TABLEFORMAT_END
  1
CELLSTYLE_BEGIN
 90
        1
 91
        1
300
_TITLE
309
CELLSTYLE_END
300
CELLSTYLE
  1
TABLEFORMAT_BEGIN
 90
        5
170
     1
 91
        0
 92
        0
 62
   257
 93
        1
300
CONTENTFORMAT
  1
CONTENTFORMAT_BEGIN
 90
        0
 91
        0
 92
      512
 93
        0
300

 40
0.0
140
1.0
 94
        5
 62
     0
340
11
144
4.5
309
CONTENTFORMAT_END
171
     1
301
MARGIN
  1
CELLMARGIN_BEGIN
 40
1.5
 40
1.5
 40
1.5
 40
1.5
 40
4.5
 40
4.5
309
CELLMARGIN_END
 94
        6
 95
        1
302
GRIDFORMAT
  1
GRIDFORMAT_BEGIN
 90
        0
 91
        1
 62
     0
 92
       -2
340
0
 93
        0
 40
1.125
309
GRIDFORMAT_END
 95
        2
302
GRIDFORMAT
  1
GRIDFORMAT_BEGIN
 90
        0
 91
        1
 62
     0
 92
       -2
340
0
 93
        0
 40
1.125
309
GRIDFORMAT_END
 95
        4
302
GRIDFORMAT
  1
GRIDFORMAT_BEGIN
 90
        0
 91
        1
 62
     0
 92
       -2
340
0
 93
        0
 40
1.125
309
GRIDFORMAT_END
 95
        8
302
GRIDFORMAT
  1
GRIDFORMAT_BEGIN
 90
        0
 91
        1
 62
     0
 92
       -2
340
0
 93
        0
 40
1.125
309
GRIDFORMAT_END
 95
       16
302
GRIDFORMAT
  1
GRIDFORMAT_BEGIN
 90
        0
 91
        1
 62
     0
 92
       -2
340
0
 93
        0
 40
1.125
309
GRIDFORMAT_END
 95
       32
302
GRIDFORMAT
  1
GRIDFORMAT_BEGIN
 90
        0
 91
        1
 62
     0
 92
       -2
340
0
 93
        0
 40
1.125
309
GRIDFORMAT_END
309
TABLEFORMAT_END
  1
CELLSTYLE_BEGIN
 90
        2
 91
        1
300
_HEADER
309
CELLSTYLE_END
300
CELLSTYLE
  1
TABLEFORMAT_BEGIN
 90
        5
170
     1
 91
        0
 92
        0
 62
   257
 93
        1
300
CONTENTFORMAT
  1
CONTENTFORMAT_BEGIN
 90
        0
 91
        0
 92
      512
 93
        0
300

 40
0.0
140
1.0
 94
        2
 62
     0
340
11
144
4.5
309
CONTENTFORMAT_END
171
     1
301
MARGIN
  1
CELLMARGIN_BEGIN
 40
1.5
 40
1.5
 40
1.5
 40
1.5
 40
4.5
 40
4.5
309
CELLMARGIN_END
 94
        6
 95
        1
302
GRIDFORMAT
  1
GRIDFORMAT_BEGIN
 90
        0
 91
        1
 62
     0
 92
       -2
340
0
 93
        0
 40
1.125
309
GRIDFORMAT_END
 95
        2
302
GRIDFORMAT
  1
GRIDFORMAT_BEGIN
 90
        0
 91
        1
 62
     0
 92
       -2
340
0
 93
        0
 40
1.125
309
GRIDFORMAT_END
 95
        4
302
GRIDFORMAT
  1
GRIDFORMAT_BEGIN
 90
        0
 91
        1
 62
     0
 92
       -2
340
0
 93
        0
 40
1.125
309
GRIDFORMAT_END
 95
        8
302
GRIDFORMAT
  1
GRIDFORMAT_BEGIN
 90
        0
 91
        1
 62
     0
 92
       -2
340
0
 93
        0
 40
1.125
309
GRIDFORMAT_END
 95
       16
302
GRIDFORMAT
  1
GRIDFORMAT_BEGIN
 90
        0
 91
        1
 62
     0
 92
       -2
340
0
 93
        0
 40
1.125
309
GRIDFORMAT_END
 95
       32
302
GRIDFORMAT
  1
GRIDFORMAT_BEGIN
 90
        0
 91
        1
 62
     0
 92
       -2
340
0
 93
        0
 40
1.125
309
GRIDFORMAT_END
309
TABLEFORMAT_END
  1
CELLSTYLE_BEGIN
 90
        3
 91
        2
300
_DATA
309
CELLSTYLE_END
  0
ENDSEC
  0
SECTION
  2
ACDSDATA
 70
     2
 71
     8
  0
ACDSSCHEMA
 90
        0
  1
AcDb_Thumbnail_Schema
  2
AcDbDs::ID
280
    10
 91
        8
  2
Thumbnail_Data
280
    15
 91
        0
101
ACDSRECORD
 95
        0
 90
        1
  2
AcDbDs::TreatedAsObjectData
280
     1
291
     1
101
ACDSRECORD
 95
        0
 90
        2
  2
AcDbDs::Legacy
280
     1
291
     1
101
ACDSRECORD
  1
AcDbDs::ID
 90
        3
  2
AcDs:Indexable
280
     1
291
     1
101
ACDSRECORD
  1
AcDbDs::ID
 90
        4
  2
AcDbDs::HandleAttribute
280
     7
282
     1
  0
ACDSSCHEMA
 90
        1
  1
AcDbDs::TreatedAsObjectDataSchema
  2
AcDbDs::TreatedAsObjectData
280
     1
 91
        0
  0
ACDSSCHEMA
 90
        2
  1
AcDbDs::LegacySchema
  2
AcDbDs::Legacy
280
     1
 91
        0
  0
ACDSSCHEMA
 90
        3
  1
AcDbDs::IndexedPropertySchema
  2
AcDs:Indexable
280
     1
 91
        0
  0
ACDSSCHEMA
 90
        4
  1
AcDbDs::HandleAttributeSchema
  2
AcDbDs::HandleAttribute
280
     7
 91
        1
284
     1
  0
ACDSRECORD
 90
        0
  2
AcDbDs::ID
280
    10
320
1E
  2
Thumbnail_Data
280
    15
 94
     1015
310
89504E470D0A1A0A0000000D49484452000000B40000007F0803000000713C187700000300504C5445000000000000FFFFFF0000000000000000000000000000000000000000000000000000330000660000990000CC0000FF0033000033330033660033990033CC0033FF0066000066330066660066990066CC0066FF0099
310
000099330099660099990099CC0099FF00CC0000CC3300CC6600CC9900CCCC00CCFF00FF0000FF3300FF6600FF9900FFCC00FFFF3300003300333300663300993300CC3300FF3333003333333333663333993333CC3333FF3366003366333366663366993366CC3366FF3399003399333399663399993399CC3399FF33CC00
310
33CC3333CC6633CC9933CCCC33CCFF33FF0033FF3333FF6633FF9933FFCC33FFFF6600006600336600666600996600CC6600FF6633006633336633666633996633CC6633FF6666006666336666666666996666CC6666FF6699006699336699666699996699CC6699FF66CC0066CC3366CC6666CC9966CCCC66CCFF66FF0066
310
FF3366FF6666FF9966FFCC66FFFF9900009900339900669900999900CC9900FF9933009933339933669933999933CC9933FF9966009966339966669966999966CC9966FF9999009999339999669999999999CC9999FF99CC0099CC3399CC6699CC9999CCCC99CCFF99FF0099FF3399FF6699FF9999FFCC99FFFFCC0000CC00
310
33CC0066CC0099CC00CCCC00FFCC3300CC3333CC3366CC3399CC33CCCC33FFCC6600CC6633CC6666CC6699CC66CCCC66FFCC9900CC9933CC9966CC9999CC99CCCC99FFCCCC00CCCC33CCCC66CCCC99CCCCCCCCCCFFCCFF00CCFF33CCFF66CCFF99CCFFCCCCFFFFFF0000FF0033FF0066FF0099FF00CCFF00FFFF3300FF3333
310
FF3366FF3399FF33CCFF33FFFF6600FF6633FF6666FF6699FF66CCFF66FFFF9900FF9933FF9966FF9999FF99CCFF99FFFFCC00FFCC33FFCC66FFCC99FFCCCCFFCCFFFFFF00FFFF33FFFF66FFFF99FFFFCCFFFFFF0000000D0D0D1A1A1A2828283535354343435050505D5D5D6B6B6B787878868686939393A1A1A1AEAEAEBB
310
BBBBC9C9C9D6D6D6E4E4E4F1F1F1FFFFFF000000000000000000000000000000000000000000000000000000000000C11FEF66000000B24944415478DAEDDC310AC020100440FFFF4C3F90CA3E55408B9080015D32575EE320C27257585A5E1DA5D5B4CA44B75CF4F558BAFE584FFD3AD97F7F4087CEB965686868E859B444
310
8486868686FE7E0810E3D0D0D0D0D0D0D0D0D07BA00D01D0D0D0D0560812111A1A1A1A1A1A1A1ADA0A011A1A1A1A7A055A8C4343434343434343436F823604404343435B2148446868686868686868682B0468686868E81568310E0D0DFD2774E26F9B1211FA0E1D5827D6C52B8B79A9C1D00000000049454E44AE426082
  0
ACDSRECORD
 90
        0
  2
AcDbDs::ID
280
    10
320
22
  2
Thumbnail_Data
280
    15
 94
     1773
310
89504E470D0A1A0A0000000D494844520000010000000083080300000055FF359600000300504C5445000000FFFFFF0000000000000000000000000000000000000000000000000000000000330000660000990000CC0000FF0033000033330033660033990033CC0033FF0066000066330066660066990066CC0066FF0099
310
000099330099660099990099CC0099FF00CC0000CC3300CC6600CC9900CCCC00CCFF00FF0000FF3300FF6600FF9900FFCC00FFFF3300003300333300663300993300CC3300FF3333003333333333663333993333CC3333FF3366003366333366663366993366CC3366FF3399003399333399663399993399CC3399FF33CC00
310
33CC3333CC6633CC9933CCCC33CCFF33FF0033FF3333FF6633FF9933FFCC33FFFF6600006600336600666600996600CC6600FF6633006633336633666633996633CC6633FF6666006666336666666666996666CC6666FF6699006699336699666699996699CC6699FF66CC0066CC3366CC6666CC9966CCCC66CCFF66FF0066
310
FF3366FF6666FF9966FFCC66FFFF9900009900339900669900999900CC9900FF9933009933339933669933999933CC9933FF9966009966339966669966999966CC9966FF9999009999339999669999999999CC9999FF99CC0099CC3399CC6699CC9999CCCC99CCFF99FF0099FF3399FF6699FF9999FFCC99FFFFCC0000CC00
310
33CC0066CC0099CC00CCCC00FFCC3300CC3333CC3366CC3399CC33CCCC33FFCC6600CC6633CC6666CC6699CC66CCCC66FFCC9900CC9933CC9966CC9999CC99CCCC99FFCCCC00CCCC33CCCC66CCCC99CCCCCCCCCCFFCCFF00CCFF33CCFF66CCFF99CCFFCCCCFFFFFF0000FF0033FF0066FF0099FF00CCFF00FFFF3300FF3333
310
FF3366FF3399FF33CCFF33FFFF6600FF6633FF6666FF6699FF66CCFF66FFFF9900FF9933FF9966FF9999FF99CCFF99FFFFCC00FFCC33FFCC66FFCC99FFCCCCFFCCFFFFFF00FFFF33FFFF66FFFF99FFFFCCFFFFFF0000000D0D0D1A1A1A2828283535354343435050505D5D5D6B6B6B787878868686939393A1A1A1AEAEAEBB
310
BBBBC9C9C9D6D6D6E4E4E4F1F1F1FFFFFF0000000000000000000000000000000000000000000000000000000000003AE5ACE9000003A84944415478DAED9A6B92E3200C8475FF43F9245CA3FFEF4C8CB11012069CCD2495FEAA76273B2DCBD016E6911521849041D27F53DF1DD474C56535C561321FD68BEB64880C785CF5
310
F3141F17A01191D5FD7373A9AA804045CE0E71C3F2BF1F722A9FA2B0B6E410874D18203FA64A6880EC962F1BB0677F6703A4548C6300B2BA6CC079FDFB1AD0EB841A52AB43A01A92910166ECBE8F0177D58B168BEA6FB2BF78B901ED3BF5BE6A5A8CD50A184B8759078EFBA53C5C6DE3EEAB758BDB30C0EFD8623A5970A033
310
753E494DF3614F48B7B812444F854CABCE5A11F7C24CDCFCB0EFAE04CD488CB8143B4BB7306E30AC8E8BDB34FD12CCB7ADD60756AD560FE703A9A67A9C8B28A95F93389696559C130627CCC495A9D9B469B6F8714CF641174B93BBAA6BC0D98F54D643B02D3E6C7984412F1B4C98E4C783D371275D690A96878093AE7FB346
310
855835C5493A434016D2E9B0E10A40A900719EF1F114BD722B6A558C6105886BC0514167054810565580B8E9748BC70D2855E5A6EBA8B9DD1254C0F98641B5B7B23D3361F9576DD8F13149980ED34B019CFB90C8CFAC4A47F52B2058B9383DAB0D2861D5CA70281DA6A745A8657898AE32406F1D5BD537C0F64CDC9ED930BC
310
CE00E4E310D4AD87A839E22843F454D7003806D85B7961FA8CA29FEEAE01FB99CF99AE7EC6EA44087AA6F554CF809CFDAA02DA30DF002FDD330CD0AF1E404C17CF518EAE1A1920680C10C700C1980136DDBA01C982FC1722155D75FFE1AA5518C2242A0C7B68EA861D776DD3B102260CF85D5CE9778054A3FCA12A033AAA6B
310
C09EDD1820CD3BA0090B0C70D2DD9F0651A733131DA49E056275741D5092B49BA1CB59E0EFD7013D75D4008C19F09275C0EC4A504F835834A0B31DD60B21794905ACEF057CD5D90BC8D85EC03CFF66297C9D6E6D2FA0FE785D8C367291FA61BB417DFA14ECF72655F564B39AD499C9FA794039EB48D036456D5A381091F87C
310
65463DF7BE879AE224FA08A37B6E22E7DD92EA645895C3072238BF966B0EECD0A832A0568FCC1BDC30DF0A1EAD4DD59B19DE0193FFAEB87526D874027117D1B5A7FE5207EA37C97EDDECF7AC9D0607D299362D19A0AA4F1D377AAA7B04DDA857FFA361EC585C564ED971FF8B913575DBD6AF3761FD5425EE3A6C96ED979E7C
310
71E976997EB411DBEDC67EB801F23706C876D5C75575C20099304008F9681E55BC7D77FFBF77246F05F9520FBEDE004E6484104208218410420821841042082184104208218410420821841042082184104208218410420821841042082184104208210EFF00934D6DED9FDA56980000000049454E44AE426082
  0
ENDSEC
  0
EOF
